ISO-10303-21;
HEADER;
/* Generated by software containing ST-Developer
 * from STEP Tools, Inc. (www.steptools.com) 
 */

FILE_DESCRIPTION(
/* description */ (''),
/* implementation_level */ '2;1');

FILE_NAME(
/* name */ 
'\\\\faztek-vsrv01\\FolderRedirections\\ChristinH\\Desktop\\13FT9000.s
tp',
/* time_stamp */ '2017-09-12T11:43:25-04:00',
/* author */ ('christinh'),
/* organization */ (''),
/* preprocessor_version */ 'ST-DEVELOPER v16.1',
/* originating_system */ 'AutoCAD Mechanical',
/* authorisation */ '');

FILE_SCHEMA (('AUTOMOTIVE_DESIGN { 1 0 10303 214 3 1 1 }'));
ENDSEC;

DATA;
#10=MECHANICAL_DESIGN_GEOMETRIC_PRESENTATION_REPRESENTATION('',(#16),#590);
#11=(
CONVERSION_BASED_UNIT('degree',#12)
NAMED_UNIT(#592)
PLANE_ANGLE_UNIT()
);
#12=PLANE_ANGLE_MEASURE_WITH_UNIT(PLANE_ANGLE_MEASURE(0.01745329252),#597);
#13=PRESENTATION_LAYER_ASSIGNMENT('0','0',(#17));
#14=SHAPE_REPRESENTATION_RELATIONSHIP('SRR','None',#600,#15);
#15=ADVANCED_BREP_SHAPE_REPRESENTATION('',(#17),#589);
#16=STYLED_ITEM('',(#609),#17);
#17=MANIFOLD_SOLID_BREP('2C32',#350);
#18=FACE_BOUND('',#79,.T.);
#19=FACE_BOUND('',#81,.T.);
#20=CIRCLE('',#354,0.0599999999999992);
#21=CIRCLE('',#355,0.0599999999999992);
#22=CIRCLE('',#358,0.0599999999999991);
#23=CIRCLE('',#359,0.0599999999999991);
#24=CIRCLE('',#362,0.0599999999999991);
#25=CIRCLE('',#363,0.0599999999999991);
#26=CIRCLE('',#366,0.059999999999999);
#27=CIRCLE('',#367,0.059999999999999);
#28=CIRCLE('',#370,0.0830000000000002);
#29=CIRCLE('',#371,0.0830000000000002);
#30=CIRCLE('',#374,0.0830000000000002);
#31=CIRCLE('',#375,0.0830000000000002);
#32=CIRCLE('',#378,0.0830000000000002);
#33=CIRCLE('',#379,0.0830000000000002);
#34=CIRCLE('',#382,0.0830000000000002);
#35=CIRCLE('',#383,0.0830000000000002);
#36=CYLINDRICAL_SURFACE('',#353,0.0599999999999992);
#37=CYLINDRICAL_SURFACE('',#357,0.0599999999999991);
#38=CYLINDRICAL_SURFACE('',#361,0.0599999999999991);
#39=CYLINDRICAL_SURFACE('',#365,0.059999999999999);
#40=CYLINDRICAL_SURFACE('',#369,0.0830000000000002);
#41=CYLINDRICAL_SURFACE('',#373,0.0830000000000002);
#42=CYLINDRICAL_SURFACE('',#377,0.0830000000000002);
#43=CYLINDRICAL_SURFACE('',#381,0.0830000000000002);
#44=FACE_OUTER_BOUND('',#62,.T.);
#45=FACE_OUTER_BOUND('',#63,.T.);
#46=FACE_OUTER_BOUND('',#64,.T.);
#47=FACE_OUTER_BOUND('',#65,.T.);
#48=FACE_OUTER_BOUND('',#66,.T.);
#49=FACE_OUTER_BOUND('',#67,.T.);
#50=FACE_OUTER_BOUND('',#68,.T.);
#51=FACE_OUTER_BOUND('',#69,.T.);
#52=FACE_OUTER_BOUND('',#70,.T.);
#53=FACE_OUTER_BOUND('',#71,.T.);
#54=FACE_OUTER_BOUND('',#72,.T.);
#55=FACE_OUTER_BOUND('',#73,.T.);
#56=FACE_OUTER_BOUND('',#74,.T.);
#57=FACE_OUTER_BOUND('',#75,.T.);
#58=FACE_OUTER_BOUND('',#76,.T.);
#59=FACE_OUTER_BOUND('',#77,.T.);
#60=FACE_OUTER_BOUND('',#78,.T.);
#61=FACE_OUTER_BOUND('',#80,.T.);
#62=EDGE_LOOP('',(#226,#227,#228,#229));
#63=EDGE_LOOP('',(#230,#231,#232,#233));
#64=EDGE_LOOP('',(#234,#235,#236,#237));
#65=EDGE_LOOP('',(#238,#239,#240,#241));
#66=EDGE_LOOP('',(#242,#243,#244,#245));
#67=EDGE_LOOP('',(#246,#247,#248,#249));
#68=EDGE_LOOP('',(#250,#251,#252,#253));
#69=EDGE_LOOP('',(#254,#255,#256,#257));
#70=EDGE_LOOP('',(#258,#259,#260,#261));
#71=EDGE_LOOP('',(#262,#263,#264,#265));
#72=EDGE_LOOP('',(#266,#267,#268,#269));
#73=EDGE_LOOP('',(#270,#271,#272,#273));
#74=EDGE_LOOP('',(#274,#275,#276,#277));
#75=EDGE_LOOP('',(#278,#279,#280,#281));
#76=EDGE_LOOP('',(#282,#283,#284,#285));
#77=EDGE_LOOP('',(#286,#287,#288,#289));
#78=EDGE_LOOP('',(#290,#291,#292,#293,#294,#295,#296,#297));
#79=EDGE_LOOP('',(#298,#299,#300,#301,#302,#303,#304,#305));
#80=EDGE_LOOP('',(#306,#307,#308,#309,#310,#311,#312,#313));
#81=EDGE_LOOP('',(#314,#315,#316,#317,#318,#319,#320,#321));
#82=LINE('',#492,#114);
#83=LINE('',#494,#115);
#84=LINE('',#496,#116);
#85=LINE('',#497,#117);
#86=LINE('',#503,#118);
#87=LINE('',#506,#119);
#88=LINE('',#508,#120);
#89=LINE('',#509,#121);
#90=LINE('',#515,#122);
#91=LINE('',#518,#123);
#92=LINE('',#520,#124);
#93=LINE('',#521,#125);
#94=LINE('',#527,#126);
#95=LINE('',#530,#127);
#96=LINE('',#532,#128);
#97=LINE('',#533,#129);
#98=LINE('',#540,#130);
#99=LINE('',#542,#131);
#100=LINE('',#544,#132);
#101=LINE('',#545,#133);
#102=LINE('',#551,#134);
#103=LINE('',#554,#135);
#104=LINE('',#556,#136);
#105=LINE('',#557,#137);
#106=LINE('',#563,#138);
#107=LINE('',#566,#139);
#108=LINE('',#568,#140);
#109=LINE('',#569,#141);
#110=LINE('',#575,#142);
#111=LINE('',#578,#143);
#112=LINE('',#580,#144);
#113=LINE('',#581,#145);
#114=VECTOR('',#390,0.760000000000002);
#115=VECTOR('',#391,1.);
#116=VECTOR('',#392,0.760000000000002);
#117=VECTOR('',#393,1.);
#118=VECTOR('',#400,1.);
#119=VECTOR('',#403,0.760000000000002);
#120=VECTOR('',#404,0.760000000000002);
#121=VECTOR('',#405,1.);
#122=VECTOR('',#412,1.);
#123=VECTOR('',#415,0.760000000000002);
#124=VECTOR('',#416,0.760000000000002);
#125=VECTOR('',#417,1.);
#126=VECTOR('',#424,1.);
#127=VECTOR('',#427,0.760000000000002);
#128=VECTOR('',#428,0.760000000000002);
#129=VECTOR('',#429,1.);
#130=VECTOR('',#438,0.834000000000001);
#131=VECTOR('',#439,1.);
#132=VECTOR('',#440,0.834000000000001);
#133=VECTOR('',#441,1.);
#134=VECTOR('',#448,1.);
#135=VECTOR('',#451,0.834000000000001);
#136=VECTOR('',#452,0.834000000000001);
#137=VECTOR('',#453,1.);
#138=VECTOR('',#460,1.);
#139=VECTOR('',#463,0.834000000000001);
#140=VECTOR('',#464,0.834000000000001);
#141=VECTOR('',#465,1.);
#142=VECTOR('',#472,1.);
#143=VECTOR('',#475,0.833999999999999);
#144=VECTOR('',#476,0.833999999999999);
#145=VECTOR('',#477,1.);
#146=VERTEX_POINT('',#490);
#147=VERTEX_POINT('',#491);
#148=VERTEX_POINT('',#493);
#149=VERTEX_POINT('',#495);
#150=VERTEX_POINT('',#499);
#151=VERTEX_POINT('',#501);
#152=VERTEX_POINT('',#505);
#153=VERTEX_POINT('',#507);
#154=VERTEX_POINT('',#511);
#155=VERTEX_POINT('',#513);
#156=VERTEX_POINT('',#517);
#157=VERTEX_POINT('',#519);
#158=VERTEX_POINT('',#523);
#159=VERTEX_POINT('',#525);
#160=VERTEX_POINT('',#529);
#161=VERTEX_POINT('',#531);
#162=VERTEX_POINT('',#538);
#163=VERTEX_POINT('',#539);
#164=VERTEX_POINT('',#541);
#165=VERTEX_POINT('',#543);
#166=VERTEX_POINT('',#547);
#167=VERTEX_POINT('',#549);
#168=VERTEX_POINT('',#553);
#169=VERTEX_POINT('',#555);
#170=VERTEX_POINT('',#559);
#171=VERTEX_POINT('',#561);
#172=VERTEX_POINT('',#565);
#173=VERTEX_POINT('',#567);
#174=VERTEX_POINT('',#571);
#175=VERTEX_POINT('',#573);
#176=VERTEX_POINT('',#577);
#177=VERTEX_POINT('',#579);
#178=EDGE_CURVE('',#146,#147,#82,.T.);
#179=EDGE_CURVE('',#146,#148,#83,.T.);
#180=EDGE_CURVE('',#149,#148,#84,.T.);
#181=EDGE_CURVE('',#147,#149,#85,.T.);
#182=EDGE_CURVE('',#147,#150,#20,.T.);
#183=EDGE_CURVE('',#151,#149,#21,.T.);
#184=EDGE_CURVE('',#150,#151,#86,.T.);
#185=EDGE_CURVE('',#150,#152,#87,.T.);
#186=EDGE_CURVE('',#153,#151,#88,.T.);
#187=EDGE_CURVE('',#152,#153,#89,.T.);
#188=EDGE_CURVE('',#152,#154,#22,.T.);
#189=EDGE_CURVE('',#155,#153,#23,.T.);
#190=EDGE_CURVE('',#154,#155,#90,.T.);
#191=EDGE_CURVE('',#154,#156,#91,.T.);
#192=EDGE_CURVE('',#157,#155,#92,.T.);
#193=EDGE_CURVE('',#156,#157,#93,.T.);
#194=EDGE_CURVE('',#156,#158,#24,.T.);
#195=EDGE_CURVE('',#159,#157,#25,.T.);
#196=EDGE_CURVE('',#158,#159,#94,.T.);
#197=EDGE_CURVE('',#158,#160,#95,.T.);
#198=EDGE_CURVE('',#161,#159,#96,.T.);
#199=EDGE_CURVE('',#160,#161,#97,.T.);
#200=EDGE_CURVE('',#160,#146,#26,.T.);
#201=EDGE_CURVE('',#148,#161,#27,.T.);
#202=EDGE_CURVE('',#162,#163,#98,.T.);
#203=EDGE_CURVE('',#163,#164,#99,.T.);
#204=EDGE_CURVE('',#165,#164,#100,.T.);
#205=EDGE_CURVE('',#162,#165,#101,.T.);
#206=EDGE_CURVE('',#166,#162,#28,.T.);
#207=EDGE_CURVE('',#167,#165,#29,.T.);
#208=EDGE_CURVE('',#166,#167,#102,.T.);
#209=EDGE_CURVE('',#168,#166,#103,.T.);
#210=EDGE_CURVE('',#169,#167,#104,.T.);
#211=EDGE_CURVE('',#168,#169,#105,.T.);
#212=EDGE_CURVE('',#170,#168,#30,.T.);
#213=EDGE_CURVE('',#171,#169,#31,.T.);
#214=EDGE_CURVE('',#170,#171,#106,.T.);
#215=EDGE_CURVE('',#172,#170,#107,.T.);
#216=EDGE_CURVE('',#173,#171,#108,.T.);
#217=EDGE_CURVE('',#172,#173,#109,.T.);
#218=EDGE_CURVE('',#174,#172,#32,.T.);
#219=EDGE_CURVE('',#175,#173,#33,.T.);
#220=EDGE_CURVE('',#174,#175,#110,.T.);
#221=EDGE_CURVE('',#176,#174,#111,.T.);
#222=EDGE_CURVE('',#177,#175,#112,.T.);
#223=EDGE_CURVE('',#176,#177,#113,.T.);
#224=EDGE_CURVE('',#163,#176,#34,.T.);
#225=EDGE_CURVE('',#164,#177,#35,.T.);
#226=ORIENTED_EDGE('',*,*,#178,.F.);
#227=ORIENTED_EDGE('',*,*,#179,.T.);
#228=ORIENTED_EDGE('',*,*,#180,.F.);
#229=ORIENTED_EDGE('',*,*,#181,.F.);
#230=ORIENTED_EDGE('',*,*,#182,.F.);
#231=ORIENTED_EDGE('',*,*,#181,.T.);
#232=ORIENTED_EDGE('',*,*,#183,.F.);
#233=ORIENTED_EDGE('',*,*,#184,.F.);
#234=ORIENTED_EDGE('',*,*,#185,.F.);
#235=ORIENTED_EDGE('',*,*,#184,.T.);
#236=ORIENTED_EDGE('',*,*,#186,.F.);
#237=ORIENTED_EDGE('',*,*,#187,.F.);
#238=ORIENTED_EDGE('',*,*,#188,.F.);
#239=ORIENTED_EDGE('',*,*,#187,.T.);
#240=ORIENTED_EDGE('',*,*,#189,.F.);
#241=ORIENTED_EDGE('',*,*,#190,.F.);
#242=ORIENTED_EDGE('',*,*,#191,.F.);
#243=ORIENTED_EDGE('',*,*,#190,.T.);
#244=ORIENTED_EDGE('',*,*,#192,.F.);
#245=ORIENTED_EDGE('',*,*,#193,.F.);
#246=ORIENTED_EDGE('',*,*,#194,.F.);
#247=ORIENTED_EDGE('',*,*,#193,.T.);
#248=ORIENTED_EDGE('',*,*,#195,.F.);
#249=ORIENTED_EDGE('',*,*,#196,.F.);
#250=ORIENTED_EDGE('',*,*,#197,.F.);
#251=ORIENTED_EDGE('',*,*,#196,.T.);
#252=ORIENTED_EDGE('',*,*,#198,.F.);
#253=ORIENTED_EDGE('',*,*,#199,.F.);
#254=ORIENTED_EDGE('',*,*,#200,.F.);
#255=ORIENTED_EDGE('',*,*,#199,.T.);
#256=ORIENTED_EDGE('',*,*,#201,.F.);
#257=ORIENTED_EDGE('',*,*,#179,.F.);
#258=ORIENTED_EDGE('',*,*,#202,.T.);
#259=ORIENTED_EDGE('',*,*,#203,.T.);
#260=ORIENTED_EDGE('',*,*,#204,.F.);
#261=ORIENTED_EDGE('',*,*,#205,.F.);
#262=ORIENTED_EDGE('',*,*,#206,.T.);
#263=ORIENTED_EDGE('',*,*,#205,.T.);
#264=ORIENTED_EDGE('',*,*,#207,.F.);
#265=ORIENTED_EDGE('',*,*,#208,.F.);
#266=ORIENTED_EDGE('',*,*,#209,.T.);
#267=ORIENTED_EDGE('',*,*,#208,.T.);
#268=ORIENTED_EDGE('',*,*,#210,.F.);
#269=ORIENTED_EDGE('',*,*,#211,.F.);
#270=ORIENTED_EDGE('',*,*,#212,.T.);
#271=ORIENTED_EDGE('',*,*,#211,.T.);
#272=ORIENTED_EDGE('',*,*,#213,.F.);
#273=ORIENTED_EDGE('',*,*,#214,.F.);
#274=ORIENTED_EDGE('',*,*,#215,.T.);
#275=ORIENTED_EDGE('',*,*,#214,.T.);
#276=ORIENTED_EDGE('',*,*,#216,.F.);
#277=ORIENTED_EDGE('',*,*,#217,.F.);
#278=ORIENTED_EDGE('',*,*,#218,.T.);
#279=ORIENTED_EDGE('',*,*,#217,.T.);
#280=ORIENTED_EDGE('',*,*,#219,.F.);
#281=ORIENTED_EDGE('',*,*,#220,.F.);
#282=ORIENTED_EDGE('',*,*,#221,.T.);
#283=ORIENTED_EDGE('',*,*,#220,.T.);
#284=ORIENTED_EDGE('',*,*,#222,.F.);
#285=ORIENTED_EDGE('',*,*,#223,.F.);
#286=ORIENTED_EDGE('',*,*,#224,.T.);
#287=ORIENTED_EDGE('',*,*,#223,.T.);
#288=ORIENTED_EDGE('',*,*,#225,.F.);
#289=ORIENTED_EDGE('',*,*,#203,.F.);
#290=ORIENTED_EDGE('',*,*,#225,.T.);
#291=ORIENTED_EDGE('',*,*,#222,.T.);
#292=ORIENTED_EDGE('',*,*,#219,.T.);
#293=ORIENTED_EDGE('',*,*,#216,.T.);
#294=ORIENTED_EDGE('',*,*,#213,.T.);
#295=ORIENTED_EDGE('',*,*,#210,.T.);
#296=ORIENTED_EDGE('',*,*,#207,.T.);
#297=ORIENTED_EDGE('',*,*,#204,.T.);
#298=ORIENTED_EDGE('',*,*,#201,.T.);
#299=ORIENTED_EDGE('',*,*,#198,.T.);
#300=ORIENTED_EDGE('',*,*,#195,.T.);
#301=ORIENTED_EDGE('',*,*,#192,.T.);
#302=ORIENTED_EDGE('',*,*,#189,.T.);
#303=ORIENTED_EDGE('',*,*,#186,.T.);
#304=ORIENTED_EDGE('',*,*,#183,.T.);
#305=ORIENTED_EDGE('',*,*,#180,.T.);
#306=ORIENTED_EDGE('',*,*,#224,.F.);
#307=ORIENTED_EDGE('',*,*,#202,.F.);
#308=ORIENTED_EDGE('',*,*,#206,.F.);
#309=ORIENTED_EDGE('',*,*,#209,.F.);
#310=ORIENTED_EDGE('',*,*,#212,.F.);
#311=ORIENTED_EDGE('',*,*,#215,.F.);
#312=ORIENTED_EDGE('',*,*,#218,.F.);
#313=ORIENTED_EDGE('',*,*,#221,.F.);
#314=ORIENTED_EDGE('',*,*,#200,.T.);
#315=ORIENTED_EDGE('',*,*,#178,.T.);
#316=ORIENTED_EDGE('',*,*,#182,.T.);
#317=ORIENTED_EDGE('',*,*,#185,.T.);
#318=ORIENTED_EDGE('',*,*,#188,.T.);
#319=ORIENTED_EDGE('',*,*,#191,.T.);
#320=ORIENTED_EDGE('',*,*,#194,.T.);
#321=ORIENTED_EDGE('',*,*,#197,.T.);
#322=PLANE('',#352);
#323=PLANE('',#356);
#324=PLANE('',#360);
#325=PLANE('',#364);
#326=PLANE('',#368);
#327=PLANE('',#372);
#328=PLANE('',#376);
#329=PLANE('',#380);
#330=PLANE('',#384);
#331=PLANE('',#385);
#332=ADVANCED_FACE('',(#44),#322,.T.);
#333=ADVANCED_FACE('',(#45),#36,.F.);
#334=ADVANCED_FACE('',(#46),#323,.T.);
#335=ADVANCED_FACE('',(#47),#37,.F.);
#336=ADVANCED_FACE('',(#48),#324,.T.);
#337=ADVANCED_FACE('',(#49),#38,.F.);
#338=ADVANCED_FACE('',(#50),#325,.T.);
#339=ADVANCED_FACE('',(#51),#39,.F.);
#340=ADVANCED_FACE('',(#52),#326,.T.);
#341=ADVANCED_FACE('',(#53),#40,.T.);
#342=ADVANCED_FACE('',(#54),#327,.T.);
#343=ADVANCED_FACE('',(#55),#41,.T.);
#344=ADVANCED_FACE('',(#56),#328,.T.);
#345=ADVANCED_FACE('',(#57),#42,.T.);
#346=ADVANCED_FACE('',(#58),#329,.T.);
#347=ADVANCED_FACE('',(#59),#43,.T.);
#348=ADVANCED_FACE('',(#60,#18),#330,.T.);
#349=ADVANCED_FACE('',(#61,#19),#331,.F.);
#350=CLOSED_SHELL('',(#332,#333,#334,#335,#336,#337,#338,#339,#340,#341,
#342,#343,#344,#345,#346,#347,#348,#349));
#351=AXIS2_PLACEMENT_3D('placement',#488,#386,#387);
#352=AXIS2_PLACEMENT_3D('',#489,#388,#389);
#353=AXIS2_PLACEMENT_3D('',#498,#394,#395);
#354=AXIS2_PLACEMENT_3D('',#500,#396,#397);
#355=AXIS2_PLACEMENT_3D('',#502,#398,#399);
#356=AXIS2_PLACEMENT_3D('',#504,#401,#402);
#357=AXIS2_PLACEMENT_3D('',#510,#406,#407);
#358=AXIS2_PLACEMENT_3D('',#512,#408,#409);
#359=AXIS2_PLACEMENT_3D('',#514,#410,#411);
#360=AXIS2_PLACEMENT_3D('',#516,#413,#414);
#361=AXIS2_PLACEMENT_3D('',#522,#418,#419);
#362=AXIS2_PLACEMENT_3D('',#524,#420,#421);
#363=AXIS2_PLACEMENT_3D('',#526,#422,#423);
#364=AXIS2_PLACEMENT_3D('',#528,#425,#426);
#365=AXIS2_PLACEMENT_3D('',#534,#430,#431);
#366=AXIS2_PLACEMENT_3D('',#535,#432,#433);
#367=AXIS2_PLACEMENT_3D('',#536,#434,#435);
#368=AXIS2_PLACEMENT_3D('',#537,#436,#437);
#369=AXIS2_PLACEMENT_3D('',#546,#442,#443);
#370=AXIS2_PLACEMENT_3D('',#548,#444,#445);
#371=AXIS2_PLACEMENT_3D('',#550,#446,#447);
#372=AXIS2_PLACEMENT_3D('',#552,#449,#450);
#373=AXIS2_PLACEMENT_3D('',#558,#454,#455);
#374=AXIS2_PLACEMENT_3D('',#560,#456,#457);
#375=AXIS2_PLACEMENT_3D('',#562,#458,#459);
#376=AXIS2_PLACEMENT_3D('',#564,#461,#462);
#377=AXIS2_PLACEMENT_3D('',#570,#466,#467);
#378=AXIS2_PLACEMENT_3D('',#572,#468,#469);
#379=AXIS2_PLACEMENT_3D('',#574,#470,#471);
#380=AXIS2_PLACEMENT_3D('',#576,#473,#474);
#381=AXIS2_PLACEMENT_3D('',#582,#478,#479);
#382=AXIS2_PLACEMENT_3D('',#583,#480,#481);
#383=AXIS2_PLACEMENT_3D('',#584,#482,#483);
#384=AXIS2_PLACEMENT_3D('',#585,#484,#485);
#385=AXIS2_PLACEMENT_3D('',#586,#486,#487);
#386=DIRECTION('axis',(0.,0.,1.));
#387=DIRECTION('refdir',(1.,0.,0.));
#388=DIRECTION('center_axis',(0.,-1.,0.));
#389=DIRECTION('ref_axis',(1.,0.,0.));
#390=DIRECTION('',(-1.,0.,0.));
#391=DIRECTION('',(0.,0.,1.));
#392=DIRECTION('',(1.,0.,0.));
#393=DIRECTION('',(0.,0.,1.));
#394=DIRECTION('center_axis',(0.,0.,1.));
#395=DIRECTION('ref_axis',(1.,0.,0.));
#396=DIRECTION('center_axis',(0.,0.,1.));
#397=DIRECTION('ref_axis',(1.,0.,0.));
#398=DIRECTION('center_axis',(0.,0.,-1.));
#399=DIRECTION('ref_axis',(1.,0.,0.));
#400=DIRECTION('',(0.,0.,1.));
#401=DIRECTION('center_axis',(1.,0.,0.));
#402=DIRECTION('ref_axis',(0.,1.,0.));
#403=DIRECTION('',(0.,-1.,0.));
#404=DIRECTION('',(0.,1.,0.));
#405=DIRECTION('',(0.,0.,1.));
#406=DIRECTION('center_axis',(0.,0.,1.));
#407=DIRECTION('ref_axis',(1.,0.,0.));
#408=DIRECTION('center_axis',(0.,0.,1.));
#409=DIRECTION('ref_axis',(1.,0.,0.));
#410=DIRECTION('center_axis',(0.,0.,-1.));
#411=DIRECTION('ref_axis',(1.,0.,0.));
#412=DIRECTION('',(0.,0.,1.));
#413=DIRECTION('center_axis',(0.,1.,0.));
#414=DIRECTION('ref_axis',(-1.,0.,0.));
#415=DIRECTION('',(1.,0.,0.));
#416=DIRECTION('',(-1.,0.,0.));
#417=DIRECTION('',(0.,0.,1.));
#418=DIRECTION('center_axis',(0.,0.,1.));
#419=DIRECTION('ref_axis',(1.,0.,0.));
#420=DIRECTION('center_axis',(0.,0.,1.));
#421=DIRECTION('ref_axis',(1.,0.,0.));
#422=DIRECTION('center_axis',(0.,0.,-1.));
#423=DIRECTION('ref_axis',(1.,0.,0.));
#424=DIRECTION('',(0.,0.,1.));
#425=DIRECTION('center_axis',(-1.,0.,0.));
#426=DIRECTION('ref_axis',(0.,-1.,0.));
#427=DIRECTION('',(0.,1.,0.));
#428=DIRECTION('',(0.,-1.,0.));
#429=DIRECTION('',(0.,0.,1.));
#430=DIRECTION('center_axis',(0.,0.,1.));
#431=DIRECTION('ref_axis',(1.,0.,0.));
#432=DIRECTION('center_axis',(0.,0.,1.));
#433=DIRECTION('ref_axis',(1.,0.,0.));
#434=DIRECTION('center_axis',(0.,0.,-1.));
#435=DIRECTION('ref_axis',(1.,0.,0.));
#436=DIRECTION('center_axis',(-1.,0.,0.));
#437=DIRECTION('ref_axis',(0.,-1.,0.));
#438=DIRECTION('',(0.,-1.,0.));
#439=DIRECTION('',(0.,0.,1.));
#440=DIRECTION('',(0.,-1.,0.));
#441=DIRECTION('',(0.,0.,1.));
#442=DIRECTION('center_axis',(0.,0.,1.));
#443=DIRECTION('ref_axis',(1.,0.,0.));
#444=DIRECTION('center_axis',(0.,0.,1.));
#445=DIRECTION('ref_axis',(1.,0.,0.));
#446=DIRECTION('center_axis',(0.,0.,1.));
#447=DIRECTION('ref_axis',(1.,0.,0.));
#448=DIRECTION('',(0.,0.,1.));
#449=DIRECTION('center_axis',(0.,1.,0.));
#450=DIRECTION('ref_axis',(-1.,0.,0.));
#451=DIRECTION('',(-1.,0.,0.));
#452=DIRECTION('',(-1.,0.,0.));
#453=DIRECTION('',(0.,0.,1.));
#454=DIRECTION('center_axis',(0.,0.,1.));
#455=DIRECTION('ref_axis',(1.,0.,0.));
#456=DIRECTION('center_axis',(0.,0.,1.));
#457=DIRECTION('ref_axis',(1.,0.,0.));
#458=DIRECTION('center_axis',(0.,0.,1.));
#459=DIRECTION('ref_axis',(1.,0.,0.));
#460=DIRECTION('',(0.,0.,1.));
#461=DIRECTION('center_axis',(1.,0.,0.));
#462=DIRECTION('ref_axis',(0.,1.,0.));
#463=DIRECTION('',(0.,1.,0.));
#464=DIRECTION('',(0.,1.,0.));
#465=DIRECTION('',(0.,0.,1.));
#466=DIRECTION('center_axis',(0.,0.,1.));
#467=DIRECTION('ref_axis',(1.,0.,0.));
#468=DIRECTION('center_axis',(0.,0.,1.));
#469=DIRECTION('ref_axis',(1.,0.,0.));
#470=DIRECTION('center_axis',(0.,0.,1.));
#471=DIRECTION('ref_axis',(1.,0.,0.));
#472=DIRECTION('',(0.,0.,1.));
#473=DIRECTION('center_axis',(0.,-1.,0.));
#474=DIRECTION('ref_axis',(1.,0.,0.));
#475=DIRECTION('',(1.,0.,0.));
#476=DIRECTION('',(1.,0.,0.));
#477=DIRECTION('',(0.,0.,1.));
#478=DIRECTION('center_axis',(0.,0.,1.));
#479=DIRECTION('ref_axis',(1.,0.,0.));
#480=DIRECTION('center_axis',(0.,0.,1.));
#481=DIRECTION('ref_axis',(1.,0.,0.));
#482=DIRECTION('center_axis',(0.,0.,1.));
#483=DIRECTION('ref_axis',(1.,0.,0.));
#484=DIRECTION('center_axis',(0.,0.,1.));
#485=DIRECTION('ref_axis',(1.,0.,0.));
#486=DIRECTION('center_axis',(0.,0.,1.));
#487=DIRECTION('ref_axis',(1.,0.,0.));
#488=CARTESIAN_POINT('',(0.,0.,0.));
#489=CARTESIAN_POINT('Origin',(16.4903096578283,41.4998688302932,0.));
#490=CARTESIAN_POINT('',(17.2503096578283,41.4998688302932,0.));
#491=CARTESIAN_POINT('',(16.4903096578283,41.4998688302932,0.));
#492=CARTESIAN_POINT('',(17.2503096578283,41.4998688302932,0.));
#493=CARTESIAN_POINT('',(17.2503096578283,41.4998688302932,1.));
#494=CARTESIAN_POINT('',(17.2503096578283,41.4998688302932,0.));
#495=CARTESIAN_POINT('',(16.4903096578283,41.4998688302932,1.));
#496=CARTESIAN_POINT('',(17.2503096578283,41.4998688302932,1.));
#497=CARTESIAN_POINT('',(16.4903096578283,41.4998688302932,0.));
#498=CARTESIAN_POINT('Origin',(16.4903096578283,41.4398688302932,0.));
#499=CARTESIAN_POINT('',(16.4303096578283,41.4398688302932,0.));
#500=CARTESIAN_POINT('Origin',(16.4903096578283,41.4398688302932,0.));
#501=CARTESIAN_POINT('',(16.4303096578283,41.4398688302932,1.));
#502=CARTESIAN_POINT('Origin',(16.4903096578283,41.4398688302932,1.));
#503=CARTESIAN_POINT('',(16.4303096578283,41.4398688302932,0.));
#504=CARTESIAN_POINT('Origin',(16.4303096578283,40.6798688302932,0.));
#505=CARTESIAN_POINT('',(16.4303096578283,40.6798688302932,0.));
#506=CARTESIAN_POINT('',(16.4303096578283,41.4398688302932,0.));
#507=CARTESIAN_POINT('',(16.4303096578283,40.6798688302932,1.));
#508=CARTESIAN_POINT('',(16.4303096578283,41.4398688302932,1.));
#509=CARTESIAN_POINT('',(16.4303096578283,40.6798688302932,0.));
#510=CARTESIAN_POINT('Origin',(16.4903096578283,40.6798688302932,0.));
#511=CARTESIAN_POINT('',(16.4903096578283,40.6198688302932,0.));
#512=CARTESIAN_POINT('Origin',(16.4903096578283,40.6798688302932,0.));
#513=CARTESIAN_POINT('',(16.4903096578283,40.6198688302932,1.));
#514=CARTESIAN_POINT('Origin',(16.4903096578283,40.6798688302932,1.));
#515=CARTESIAN_POINT('',(16.4903096578283,40.6198688302932,0.));
#516=CARTESIAN_POINT('Origin',(17.2503096578283,40.6198688302932,0.));
#517=CARTESIAN_POINT('',(17.2503096578283,40.6198688302932,0.));
#518=CARTESIAN_POINT('',(16.4903096578283,40.6198688302932,0.));
#519=CARTESIAN_POINT('',(17.2503096578283,40.6198688302932,1.));
#520=CARTESIAN_POINT('',(16.4903096578283,40.6198688302932,1.));
#521=CARTESIAN_POINT('',(17.2503096578283,40.6198688302932,0.));
#522=CARTESIAN_POINT('Origin',(17.2503096578283,40.6798688302932,0.));
#523=CARTESIAN_POINT('',(17.3103096578283,40.6798688302932,0.));
#524=CARTESIAN_POINT('Origin',(17.2503096578283,40.6798688302932,0.));
#525=CARTESIAN_POINT('',(17.3103096578283,40.6798688302932,1.));
#526=CARTESIAN_POINT('Origin',(17.2503096578283,40.6798688302932,1.));
#527=CARTESIAN_POINT('',(17.3103096578283,40.6798688302932,0.));
#528=CARTESIAN_POINT('Origin',(17.3103096578283,41.4398688302932,0.));
#529=CARTESIAN_POINT('',(17.3103096578283,41.4398688302932,0.));
#530=CARTESIAN_POINT('',(17.3103096578283,40.6798688302932,0.));
#531=CARTESIAN_POINT('',(17.3103096578283,41.4398688302932,1.));
#532=CARTESIAN_POINT('',(17.3103096578283,40.6798688302932,1.));
#533=CARTESIAN_POINT('',(17.3103096578283,41.4398688302932,0.));
#534=CARTESIAN_POINT('Origin',(17.2503096578283,41.4398688302932,0.));
#535=CARTESIAN_POINT('Origin',(17.2503096578283,41.4398688302932,0.));
#536=CARTESIAN_POINT('Origin',(17.2503096578283,41.4398688302932,1.));
#537=CARTESIAN_POINT('Origin',(16.3703096578283,41.4768688302932,0.));
#538=CARTESIAN_POINT('',(16.3703096578283,41.4768688302932,0.));
#539=CARTESIAN_POINT('',(16.3703096578283,40.6428688302932,0.));
#540=CARTESIAN_POINT('',(16.3703096578283,41.4768688302932,0.));
#541=CARTESIAN_POINT('',(16.3703096578283,40.6428688302932,1.));
#542=CARTESIAN_POINT('',(16.3703096578283,40.6428688302932,0.));
#543=CARTESIAN_POINT('',(16.3703096578283,41.4768688302932,1.));
#544=CARTESIAN_POINT('',(16.3703096578283,41.4768688302932,1.));
#545=CARTESIAN_POINT('',(16.3703096578283,41.4768688302932,0.));
#546=CARTESIAN_POINT('Origin',(16.4533096578283,41.4768688302932,0.));
#547=CARTESIAN_POINT('',(16.4533096578283,41.5598688302932,0.));
#548=CARTESIAN_POINT('Origin',(16.4533096578283,41.4768688302932,0.));
#549=CARTESIAN_POINT('',(16.4533096578283,41.5598688302932,1.));
#550=CARTESIAN_POINT('Origin',(16.4533096578283,41.4768688302932,1.));
#551=CARTESIAN_POINT('',(16.4533096578283,41.5598688302932,0.));
#552=CARTESIAN_POINT('Origin',(17.2873096578283,41.5598688302932,0.));
#553=CARTESIAN_POINT('',(17.2873096578283,41.5598688302932,0.));
#554=CARTESIAN_POINT('',(17.2873096578283,41.5598688302932,0.));
#555=CARTESIAN_POINT('',(17.2873096578283,41.5598688302932,1.));
#556=CARTESIAN_POINT('',(17.2873096578283,41.5598688302932,1.));
#557=CARTESIAN_POINT('',(17.2873096578283,41.5598688302932,0.));
#558=CARTESIAN_POINT('Origin',(17.2873096578283,41.4768688302932,0.));
#559=CARTESIAN_POINT('',(17.3703096578283,41.4768688302932,0.));
#560=CARTESIAN_POINT('Origin',(17.2873096578283,41.4768688302932,0.));
#561=CARTESIAN_POINT('',(17.3703096578283,41.4768688302932,1.));
#562=CARTESIAN_POINT('Origin',(17.2873096578283,41.4768688302932,1.));
#563=CARTESIAN_POINT('',(17.3703096578283,41.4768688302932,0.));
#564=CARTESIAN_POINT('Origin',(17.3703096578283,40.6428688302932,0.));
#565=CARTESIAN_POINT('',(17.3703096578283,40.6428688302932,0.));
#566=CARTESIAN_POINT('',(17.3703096578283,40.6428688302932,0.));
#567=CARTESIAN_POINT('',(17.3703096578283,40.6428688302932,1.));
#568=CARTESIAN_POINT('',(17.3703096578283,40.6428688302932,1.));
#569=CARTESIAN_POINT('',(17.3703096578283,40.6428688302932,0.));
#570=CARTESIAN_POINT('Origin',(17.2873096578283,40.6428688302932,0.));
#571=CARTESIAN_POINT('',(17.2873096578283,40.5598688302932,0.));
#572=CARTESIAN_POINT('Origin',(17.2873096578283,40.6428688302932,0.));
#573=CARTESIAN_POINT('',(17.2873096578283,40.5598688302932,1.));
#574=CARTESIAN_POINT('Origin',(17.2873096578283,40.6428688302932,1.));
#575=CARTESIAN_POINT('',(17.2873096578283,40.5598688302932,0.));
#576=CARTESIAN_POINT('Origin',(16.4533096578283,40.5598688302932,0.));
#577=CARTESIAN_POINT('',(16.4533096578283,40.5598688302932,0.));
#578=CARTESIAN_POINT('',(16.4533096578283,40.5598688302932,0.));
#579=CARTESIAN_POINT('',(16.4533096578283,40.5598688302932,1.));
#580=CARTESIAN_POINT('',(16.4533096578283,40.5598688302932,1.));
#581=CARTESIAN_POINT('',(16.4533096578283,40.5598688302932,0.));
#582=CARTESIAN_POINT('Origin',(16.4533096578283,40.6428688302932,0.));
#583=CARTESIAN_POINT('Origin',(16.4533096578283,40.6428688302932,0.));
#584=CARTESIAN_POINT('Origin',(16.4533096578283,40.6428688302932,1.));
#585=CARTESIAN_POINT('Origin',(16.3203096578283,40.5098688302932,1.));
#586=CARTESIAN_POINT('Origin',(16.3203096578283,40.5098688302932,0.));
#587=UNCERTAINTY_MEASURE_WITH_UNIT(LENGTH_MEASURE(0.000393700787401575),
#593,'DISTANCE_ACCURACY_VALUE',
'Maximum model space distance between geometric entities at asserted c
onnectivities');
#588=UNCERTAINTY_MEASURE_WITH_UNIT(LENGTH_MEASURE(1.E-6),#594,
'DISTANCE_ACCURACY_VALUE',
'Maximum model space distance between geometric entities at asserted c
onnectivities');
#589=(
GEOMETRIC_REPRESENTATION_CONTEXT(3)
GLOBAL_UNCERTAINTY_ASSIGNED_CONTEXT((#587))
GLOBAL_UNIT_ASSIGNED_CONTEXT((#593,#597,#596))
REPRESENTATION_CONTEXT('','3D')
);
#590=(
GEOMETRIC_REPRESENTATION_CONTEXT(3)
GLOBAL_UNCERTAINTY_ASSIGNED_CONTEXT((#588))
GLOBAL_UNIT_ASSIGNED_CONTEXT((#594,#11,#596))
REPRESENTATION_CONTEXT('','3D')
);
#591=DIMENSIONAL_EXPONENTS(1.,0.,0.,0.,0.,0.,0.);
#592=DIMENSIONAL_EXPONENTS(0.,0.,0.,0.,0.,0.,0.);
#593=(
CONVERSION_BASED_UNIT('__CONSTANT UNIT inch',#595)
LENGTH_UNIT()
NAMED_UNIT(#591)
);
#594=(
LENGTH_UNIT()
NAMED_UNIT(*)
SI_UNIT(.MILLI.,.METRE.)
);
#595=LENGTH_MEASURE_WITH_UNIT(LENGTH_MEASURE(25.4),#594);
#596=(
NAMED_UNIT(*)
SI_UNIT($,.STERADIAN.)
SOLID_ANGLE_UNIT()
);
#597=(
NAMED_UNIT(*)
PLANE_ANGLE_UNIT()
SI_UNIT($,.RADIAN.)
);
#598=SHAPE_DEFINITION_REPRESENTATION(#599,#600);
#599=PRODUCT_DEFINITION_SHAPE('',$,#602);
#600=SHAPE_REPRESENTATION('',(#351),#589);
#601=PRODUCT_DEFINITION_CONTEXT('part definition',#606,'design');
#602=PRODUCT_DEFINITION('Product','Product',#603,#601);
#603=PRODUCT_DEFINITION_FORMATION('',$,#608);
#604=PRODUCT_RELATED_PRODUCT_CATEGORY('Product','Product',(#608));
#605=APPLICATION_PROTOCOL_DEFINITION('international standard',
'automotive_design',2009,#606);
#606=APPLICATION_CONTEXT(
'Core Data for Automotive Mechanical Design Process');
#607=PRODUCT_CONTEXT('part definition',#606,'mechanical');
#608=PRODUCT('Product','Product',$,(#607));
#609=PRESENTATION_STYLE_ASSIGNMENT((#610));
#610=SURFACE_STYLE_USAGE(.BOTH.,#611);
#611=SURFACE_SIDE_STYLE('',(#612));
#612=SURFACE_STYLE_FILL_AREA(#613);
#613=FILL_AREA_STYLE('',(#614));
#614=FILL_AREA_STYLE_COLOUR('',#615);
#615=COLOUR_RGB('',1.,1.,1.);
ENDSEC;
END-ISO-10303-21;
