ISO-10303-21;
HEADER;
/****************************************************************
 * Generated by software with PDE/Lib inside                    *
 * PDE/Lib Version 3.2.2, created Thu Mar 23, 2000 at 18:38:49  *
 * International Technegroup Inc. (www.iti-oh.com)              *
 ****************************************************************/
FILE_DESCRIPTION((''),'2;1');
FILE_NAME('40JP4502.stp','2006-03-13T15:21:03',('Shawn Mantel'),('Faztek, LLC'),'Mechanical Desktop 2005','Mechanical Desktop 2005',', , ');
FILE_SCHEMA(('CONFIG_CONTROL_DESIGN'));
ENDSEC;
DATA;
#8=(NAMED_UNIT(*)PLANE_ANGLE_UNIT()SI_UNIT($,.RADIAN.));
#9=DIMENSIONAL_EXPONENTS(0.0,0.0,0.0,0.0,0.0,0.0,0.0);
#10=PLANE_ANGLE_MEASURE_WITH_UNIT(PLANE_ANGLE_MEASURE(0.017453292500000),#8);
#14=(CONVERSION_BASED_UNIT('DEGREE',#10)NAMED_UNIT(#9)PLANE_ANGLE_UNIT());
#18=(NAMED_UNIT(*)SI_UNIT($,.STERADIAN.)SOLID_ANGLE_UNIT());
#20=DIMENSIONAL_EXPONENTS(1.0,0.0,0.0,0.0,0.0,0.0,0.0);
#24=(LENGTH_UNIT()NAMED_UNIT(*)SI_UNIT(.MILLI.,.METRE.));
#25=LENGTH_MEASURE_WITH_UNIT(LENGTH_MEASURE(25.399999999999999),#24);
#27=(CONVERSION_BASED_UNIT('INCH',#25)LENGTH_UNIT()NAMED_UNIT(#20));
#28=UNCERTAINTY_MEASURE_WITH_UNIT(LENGTH_MEASURE(0.000001000000000),#27,'DISTANCE_ACCURACY_VALUE','');
#33=(GEOMETRIC_REPRESENTATION_CONTEXT(3)GLOBAL_UNCERTAINTY_ASSIGNED_CONTEXT((#28))GLOBAL_UNIT_ASSIGNED_CONTEXT((#14,#18,#27))REPRESENTATION_CONTEXT('None','None'));
#34=APPLICATION_CONTEXT('CONFIGURATION CONTROLLED 3D DESIGNS OF MECHANICAL PARTS AND ASSEMBLIES');
#35=APPLICATION_PROTOCOL_DEFINITION('INTERNATIONAL STANDARD','config_control_design',1995,#34);
#36=MECHANICAL_CONTEXT('3D Mechanical Parts',#34,'mechanical');
#37=PRODUCT('Product','Product',' ',(#36));
#38=PRODUCT_RELATED_PRODUCT_CATEGORY('detail',$,(#37));
#39=PRODUCT_CATEGORY('part',$);
#40=PRODUCT_CATEGORY_RELATIONSHIP('None','None',#39,#38);
#41=PERSON('1','Design','Joe',$,$,$);
#42=ORGANIZATION($,'None','None');
#43=PERSON_AND_ORGANIZATION(#41,#42);
#44=PERSON_AND_ORGANIZATION_ROLE('design_owner');
#45=CC_DESIGN_PERSON_AND_ORGANIZATION_ASSIGNMENT(#43,#44,(#37));
#46=PRODUCT_DEFINITION_FORMATION_WITH_SPECIFIED_SOURCE('None','None',#37,.NOT_KNOWN.);
#47=PERSON('2','Creator','Joe',$,$,$);
#48=ORGANIZATION($,'None','None');
#49=PERSON_AND_ORGANIZATION(#47,#48);
#50=PERSON_AND_ORGANIZATION_ROLE('creator');
#51=CC_DESIGN_PERSON_AND_ORGANIZATION_ASSIGNMENT(#49,#50,(#46));
#52=PERSON('3','Supplier','Joe',$,$,$);
#53=ORGANIZATION($,'None','None');
#54=PERSON_AND_ORGANIZATION(#52,#53);
#55=PERSON_AND_ORGANIZATION_ROLE('design_supplier');
#56=CC_DESIGN_PERSON_AND_ORGANIZATION_ASSIGNMENT(#54,#55,(#46));
#57=APPROVAL_STATUS('approved');
#58=APPROVAL(#57,'None');
#59=PERSON('4','Approver','Joe',$,$,$);
#60=ORGANIZATION($,'None','None');
#61=PERSON_AND_ORGANIZATION(#59,#60);
#62=APPROVAL_ROLE('approver');
#63=APPROVAL_PERSON_ORGANIZATION(#61,#58,#62);
#64=COORDINATED_UNIVERSAL_TIME_OFFSET(8,$,.BEHIND.);
#65=CALENDAR_DATE(1996,29,5);
#66=LOCAL_TIME(12,0,0.0,#64);
#67=DATE_AND_TIME(#65,#66);
#68=APPROVAL_DATE_TIME(#67,#58);
#69=CC_DESIGN_APPROVAL(#58,(#46));
#70=SECURITY_CLASSIFICATION_LEVEL('unclassified');
#71=SECURITY_CLASSIFICATION('security','None',#70);
#72=CC_DESIGN_SECURITY_CLASSIFICATION(#71,(#46));
#73=APPROVAL_STATUS('approved');
#74=APPROVAL(#73,'None');
#75=PERSON('5','Approver','Joe',$,$,$);
#76=ORGANIZATION($,'None','None');
#77=PERSON_AND_ORGANIZATION(#75,#76);
#78=APPROVAL_ROLE('approver');
#79=APPROVAL_PERSON_ORGANIZATION(#77,#74,#78);
#80=COORDINATED_UNIVERSAL_TIME_OFFSET(8,$,.BEHIND.);
#81=CALENDAR_DATE(1996,29,5);
#82=LOCAL_TIME(12,0,0.0,#80);
#83=DATE_AND_TIME(#81,#82);
#84=APPROVAL_DATE_TIME(#83,#74);
#85=CC_DESIGN_APPROVAL(#74,(#71));
#86=PERSON('6','Classifier','Joe',$,$,$);
#87=ORGANIZATION($,'None','None');
#88=PERSON_AND_ORGANIZATION(#86,#87);
#89=PERSON_AND_ORGANIZATION_ROLE('classification_officer');
#90=CC_DESIGN_PERSON_AND_ORGANIZATION_ASSIGNMENT(#88,#89,(#71));
#91=COORDINATED_UNIVERSAL_TIME_OFFSET(8,$,.BEHIND.);
#92=CALENDAR_DATE(1996,29,5);
#93=LOCAL_TIME(12,0,0.0,#91);
#94=DATE_AND_TIME(#92,#93);
#95=DATE_TIME_ROLE('classification_date');
#96=CC_DESIGN_DATE_AND_TIME_ASSIGNMENT(#94,#95,(#71));
#97=DESIGN_CONTEXT('Design Context',#34,'design');
#98=PRODUCT_DEFINITION('None','None',#46,#97);
#99=PERSON('7','Creator','Joe',$,$,$);
#100=ORGANIZATION($,'None','None');
#101=PERSON_AND_ORGANIZATION(#99,#100);
#102=PERSON_AND_ORGANIZATION_ROLE('creator');
#103=CC_DESIGN_PERSON_AND_ORGANIZATION_ASSIGNMENT(#101,#102,(#98));
#104=COORDINATED_UNIVERSAL_TIME_OFFSET(8,$,.BEHIND.);
#105=CALENDAR_DATE(1996,29,5);
#106=LOCAL_TIME(12,0,0.0,#104);
#107=DATE_AND_TIME(#105,#106);
#108=DATE_TIME_ROLE('creation_date');
#109=CC_DESIGN_DATE_AND_TIME_ASSIGNMENT(#107,#108,(#98));
#110=APPROVAL_STATUS('approved');
#111=APPROVAL(#110,'None');
#112=PERSON('8','Approver','Joe',$,$,$);
#113=ORGANIZATION($,'None','None');
#114=PERSON_AND_ORGANIZATION(#112,#113);
#115=APPROVAL_ROLE('approver');
#116=APPROVAL_PERSON_ORGANIZATION(#114,#111,#115);
#117=COORDINATED_UNIVERSAL_TIME_OFFSET(8,$,.BEHIND.);
#118=CALENDAR_DATE(1996,29,5);
#119=LOCAL_TIME(12,0,0.0,#117);
#120=DATE_AND_TIME(#118,#119);
#121=APPROVAL_DATE_TIME(#120,#111);
#122=CC_DESIGN_APPROVAL(#111,(#98));
#123=CARTESIAN_POINT('NONE',(0.0,0.0,0.0));
#124=DIRECTION('NONE',(0.0,0.0,1.0));
#125=DIRECTION('NONE',(1.0,0.0,0.0));
#126=AXIS2_PLACEMENT_3D('NONE',#123,#124,#125);
#127=SHAPE_REPRESENTATION('SR1',(#126),#33);
#128=PRODUCT_DEFINITION_SHAPE('PDS1','Test Part',#98);
#129=SHAPE_DEFINITION_REPRESENTATION(#128,#127);
#130=CARTESIAN_POINT('',(0.0,3.150000000000000,0.250000000000000));
#131=DIRECTION('',(0.0,0.0,1.0));
#132=DIRECTION('',(1.0,0.0,0.0));
#133=AXIS2_PLACEMENT_3D('',#130,#131,#132);
#134=CYLINDRICAL_SURFACE('',#133,0.170000000000000);
#135=CARTESIAN_POINT('',(0.170000000000000,3.150000000000000,0.500000000000000));
#136=VERTEX_POINT('',#135);
#137=CARTESIAN_POINT('',(0.170000000000000,3.150000000000000,0.250000000000000));
#138=VERTEX_POINT('',#137);
#139=CARTESIAN_POINT('',(0.170000000000000,3.150000000000000,0.500000000000000));
#140=DIRECTION('',(0.0,0.0,-1.0));
#141=VECTOR('',#140,0.250000000000000);
#142=LINE('',#139,#141);
#143=EDGE_CURVE('',#136,#138,#142,.T.);
#144=ORIENTED_EDGE('',*,*,#143,.F.);
#145=CARTESIAN_POINT('',(-0.170000000000000,3.150000000000000,0.500000000000000));
#146=VERTEX_POINT('',#145);
#147=CARTESIAN_POINT('',(0.0,3.150000000000000,0.500000000000000));
#148=DIRECTION('',(0.0,0.0,-1.0));
#149=DIRECTION('',(1.0,0.0,0.0));
#150=AXIS2_PLACEMENT_3D('',#147,#148,#149);
#151=CIRCLE('',#150,0.170000000000000);
#152=EDGE_CURVE('',#146,#136,#151,.T.);
#153=ORIENTED_EDGE('',*,*,#152,.F.);
#154=CARTESIAN_POINT('',(-0.170000000000000,3.150000000000000,0.250000000000000));
#155=VERTEX_POINT('',#154);
#156=CARTESIAN_POINT('',(-0.170000000000000,3.150000000000000,0.250000000000000));
#157=DIRECTION('',(0.0,0.0,1.0));
#158=VECTOR('',#157,0.250000000000000);
#159=LINE('',#156,#158);
#160=EDGE_CURVE('',#155,#146,#159,.T.);
#161=ORIENTED_EDGE('',*,*,#160,.F.);
#162=CARTESIAN_POINT('',(0.0,3.150000000000000,0.250000000000000));
#163=DIRECTION('',(0.0,0.0,1.0));
#164=DIRECTION('',(1.0,0.0,0.0));
#165=AXIS2_PLACEMENT_3D('',#162,#163,#164);
#166=CIRCLE('',#165,0.170000000000000);
#167=EDGE_CURVE('',#138,#155,#166,.T.);
#168=ORIENTED_EDGE('',*,*,#167,.F.);
#169=EDGE_LOOP('',(#144,#153,#161,#168));
#170=FACE_OUTER_BOUND('',#169,.T.);
#171=ADVANCED_FACE('',(#170),#134,.F.);
#172=CARTESIAN_POINT('',(0.0,1.575000000000000,0.250000000000000));
#173=DIRECTION('',(0.0,0.0,1.0));
#174=DIRECTION('',(1.0,0.0,0.0));
#175=AXIS2_PLACEMENT_3D('',#172,#173,#174);
#176=CYLINDRICAL_SURFACE('',#175,0.170000000000000);
#177=CARTESIAN_POINT('',(0.170000000000000,1.575000000000000,0.500000000000000));
#178=VERTEX_POINT('',#177);
#179=CARTESIAN_POINT('',(0.170000000000000,1.575000000000000,0.250000000000000));
#180=VERTEX_POINT('',#179);
#181=CARTESIAN_POINT('',(0.170000000000000,1.575000000000000,0.500000000000000));
#182=DIRECTION('',(0.0,0.0,-1.0));
#183=VECTOR('',#182,0.250000000000000);
#184=LINE('',#181,#183);
#185=EDGE_CURVE('',#178,#180,#184,.T.);
#186=ORIENTED_EDGE('',*,*,#185,.F.);
#187=CARTESIAN_POINT('',(-0.170000000000000,1.575000000000000,0.500000000000000));
#188=VERTEX_POINT('',#187);
#189=CARTESIAN_POINT('',(0.0,1.575000000000000,0.500000000000000));
#190=DIRECTION('',(0.0,0.0,-1.0));
#191=DIRECTION('',(1.0,0.0,0.0));
#192=AXIS2_PLACEMENT_3D('',#189,#190,#191);
#193=CIRCLE('',#192,0.170000000000000);
#194=EDGE_CURVE('',#188,#178,#193,.T.);
#195=ORIENTED_EDGE('',*,*,#194,.F.);
#196=CARTESIAN_POINT('',(-0.170000000000000,1.575000000000000,0.250000000000000));
#197=VERTEX_POINT('',#196);
#198=CARTESIAN_POINT('',(-0.170000000000000,1.575000000000000,0.250000000000000));
#199=DIRECTION('',(0.0,0.0,1.0));
#200=VECTOR('',#199,0.250000000000000);
#201=LINE('',#198,#200);
#202=EDGE_CURVE('',#197,#188,#201,.T.);
#203=ORIENTED_EDGE('',*,*,#202,.F.);
#204=CARTESIAN_POINT('',(0.0,1.575000000000000,0.250000000000000));
#205=DIRECTION('',(0.0,0.0,1.0));
#206=DIRECTION('',(1.0,0.0,0.0));
#207=AXIS2_PLACEMENT_3D('',#204,#205,#206);
#208=CIRCLE('',#207,0.170000000000000);
#209=EDGE_CURVE('',#180,#197,#208,.T.);
#210=ORIENTED_EDGE('',*,*,#209,.F.);
#211=EDGE_LOOP('',(#186,#195,#203,#210));
#212=FACE_OUTER_BOUND('',#211,.T.);
#213=ADVANCED_FACE('',(#212),#176,.F.);
#214=CARTESIAN_POINT('',(0.0,0.0,0.250000000000000));
#215=DIRECTION('',(0.0,0.0,1.0));
#216=DIRECTION('',(1.0,0.0,0.0));
#217=AXIS2_PLACEMENT_3D('',#214,#215,#216);
#218=CYLINDRICAL_SURFACE('',#217,0.170000000000000);
#219=CARTESIAN_POINT('',(0.170000000000000,0.0,0.500000000000000));
#220=VERTEX_POINT('',#219);
#221=CARTESIAN_POINT('',(0.170000000000000,0.0,0.250000000000000));
#222=VERTEX_POINT('',#221);
#223=CARTESIAN_POINT('',(0.170000000000000,0.0,0.500000000000000));
#224=DIRECTION('',(0.0,0.0,-1.0));
#225=VECTOR('',#224,0.250000000000000);
#226=LINE('',#223,#225);
#227=EDGE_CURVE('',#220,#222,#226,.T.);
#228=ORIENTED_EDGE('',*,*,#227,.F.);
#229=CARTESIAN_POINT('',(-0.170000000000000,2.081831E-017,0.500000000000000));
#230=VERTEX_POINT('',#229);
#231=CARTESIAN_POINT('',(0.0,0.0,0.500000000000000));
#232=DIRECTION('',(0.0,0.0,-1.0));
#233=DIRECTION('',(1.0,0.0,0.0));
#234=AXIS2_PLACEMENT_3D('',#231,#232,#233);
#235=CIRCLE('',#234,0.170000000000000);
#236=EDGE_CURVE('',#230,#220,#235,.T.);
#237=ORIENTED_EDGE('',*,*,#236,.F.);
#238=CARTESIAN_POINT('',(-0.170000000000000,2.081831E-017,0.250000000000000));
#239=VERTEX_POINT('',#238);
#240=CARTESIAN_POINT('',(-0.170000000000000,2.081831E-017,0.250000000000000));
#241=DIRECTION('',(0.0,0.0,1.0));
#242=VECTOR('',#241,0.250000000000000);
#243=LINE('',#240,#242);
#244=EDGE_CURVE('',#239,#230,#243,.T.);
#245=ORIENTED_EDGE('',*,*,#244,.F.);
#246=CARTESIAN_POINT('',(0.0,0.0,0.250000000000000));
#247=DIRECTION('',(0.0,0.0,1.0));
#248=DIRECTION('',(1.0,0.0,0.0));
#249=AXIS2_PLACEMENT_3D('',#246,#247,#248);
#250=CIRCLE('',#249,0.170000000000000);
#251=EDGE_CURVE('',#222,#239,#250,.T.);
#252=ORIENTED_EDGE('',*,*,#251,.F.);
#253=EDGE_LOOP('',(#228,#237,#245,#252));
#254=FACE_OUTER_BOUND('',#253,.T.);
#255=ADVANCED_FACE('',(#254),#218,.F.);
#256=CARTESIAN_POINT('',(0.0,0.0,0.250000000000000));
#257=DIRECTION('',(0.0,0.0,1.0));
#258=DIRECTION('',(1.0,0.0,0.0));
#259=AXIS2_PLACEMENT_3D('',#256,#257,#258);
#260=CYLINDRICAL_SURFACE('',#259,0.170000000000000);
#261=ORIENTED_EDGE('',*,*,#227,.T.);
#262=CARTESIAN_POINT('',(0.0,0.0,0.250000000000000));
#263=DIRECTION('',(0.0,0.0,1.0));
#264=DIRECTION('',(1.0,0.0,0.0));
#265=AXIS2_PLACEMENT_3D('',#262,#263,#264);
#266=CIRCLE('',#265,0.170000000000000);
#267=EDGE_CURVE('',#239,#222,#266,.T.);
#268=ORIENTED_EDGE('',*,*,#267,.F.);
#269=ORIENTED_EDGE('',*,*,#244,.T.);
#270=CARTESIAN_POINT('',(0.0,0.0,0.500000000000000));
#271=DIRECTION('',(0.0,0.0,-1.0));
#272=DIRECTION('',(1.0,0.0,0.0));
#273=AXIS2_PLACEMENT_3D('',#270,#271,#272);
#274=CIRCLE('',#273,0.170000000000000);
#275=EDGE_CURVE('',#220,#230,#274,.T.);
#276=ORIENTED_EDGE('',*,*,#275,.F.);
#277=EDGE_LOOP('',(#261,#268,#269,#276));
#278=FACE_OUTER_BOUND('',#277,.T.);
#279=ADVANCED_FACE('',(#278),#260,.F.);
#280=CARTESIAN_POINT('',(0.0,1.575000000000000,0.250000000000000));
#281=DIRECTION('',(0.0,0.0,1.0));
#282=DIRECTION('',(1.0,0.0,0.0));
#283=AXIS2_PLACEMENT_3D('',#280,#281,#282);
#284=CYLINDRICAL_SURFACE('',#283,0.170000000000000);
#285=ORIENTED_EDGE('',*,*,#185,.T.);
#286=CARTESIAN_POINT('',(0.0,1.575000000000000,0.250000000000000));
#287=DIRECTION('',(0.0,0.0,1.0));
#288=DIRECTION('',(1.0,0.0,0.0));
#289=AXIS2_PLACEMENT_3D('',#286,#287,#288);
#290=CIRCLE('',#289,0.170000000000000);
#291=EDGE_CURVE('',#197,#180,#290,.T.);
#292=ORIENTED_EDGE('',*,*,#291,.F.);
#293=ORIENTED_EDGE('',*,*,#202,.T.);
#294=CARTESIAN_POINT('',(0.0,1.575000000000000,0.500000000000000));
#295=DIRECTION('',(0.0,0.0,-1.0));
#296=DIRECTION('',(1.0,0.0,0.0));
#297=AXIS2_PLACEMENT_3D('',#294,#295,#296);
#298=CIRCLE('',#297,0.170000000000000);
#299=EDGE_CURVE('',#178,#188,#298,.T.);
#300=ORIENTED_EDGE('',*,*,#299,.F.);
#301=EDGE_LOOP('',(#285,#292,#293,#300));
#302=FACE_OUTER_BOUND('',#301,.T.);
#303=ADVANCED_FACE('',(#302),#284,.F.);
#304=CARTESIAN_POINT('',(0.0,3.150000000000000,0.250000000000000));
#305=DIRECTION('',(0.0,0.0,1.0));
#306=DIRECTION('',(1.0,0.0,0.0));
#307=AXIS2_PLACEMENT_3D('',#304,#305,#306);
#308=CYLINDRICAL_SURFACE('',#307,0.170000000000000);
#309=ORIENTED_EDGE('',*,*,#143,.T.);
#310=CARTESIAN_POINT('',(0.0,3.150000000000000,0.250000000000000));
#311=DIRECTION('',(0.0,0.0,1.0));
#312=DIRECTION('',(1.0,0.0,0.0));
#313=AXIS2_PLACEMENT_3D('',#310,#311,#312);
#314=CIRCLE('',#313,0.170000000000000);
#315=EDGE_CURVE('',#155,#138,#314,.T.);
#316=ORIENTED_EDGE('',*,*,#315,.F.);
#317=ORIENTED_EDGE('',*,*,#160,.T.);
#318=CARTESIAN_POINT('',(0.0,3.150000000000000,0.500000000000000));
#319=DIRECTION('',(0.0,0.0,-1.0));
#320=DIRECTION('',(1.0,0.0,0.0));
#321=AXIS2_PLACEMENT_3D('',#318,#319,#320);
#322=CIRCLE('',#321,0.170000000000000);
#323=EDGE_CURVE('',#136,#146,#322,.T.);
#324=ORIENTED_EDGE('',*,*,#323,.F.);
#325=EDGE_LOOP('',(#309,#316,#317,#324));
#326=FACE_OUTER_BOUND('',#325,.T.);
#327=ADVANCED_FACE('',(#326),#308,.F.);
#328=CARTESIAN_POINT('',(-0.750000000000000,-0.675000000000000,0.250000000000000));
#329=DIRECTION('',(-1.0,0.0,0.0));
#330=DIRECTION('',(0.0,0.0,1.0));
#331=AXIS2_PLACEMENT_3D('',#328,#329,#330);
#332=PLANE('',#331);
#333=CARTESIAN_POINT('',(-0.750000000000000,-0.675000000000000,0.500000000000000));
#334=VERTEX_POINT('',#333);
#335=CARTESIAN_POINT('',(-0.750000000000000,3.825000000000000,0.500000000000000));
#336=VERTEX_POINT('',#335);
#337=CARTESIAN_POINT('',(-0.750000000000000,-0.675000000000000,0.500000000000000));
#338=DIRECTION('',(0.0,1.0,0.0));
#339=VECTOR('',#338,4.500000000000000);
#340=LINE('',#337,#339);
#341=EDGE_CURVE('',#334,#336,#340,.T.);
#342=ORIENTED_EDGE('',*,*,#341,.T.);
#343=CARTESIAN_POINT('',(-0.750000000000000,3.825000000000000,0.250000000000000));
#344=VERTEX_POINT('',#343);
#345=CARTESIAN_POINT('',(-0.750000000000000,3.825000000000000,0.250000000000000));
#346=DIRECTION('',(0.0,0.0,1.0));
#347=VECTOR('',#346,0.250000000000000);
#348=LINE('',#345,#347);
#349=EDGE_CURVE('',#344,#336,#348,.T.);
#350=ORIENTED_EDGE('',*,*,#349,.F.);
#351=CARTESIAN_POINT('',(-0.750000000000000,-0.675000000000000,0.250000000000000));
#352=VERTEX_POINT('',#351);
#353=CARTESIAN_POINT('',(-0.750000000000000,3.825000000000000,0.250000000000000));
#354=DIRECTION('',(0.0,-1.0,0.0));
#355=VECTOR('',#354,4.500000000000000);
#356=LINE('',#353,#355);
#357=EDGE_CURVE('',#344,#352,#356,.T.);
#358=ORIENTED_EDGE('',*,*,#357,.T.);
#359=CARTESIAN_POINT('',(-0.750000000000000,-0.675000000000000,0.250000000000000));
#360=DIRECTION('',(0.0,0.0,1.0));
#361=VECTOR('',#360,0.250000000000000);
#362=LINE('',#359,#361);
#363=EDGE_CURVE('',#352,#334,#362,.T.);
#364=ORIENTED_EDGE('',*,*,#363,.T.);
#365=EDGE_LOOP('',(#342,#350,#358,#364));
#366=FACE_OUTER_BOUND('',#365,.T.);
#367=ADVANCED_FACE('',(#366),#332,.T.);
#368=CARTESIAN_POINT('',(-0.750000000000000,3.825000000000000,0.250000000000000));
#369=DIRECTION('',(0.0,1.0,0.0));
#370=DIRECTION('',(0.0,0.0,1.0));
#371=AXIS2_PLACEMENT_3D('',#368,#369,#370);
#372=PLANE('',#371);
#373=CARTESIAN_POINT('',(0.750000000000000,3.825000000000000,0.500000000000000));
#374=VERTEX_POINT('',#373);
#375=CARTESIAN_POINT('',(-0.750000000000000,3.825000000000000,0.500000000000000));
#376=DIRECTION('',(1.0,0.0,0.0));
#377=VECTOR('',#376,1.500000000000000);
#378=LINE('',#375,#377);
#379=EDGE_CURVE('',#336,#374,#378,.T.);
#380=ORIENTED_EDGE('',*,*,#379,.T.);
#381=CARTESIAN_POINT('',(0.750000000000000,3.825000000000000,0.250000000000000));
#382=VERTEX_POINT('',#381);
#383=CARTESIAN_POINT('',(0.750000000000000,3.825000000000000,0.250000000000000));
#384=DIRECTION('',(0.0,0.0,1.0));
#385=VECTOR('',#384,0.250000000000000);
#386=LINE('',#383,#385);
#387=EDGE_CURVE('',#382,#374,#386,.T.);
#388=ORIENTED_EDGE('',*,*,#387,.F.);
#389=CARTESIAN_POINT('',(0.750000000000000,3.825000000000000,0.250000000000000));
#390=DIRECTION('',(-1.0,0.0,0.0));
#391=VECTOR('',#390,1.500000000000000);
#392=LINE('',#389,#391);
#393=EDGE_CURVE('',#382,#344,#392,.T.);
#394=ORIENTED_EDGE('',*,*,#393,.T.);
#395=ORIENTED_EDGE('',*,*,#349,.T.);
#396=EDGE_LOOP('',(#380,#388,#394,#395));
#397=FACE_OUTER_BOUND('',#396,.T.);
#398=ADVANCED_FACE('',(#397),#372,.T.);
#399=CARTESIAN_POINT('',(0.750000000000000,3.825000000000000,0.250000000000000));
#400=DIRECTION('',(1.0,0.0,0.0));
#401=DIRECTION('',(0.0,0.0,-1.0));
#402=AXIS2_PLACEMENT_3D('',#399,#400,#401);
#403=PLANE('',#402);
#404=CARTESIAN_POINT('',(0.750000000000000,-0.675000000000000,0.500000000000000));
#405=VERTEX_POINT('',#404);
#406=CARTESIAN_POINT('',(0.750000000000000,3.825000000000000,0.500000000000000));
#407=DIRECTION('',(0.0,-1.0,0.0));
#408=VECTOR('',#407,4.500000000000000);
#409=LINE('',#406,#408);
#410=EDGE_CURVE('',#374,#405,#409,.T.);
#411=ORIENTED_EDGE('',*,*,#410,.T.);
#412=CARTESIAN_POINT('',(0.750000000000000,-0.675000000000000,0.250000000000000));
#413=VERTEX_POINT('',#412);
#414=CARTESIAN_POINT('',(0.750000000000000,-0.675000000000000,0.250000000000000));
#415=DIRECTION('',(0.0,0.0,1.0));
#416=VECTOR('',#415,0.250000000000000);
#417=LINE('',#414,#416);
#418=EDGE_CURVE('',#413,#405,#417,.T.);
#419=ORIENTED_EDGE('',*,*,#418,.F.);
#420=CARTESIAN_POINT('',(0.750000000000000,-0.675000000000000,0.250000000000000));
#421=DIRECTION('',(0.0,1.0,0.0));
#422=VECTOR('',#421,4.500000000000000);
#423=LINE('',#420,#422);
#424=EDGE_CURVE('',#413,#382,#423,.T.);
#425=ORIENTED_EDGE('',*,*,#424,.T.);
#426=ORIENTED_EDGE('',*,*,#387,.T.);
#427=EDGE_LOOP('',(#411,#419,#425,#426));
#428=FACE_OUTER_BOUND('',#427,.T.);
#429=ADVANCED_FACE('',(#428),#403,.T.);
#430=CARTESIAN_POINT('',(0.750000000000000,-0.675000000000000,0.250000000000000));
#431=DIRECTION('',(0.0,-1.0,0.0));
#432=DIRECTION('',(0.0,0.0,-1.0));
#433=AXIS2_PLACEMENT_3D('',#430,#431,#432);
#434=PLANE('',#433);
#435=CARTESIAN_POINT('',(0.750000000000000,-0.675000000000000,0.500000000000000));
#436=DIRECTION('',(-1.0,0.0,0.0));
#437=VECTOR('',#436,1.500000000000000);
#438=LINE('',#435,#437);
#439=EDGE_CURVE('',#405,#334,#438,.T.);
#440=ORIENTED_EDGE('',*,*,#439,.T.);
#441=ORIENTED_EDGE('',*,*,#363,.F.);
#442=CARTESIAN_POINT('',(-0.750000000000000,-0.675000000000000,0.250000000000000));
#443=DIRECTION('',(1.0,0.0,0.0));
#444=VECTOR('',#443,1.500000000000000);
#445=LINE('',#442,#444);
#446=EDGE_CURVE('',#352,#413,#445,.T.);
#447=ORIENTED_EDGE('',*,*,#446,.T.);
#448=ORIENTED_EDGE('',*,*,#418,.T.);
#449=EDGE_LOOP('',(#440,#441,#447,#448));
#450=FACE_OUTER_BOUND('',#449,.T.);
#451=ADVANCED_FACE('',(#450),#434,.T.);
#452=CARTESIAN_POINT('',(0.0,1.575000000000000,0.500000000000000));
#453=DIRECTION('',(0.0,0.0,1.0));
#454=DIRECTION('',(1.0,0.0,0.0));
#455=AXIS2_PLACEMENT_3D('',#452,#453,#454);
#456=PLANE('',#455);
#457=ORIENTED_EDGE('',*,*,#341,.F.);
#458=ORIENTED_EDGE('',*,*,#439,.F.);
#459=ORIENTED_EDGE('',*,*,#410,.F.);
#460=ORIENTED_EDGE('',*,*,#379,.F.);
#461=EDGE_LOOP('',(#457,#458,#459,#460));
#462=FACE_OUTER_BOUND('',#461,.T.);
#463=ORIENTED_EDGE('',*,*,#275,.T.);
#464=ORIENTED_EDGE('',*,*,#236,.T.);
#465=EDGE_LOOP('',(#463,#464));
#466=FACE_BOUND('',#465,.T.);
#467=ORIENTED_EDGE('',*,*,#299,.T.);
#468=ORIENTED_EDGE('',*,*,#194,.T.);
#469=EDGE_LOOP('',(#467,#468));
#470=FACE_BOUND('',#469,.T.);
#471=ORIENTED_EDGE('',*,*,#323,.T.);
#472=ORIENTED_EDGE('',*,*,#152,.T.);
#473=EDGE_LOOP('',(#471,#472));
#474=FACE_BOUND('',#473,.T.);
#475=ADVANCED_FACE('',(#462,#466,#470,#474),#456,.T.);
#476=CARTESIAN_POINT('',(0.0,1.575000000000000,0.250000000000000));
#477=DIRECTION('',(0.0,0.0,1.0));
#478=DIRECTION('',(1.0,0.0,0.0));
#479=AXIS2_PLACEMENT_3D('',#476,#477,#478);
#480=PLANE('',#479);
#481=ORIENTED_EDGE('',*,*,#446,.F.);
#482=ORIENTED_EDGE('',*,*,#357,.F.);
#483=ORIENTED_EDGE('',*,*,#393,.F.);
#484=ORIENTED_EDGE('',*,*,#424,.F.);
#485=EDGE_LOOP('',(#481,#482,#483,#484));
#486=FACE_OUTER_BOUND('',#485,.T.);
#487=ORIENTED_EDGE('',*,*,#251,.T.);
#488=ORIENTED_EDGE('',*,*,#267,.T.);
#489=EDGE_LOOP('',(#487,#488));
#490=FACE_BOUND('',#489,.T.);
#491=ORIENTED_EDGE('',*,*,#209,.T.);
#492=ORIENTED_EDGE('',*,*,#291,.T.);
#493=EDGE_LOOP('',(#491,#492));
#494=FACE_BOUND('',#493,.T.);
#495=ORIENTED_EDGE('',*,*,#167,.T.);
#496=ORIENTED_EDGE('',*,*,#315,.T.);
#497=EDGE_LOOP('',(#495,#496));
#498=FACE_BOUND('',#497,.T.);
#499=ADVANCED_FACE('',(#486,#490,#494,#498),#480,.F.);
#500=CLOSED_SHELL('',(#171,#213,#255,#279,#303,#327,#367,#398,#429,#451,#475,#499));
#501=MANIFOLD_SOLID_BREP('1584',#500);
#502=ADVANCED_BREP_SHAPE_REPRESENTATION('ABSR1',(#501),#33);
#503=SHAPE_REPRESENTATION_RELATIONSHIP('SRRPL1',' ',#502,#127);
ENDSEC;
END-ISO-10303-21;
