ISO-10303-21;
HEADER;
/****************************************************************
 * Generated by software with PDE/Lib inside                    *
 * PDE/Lib Version 3.2.2, created Thu Mar 23, 2000 at 18:38:49  *
 * International Technegroup Inc. (www.iti-oh.com)              *
 ****************************************************************/
FILE_DESCRIPTION((''),'2;1');
FILE_NAME('40CB4802.stp','2006-03-13T15:21:40',('Shawn Mantel'),('Faztek, LLC'),'Mechanical Desktop 2005','Mechanical Desktop 2005',', , ');
FILE_SCHEMA(('CONFIG_CONTROL_DESIGN'));
ENDSEC;
DATA;
#8=(NAMED_UNIT(*)PLANE_ANGLE_UNIT()SI_UNIT($,.RADIAN.));
#9=DIMENSIONAL_EXPONENTS(0.0,0.0,0.0,0.0,0.0,0.0,0.0);
#10=PLANE_ANGLE_MEASURE_WITH_UNIT(PLANE_ANGLE_MEASURE(0.017453292500000),#8);
#14=(CONVERSION_BASED_UNIT('DEGREE',#10)NAMED_UNIT(#9)PLANE_ANGLE_UNIT());
#18=(NAMED_UNIT(*)SI_UNIT($,.STERADIAN.)SOLID_ANGLE_UNIT());
#20=DIMENSIONAL_EXPONENTS(1.0,0.0,0.0,0.0,0.0,0.0,0.0);
#24=(LENGTH_UNIT()NAMED_UNIT(*)SI_UNIT(.MILLI.,.METRE.));
#25=LENGTH_MEASURE_WITH_UNIT(LENGTH_MEASURE(25.399999999999999),#24);
#27=(CONVERSION_BASED_UNIT('INCH',#25)LENGTH_UNIT()NAMED_UNIT(#20));
#28=UNCERTAINTY_MEASURE_WITH_UNIT(LENGTH_MEASURE(0.000001000000000),#27,'DISTANCE_ACCURACY_VALUE','');
#33=(GEOMETRIC_REPRESENTATION_CONTEXT(3)GLOBAL_UNCERTAINTY_ASSIGNED_CONTEXT((#28))GLOBAL_UNIT_ASSIGNED_CONTEXT((#14,#18,#27))REPRESENTATION_CONTEXT('None','None'));
#34=APPLICATION_CONTEXT('CONFIGURATION CONTROLLED 3D DESIGNS OF MECHANICAL PARTS AND ASSEMBLIES');
#35=APPLICATION_PROTOCOL_DEFINITION('INTERNATIONAL STANDARD','config_control_design',1995,#34);
#36=MECHANICAL_CONTEXT('3D Mechanical Parts',#34,'mechanical');
#37=PRODUCT('Product','Product',' ',(#36));
#38=PRODUCT_RELATED_PRODUCT_CATEGORY('detail',$,(#37));
#39=PRODUCT_CATEGORY('part',$);
#40=PRODUCT_CATEGORY_RELATIONSHIP('None','None',#39,#38);
#41=PERSON('1','Design','Joe',$,$,$);
#42=ORGANIZATION($,'None','None');
#43=PERSON_AND_ORGANIZATION(#41,#42);
#44=PERSON_AND_ORGANIZATION_ROLE('design_owner');
#45=CC_DESIGN_PERSON_AND_ORGANIZATION_ASSIGNMENT(#43,#44,(#37));
#46=PRODUCT_DEFINITION_FORMATION_WITH_SPECIFIED_SOURCE('None','None',#37,.NOT_KNOWN.);
#47=PERSON('2','Creator','Joe',$,$,$);
#48=ORGANIZATION($,'None','None');
#49=PERSON_AND_ORGANIZATION(#47,#48);
#50=PERSON_AND_ORGANIZATION_ROLE('creator');
#51=CC_DESIGN_PERSON_AND_ORGANIZATION_ASSIGNMENT(#49,#50,(#46));
#52=PERSON('3','Supplier','Joe',$,$,$);
#53=ORGANIZATION($,'None','None');
#54=PERSON_AND_ORGANIZATION(#52,#53);
#55=PERSON_AND_ORGANIZATION_ROLE('design_supplier');
#56=CC_DESIGN_PERSON_AND_ORGANIZATION_ASSIGNMENT(#54,#55,(#46));
#57=APPROVAL_STATUS('approved');
#58=APPROVAL(#57,'None');
#59=PERSON('4','Approver','Joe',$,$,$);
#60=ORGANIZATION($,'None','None');
#61=PERSON_AND_ORGANIZATION(#59,#60);
#62=APPROVAL_ROLE('approver');
#63=APPROVAL_PERSON_ORGANIZATION(#61,#58,#62);
#64=COORDINATED_UNIVERSAL_TIME_OFFSET(8,$,.BEHIND.);
#65=CALENDAR_DATE(1996,29,5);
#66=LOCAL_TIME(12,0,0.0,#64);
#67=DATE_AND_TIME(#65,#66);
#68=APPROVAL_DATE_TIME(#67,#58);
#69=CC_DESIGN_APPROVAL(#58,(#46));
#70=SECURITY_CLASSIFICATION_LEVEL('unclassified');
#71=SECURITY_CLASSIFICATION('security','None',#70);
#72=CC_DESIGN_SECURITY_CLASSIFICATION(#71,(#46));
#73=APPROVAL_STATUS('approved');
#74=APPROVAL(#73,'None');
#75=PERSON('5','Approver','Joe',$,$,$);
#76=ORGANIZATION($,'None','None');
#77=PERSON_AND_ORGANIZATION(#75,#76);
#78=APPROVAL_ROLE('approver');
#79=APPROVAL_PERSON_ORGANIZATION(#77,#74,#78);
#80=COORDINATED_UNIVERSAL_TIME_OFFSET(8,$,.BEHIND.);
#81=CALENDAR_DATE(1996,29,5);
#82=LOCAL_TIME(12,0,0.0,#80);
#83=DATE_AND_TIME(#81,#82);
#84=APPROVAL_DATE_TIME(#83,#74);
#85=CC_DESIGN_APPROVAL(#74,(#71));
#86=PERSON('6','Classifier','Joe',$,$,$);
#87=ORGANIZATION($,'None','None');
#88=PERSON_AND_ORGANIZATION(#86,#87);
#89=PERSON_AND_ORGANIZATION_ROLE('classification_officer');
#90=CC_DESIGN_PERSON_AND_ORGANIZATION_ASSIGNMENT(#88,#89,(#71));
#91=COORDINATED_UNIVERSAL_TIME_OFFSET(8,$,.BEHIND.);
#92=CALENDAR_DATE(1996,29,5);
#93=LOCAL_TIME(12,0,0.0,#91);
#94=DATE_AND_TIME(#92,#93);
#95=DATE_TIME_ROLE('classification_date');
#96=CC_DESIGN_DATE_AND_TIME_ASSIGNMENT(#94,#95,(#71));
#97=DESIGN_CONTEXT('Design Context',#34,'design');
#98=PRODUCT_DEFINITION('None','None',#46,#97);
#99=PERSON('7','Creator','Joe',$,$,$);
#100=ORGANIZATION($,'None','None');
#101=PERSON_AND_ORGANIZATION(#99,#100);
#102=PERSON_AND_ORGANIZATION_ROLE('creator');
#103=CC_DESIGN_PERSON_AND_ORGANIZATION_ASSIGNMENT(#101,#102,(#98));
#104=COORDINATED_UNIVERSAL_TIME_OFFSET(8,$,.BEHIND.);
#105=CALENDAR_DATE(1996,29,5);
#106=LOCAL_TIME(12,0,0.0,#104);
#107=DATE_AND_TIME(#105,#106);
#108=DATE_TIME_ROLE('creation_date');
#109=CC_DESIGN_DATE_AND_TIME_ASSIGNMENT(#107,#108,(#98));
#110=APPROVAL_STATUS('approved');
#111=APPROVAL(#110,'None');
#112=PERSON('8','Approver','Joe',$,$,$);
#113=ORGANIZATION($,'None','None');
#114=PERSON_AND_ORGANIZATION(#112,#113);
#115=APPROVAL_ROLE('approver');
#116=APPROVAL_PERSON_ORGANIZATION(#114,#111,#115);
#117=COORDINATED_UNIVERSAL_TIME_OFFSET(8,$,.BEHIND.);
#118=CALENDAR_DATE(1996,29,5);
#119=LOCAL_TIME(12,0,0.0,#117);
#120=DATE_AND_TIME(#118,#119);
#121=APPROVAL_DATE_TIME(#120,#111);
#122=CC_DESIGN_APPROVAL(#111,(#98));
#123=CARTESIAN_POINT('NONE',(0.0,0.0,0.0));
#124=DIRECTION('NONE',(0.0,0.0,1.0));
#125=DIRECTION('NONE',(1.0,0.0,0.0));
#126=AXIS2_PLACEMENT_3D('NONE',#123,#124,#125);
#127=SHAPE_REPRESENTATION('SR1',(#126),#33);
#128=PRODUCT_DEFINITION_SHAPE('PDS1','Test Part',#98);
#129=SHAPE_DEFINITION_REPRESENTATION(#128,#127);
#130=CARTESIAN_POINT('',(0.0,-0.786999999999999,8.881784E-016));
#131=DIRECTION('',(0.0,0.0,1.0));
#132=DIRECTION('',(1.0,0.0,0.0));
#133=AXIS2_PLACEMENT_3D('',#130,#131,#132);
#134=CYLINDRICAL_SURFACE('',#133,0.170000000000000);
#135=CARTESIAN_POINT('',(0.170000000000000,-0.786999999999999,0.250000000000001));
#136=VERTEX_POINT('',#135);
#137=CARTESIAN_POINT('',(0.170000000000000,-0.786999999999999,8.881784E-016));
#138=VERTEX_POINT('',#137);
#139=CARTESIAN_POINT('',(0.170000000000000,-0.786999999999999,0.250000000000001));
#140=DIRECTION('',(0.0,0.0,-1.0));
#141=VECTOR('',#140,0.250000000000000);
#142=LINE('',#139,#141);
#143=EDGE_CURVE('',#136,#138,#142,.T.);
#144=ORIENTED_EDGE('',*,*,#143,.F.);
#145=CARTESIAN_POINT('',(-0.170000000000000,-0.786999999999999,0.250000000000001));
#146=VERTEX_POINT('',#145);
#147=CARTESIAN_POINT('',(0.0,-0.786999999999999,0.250000000000001));
#148=DIRECTION('',(0.0,0.0,-1.0));
#149=DIRECTION('',(1.0,0.0,0.0));
#150=AXIS2_PLACEMENT_3D('',#147,#148,#149);
#151=CIRCLE('',#150,0.170000000000000);
#152=EDGE_CURVE('',#146,#136,#151,.T.);
#153=ORIENTED_EDGE('',*,*,#152,.F.);
#154=CARTESIAN_POINT('',(-0.170000000000000,-0.786999999999999,8.470747E-016));
#155=VERTEX_POINT('',#154);
#156=CARTESIAN_POINT('',(-0.170000000000000,-0.786999999999999,8.470747E-016));
#157=DIRECTION('',(0.0,0.0,1.0));
#158=VECTOR('',#157,0.250000000000000);
#159=LINE('',#156,#158);
#160=EDGE_CURVE('',#155,#146,#159,.T.);
#161=ORIENTED_EDGE('',*,*,#160,.F.);
#162=CARTESIAN_POINT('',(0.0,-0.786999999999999,8.326673E-016));
#163=DIRECTION('',(0.0,0.0,1.0));
#164=DIRECTION('',(1.0,0.0,0.0));
#165=AXIS2_PLACEMENT_3D('',#162,#163,#164);
#166=CIRCLE('',#165,0.170000000000000);
#167=EDGE_CURVE('',#138,#155,#166,.T.);
#168=ORIENTED_EDGE('',*,*,#167,.F.);
#169=EDGE_LOOP('',(#144,#153,#161,#168));
#170=FACE_OUTER_BOUND('',#169,.T.);
#171=ADVANCED_FACE('',(#170),#134,.F.);
#172=CARTESIAN_POINT('',(0.0,0.0,0.787000000000000));
#173=DIRECTION('',(0.0,-1.0,0.0));
#174=DIRECTION('',(1.0,0.0,0.0));
#175=AXIS2_PLACEMENT_3D('',#172,#173,#174);
#176=CYLINDRICAL_SURFACE('',#175,0.170000000000000);
#177=CARTESIAN_POINT('',(0.170000000000000,-0.250000000000000,0.787000000000000));
#178=VERTEX_POINT('',#177);
#179=CARTESIAN_POINT('',(0.170000000000000,0.0,0.787000000000000));
#180=VERTEX_POINT('',#179);
#181=CARTESIAN_POINT('',(0.170000000000000,-0.250000000000000,0.787000000000000));
#182=DIRECTION('',(0.0,1.0,0.0));
#183=VECTOR('',#182,0.250000000000000);
#184=LINE('',#181,#183);
#185=EDGE_CURVE('',#178,#180,#184,.T.);
#186=ORIENTED_EDGE('',*,*,#185,.F.);
#187=CARTESIAN_POINT('',(-0.170000000000000,-0.249999999999999,0.787000000000000));
#188=VERTEX_POINT('',#187);
#189=CARTESIAN_POINT('',(0.0,-0.249999999999999,0.787000000000000));
#190=DIRECTION('',(0.0,1.0,0.0));
#191=DIRECTION('',(1.0,0.0,0.0));
#192=AXIS2_PLACEMENT_3D('',#189,#190,#191);
#193=CIRCLE('',#192,0.170000000000000);
#194=EDGE_CURVE('',#188,#178,#193,.T.);
#195=ORIENTED_EDGE('',*,*,#194,.F.);
#196=CARTESIAN_POINT('',(-0.170000000000000,-4.110368E-017,0.787000000000000));
#197=VERTEX_POINT('',#196);
#198=CARTESIAN_POINT('',(-0.170000000000000,-4.110368E-017,0.787000000000000));
#199=DIRECTION('',(0.0,-1.0,0.0));
#200=VECTOR('',#199,0.249999999999999);
#201=LINE('',#198,#200);
#202=EDGE_CURVE('',#197,#188,#201,.T.);
#203=ORIENTED_EDGE('',*,*,#202,.F.);
#204=CARTESIAN_POINT('',(0.0,-5.551115E-017,0.787000000000000));
#205=DIRECTION('',(0.0,-1.0,0.0));
#206=DIRECTION('',(1.0,0.0,0.0));
#207=AXIS2_PLACEMENT_3D('',#204,#205,#206);
#208=CIRCLE('',#207,0.170000000000000);
#209=EDGE_CURVE('',#180,#197,#208,.T.);
#210=ORIENTED_EDGE('',*,*,#209,.F.);
#211=EDGE_LOOP('',(#186,#195,#203,#210));
#212=FACE_OUTER_BOUND('',#211,.T.);
#213=ADVANCED_FACE('',(#212),#176,.F.);
#214=CARTESIAN_POINT('',(0.0,0.0,2.362000000000000));
#215=DIRECTION('',(0.0,-1.0,0.0));
#216=DIRECTION('',(1.0,0.0,0.0));
#217=AXIS2_PLACEMENT_3D('',#214,#215,#216);
#218=CYLINDRICAL_SURFACE('',#217,0.170000000000000);
#219=CARTESIAN_POINT('',(0.170000000000000,-0.250000000000000,2.362000000000000));
#220=VERTEX_POINT('',#219);
#221=CARTESIAN_POINT('',(0.170000000000000,0.0,2.362000000000000));
#222=VERTEX_POINT('',#221);
#223=CARTESIAN_POINT('',(0.170000000000000,-0.250000000000000,2.362000000000000));
#224=DIRECTION('',(0.0,1.0,0.0));
#225=VECTOR('',#224,0.250000000000000);
#226=LINE('',#223,#225);
#227=EDGE_CURVE('',#220,#222,#226,.T.);
#228=ORIENTED_EDGE('',*,*,#227,.F.);
#229=CARTESIAN_POINT('',(-0.170000000000000,-0.249999999999999,2.362000000000000));
#230=VERTEX_POINT('',#229);
#231=CARTESIAN_POINT('',(0.0,-0.249999999999999,2.362000000000000));
#232=DIRECTION('',(0.0,1.0,0.0));
#233=DIRECTION('',(1.0,0.0,0.0));
#234=AXIS2_PLACEMENT_3D('',#231,#232,#233);
#235=CIRCLE('',#234,0.170000000000000);
#236=EDGE_CURVE('',#230,#220,#235,.T.);
#237=ORIENTED_EDGE('',*,*,#236,.F.);
#238=CARTESIAN_POINT('',(-0.170000000000000,-4.110368E-017,2.362000000000000));
#239=VERTEX_POINT('',#238);
#240=CARTESIAN_POINT('',(-0.170000000000000,-4.110368E-017,2.362000000000000));
#241=DIRECTION('',(0.0,-1.0,0.0));
#242=VECTOR('',#241,0.249999999999999);
#243=LINE('',#240,#242);
#244=EDGE_CURVE('',#239,#230,#243,.T.);
#245=ORIENTED_EDGE('',*,*,#244,.F.);
#246=CARTESIAN_POINT('',(0.0,-5.551115E-017,2.362000000000000));
#247=DIRECTION('',(0.0,-1.0,0.0));
#248=DIRECTION('',(1.0,0.0,0.0));
#249=AXIS2_PLACEMENT_3D('',#246,#247,#248);
#250=CIRCLE('',#249,0.170000000000000);
#251=EDGE_CURVE('',#222,#239,#250,.T.);
#252=ORIENTED_EDGE('',*,*,#251,.F.);
#253=EDGE_LOOP('',(#228,#237,#245,#252));
#254=FACE_OUTER_BOUND('',#253,.T.);
#255=ADVANCED_FACE('',(#254),#218,.F.);
#256=CARTESIAN_POINT('',(0.0,0.0,2.362000000000000));
#257=DIRECTION('',(0.0,-1.0,0.0));
#258=DIRECTION('',(1.0,0.0,0.0));
#259=AXIS2_PLACEMENT_3D('',#256,#257,#258);
#260=CYLINDRICAL_SURFACE('',#259,0.170000000000000);
#261=ORIENTED_EDGE('',*,*,#227,.T.);
#262=CARTESIAN_POINT('',(0.0,-5.551115E-017,2.362000000000000));
#263=DIRECTION('',(0.0,-1.0,0.0));
#264=DIRECTION('',(1.0,0.0,0.0));
#265=AXIS2_PLACEMENT_3D('',#262,#263,#264);
#266=CIRCLE('',#265,0.170000000000000);
#267=EDGE_CURVE('',#239,#222,#266,.T.);
#268=ORIENTED_EDGE('',*,*,#267,.F.);
#269=ORIENTED_EDGE('',*,*,#244,.T.);
#270=CARTESIAN_POINT('',(0.0,-0.249999999999999,2.362000000000000));
#271=DIRECTION('',(0.0,1.0,0.0));
#272=DIRECTION('',(1.0,0.0,0.0));
#273=AXIS2_PLACEMENT_3D('',#270,#271,#272);
#274=CIRCLE('',#273,0.170000000000000);
#275=EDGE_CURVE('',#220,#230,#274,.T.);
#276=ORIENTED_EDGE('',*,*,#275,.F.);
#277=EDGE_LOOP('',(#261,#268,#269,#276));
#278=FACE_OUTER_BOUND('',#277,.T.);
#279=ADVANCED_FACE('',(#278),#260,.F.);
#280=CARTESIAN_POINT('',(0.0,0.0,0.787000000000000));
#281=DIRECTION('',(0.0,-1.0,0.0));
#282=DIRECTION('',(1.0,0.0,0.0));
#283=AXIS2_PLACEMENT_3D('',#280,#281,#282);
#284=CYLINDRICAL_SURFACE('',#283,0.170000000000000);
#285=ORIENTED_EDGE('',*,*,#185,.T.);
#286=CARTESIAN_POINT('',(0.0,-5.551115E-017,0.787000000000000));
#287=DIRECTION('',(0.0,-1.0,0.0));
#288=DIRECTION('',(1.0,0.0,0.0));
#289=AXIS2_PLACEMENT_3D('',#286,#287,#288);
#290=CIRCLE('',#289,0.170000000000000);
#291=EDGE_CURVE('',#197,#180,#290,.T.);
#292=ORIENTED_EDGE('',*,*,#291,.F.);
#293=ORIENTED_EDGE('',*,*,#202,.T.);
#294=CARTESIAN_POINT('',(0.0,-0.249999999999999,0.787000000000000));
#295=DIRECTION('',(0.0,1.0,0.0));
#296=DIRECTION('',(1.0,0.0,0.0));
#297=AXIS2_PLACEMENT_3D('',#294,#295,#296);
#298=CIRCLE('',#297,0.170000000000000);
#299=EDGE_CURVE('',#178,#188,#298,.T.);
#300=ORIENTED_EDGE('',*,*,#299,.F.);
#301=EDGE_LOOP('',(#285,#292,#293,#300));
#302=FACE_OUTER_BOUND('',#301,.T.);
#303=ADVANCED_FACE('',(#302),#284,.F.);
#304=CARTESIAN_POINT('',(0.0,-0.786999999999999,8.881784E-016));
#305=DIRECTION('',(0.0,0.0,1.0));
#306=DIRECTION('',(1.0,0.0,0.0));
#307=AXIS2_PLACEMENT_3D('',#304,#305,#306);
#308=CYLINDRICAL_SURFACE('',#307,0.170000000000000);
#309=ORIENTED_EDGE('',*,*,#143,.T.);
#310=CARTESIAN_POINT('',(0.0,-0.786999999999999,8.326673E-016));
#311=DIRECTION('',(0.0,0.0,1.0));
#312=DIRECTION('',(1.0,0.0,0.0));
#313=AXIS2_PLACEMENT_3D('',#310,#311,#312);
#314=CIRCLE('',#313,0.170000000000000);
#315=EDGE_CURVE('',#155,#138,#314,.T.);
#316=ORIENTED_EDGE('',*,*,#315,.F.);
#317=ORIENTED_EDGE('',*,*,#160,.T.);
#318=CARTESIAN_POINT('',(0.0,-0.786999999999999,0.250000000000001));
#319=DIRECTION('',(0.0,0.0,-1.0));
#320=DIRECTION('',(1.0,0.0,0.0));
#321=AXIS2_PLACEMENT_3D('',#318,#319,#320);
#322=CIRCLE('',#321,0.170000000000000);
#323=EDGE_CURVE('',#136,#146,#322,.T.);
#324=ORIENTED_EDGE('',*,*,#323,.F.);
#325=EDGE_LOOP('',(#309,#316,#317,#324));
#326=FACE_OUTER_BOUND('',#325,.T.);
#327=ADVANCED_FACE('',(#326),#308,.F.);
#328=CARTESIAN_POINT('',(0.655000000000000,-0.561999999999999,0.250000000000001));
#329=DIRECTION('',(0.0,0.0,1.0));
#330=DIRECTION('',(1.0,0.0,0.0));
#331=AXIS2_PLACEMENT_3D('',#328,#329,#330);
#332=PLANE('',#331);
#333=CARTESIAN_POINT('',(-0.655000000000000,-0.561999999999999,0.250000000000001));
#334=VERTEX_POINT('',#333);
#335=CARTESIAN_POINT('',(-0.655000000000000,-1.249999999999999,0.250000000000001));
#336=VERTEX_POINT('',#335);
#337=CARTESIAN_POINT('',(-0.655000000000000,-0.561999999999999,0.250000000000001));
#338=DIRECTION('',(0.0,-1.0,0.0));
#339=VECTOR('',#338,0.688000000000001);
#340=LINE('',#337,#339);
#341=EDGE_CURVE('',#334,#336,#340,.T.);
#342=ORIENTED_EDGE('',*,*,#341,.T.);
#343=CARTESIAN_POINT('',(0.655000000000000,-1.249999999999999,0.250000000000001));
#344=VERTEX_POINT('',#343);
#345=CARTESIAN_POINT('',(0.655000000000000,-1.249999999999999,0.250000000000001));
#346=DIRECTION('',(-1.0,0.0,0.0));
#347=VECTOR('',#346,1.310000000000000);
#348=LINE('',#345,#347);
#349=EDGE_CURVE('',#344,#336,#348,.T.);
#350=ORIENTED_EDGE('',*,*,#349,.F.);
#351=CARTESIAN_POINT('',(0.655000000000000,-0.561999999999999,0.250000000000001));
#352=VERTEX_POINT('',#351);
#353=CARTESIAN_POINT('',(0.655000000000000,-1.249999999999999,0.250000000000001));
#354=DIRECTION('',(0.0,1.0,0.0));
#355=VECTOR('',#354,0.688000000000001);
#356=LINE('',#353,#355);
#357=EDGE_CURVE('',#344,#352,#356,.T.);
#358=ORIENTED_EDGE('',*,*,#357,.T.);
#359=CARTESIAN_POINT('',(0.655000000000000,-0.561999999999999,0.250000000000001));
#360=DIRECTION('',(-1.0,0.0,0.0));
#361=VECTOR('',#360,1.310000000000000);
#362=LINE('',#359,#361);
#363=EDGE_CURVE('',#352,#334,#362,.T.);
#364=ORIENTED_EDGE('',*,*,#363,.T.);
#365=EDGE_LOOP('',(#342,#350,#358,#364));
#366=FACE_OUTER_BOUND('',#365,.T.);
#367=ORIENTED_EDGE('',*,*,#323,.T.);
#368=ORIENTED_EDGE('',*,*,#152,.T.);
#369=EDGE_LOOP('',(#367,#368));
#370=FACE_BOUND('',#369,.T.);
#371=ADVANCED_FACE('',(#366,#370),#332,.T.);
#372=CARTESIAN_POINT('',(0.655000000000000,-1.249999999999999,1.276756E-015));
#373=DIRECTION('',(-1.0,8.474985E-017,8.474985E-017));
#374=DIRECTION('',(0.0,1.0,0.0));
#375=AXIS2_PLACEMENT_3D('',#372,#373,#374);
#376=CYLINDRICAL_SURFACE('',#375,0.250000000000000);
#377=CARTESIAN_POINT('',(-0.655000000000000,-1.499999999999999,9.436896E-016));
#378=VERTEX_POINT('',#377);
#379=CARTESIAN_POINT('',(-0.655000000000000,-1.249999999999999,1.387779E-015));
#380=DIRECTION('',(1.0,0.0,0.0));
#381=DIRECTION('',(0.0,1.0,0.0));
#382=AXIS2_PLACEMENT_3D('',#379,#380,#381);
#383=CIRCLE('',#382,0.250000000000000);
#384=EDGE_CURVE('',#336,#378,#383,.T.);
#385=ORIENTED_EDGE('',*,*,#384,.T.);
#386=CARTESIAN_POINT('',(0.655000000000000,-1.499999999999999,8.326673E-016));
#387=VERTEX_POINT('',#386);
#388=CARTESIAN_POINT('',(0.655000000000000,-1.499999999999999,8.326673E-016));
#389=DIRECTION('',(-1.0,0.0,0.0));
#390=VECTOR('',#389,1.310000000000000);
#391=LINE('',#388,#390);
#392=EDGE_CURVE('',#387,#378,#391,.T.);
#393=ORIENTED_EDGE('',*,*,#392,.F.);
#394=CARTESIAN_POINT('',(0.655000000000000,-1.249999999999999,1.276756E-015));
#395=DIRECTION('',(-1.0,0.0,0.0));
#396=DIRECTION('',(0.0,1.0,0.0));
#397=AXIS2_PLACEMENT_3D('',#394,#395,#396);
#398=CIRCLE('',#397,0.250000000000000);
#399=EDGE_CURVE('',#387,#344,#398,.T.);
#400=ORIENTED_EDGE('',*,*,#399,.T.);
#401=ORIENTED_EDGE('',*,*,#349,.T.);
#402=EDGE_LOOP('',(#385,#393,#400,#401));
#403=FACE_OUTER_BOUND('',#402,.T.);
#404=ADVANCED_FACE('',(#403),#376,.T.);
#405=CARTESIAN_POINT('',(0.655000000000000,-1.499999999999999,8.326673E-016));
#406=DIRECTION('',(0.0,0.0,-1.0));
#407=DIRECTION('',(-1.0,0.0,0.0));
#408=AXIS2_PLACEMENT_3D('',#405,#406,#407);
#409=PLANE('',#408);
#410=CARTESIAN_POINT('',(-0.655000000000000,5.551115E-017,5.551115E-017));
#411=VERTEX_POINT('',#410);
#412=CARTESIAN_POINT('',(-0.655000000000000,-1.499999999999999,9.436896E-016));
#413=DIRECTION('',(0.0,1.0,0.0));
#414=VECTOR('',#413,1.499999999999999);
#415=LINE('',#412,#414);
#416=EDGE_CURVE('',#378,#411,#415,.T.);
#417=ORIENTED_EDGE('',*,*,#416,.T.);
#418=CARTESIAN_POINT('',(0.655000000000000,-5.551115E-017,-5.551115E-017));
#419=VERTEX_POINT('',#418);
#420=CARTESIAN_POINT('',(0.655000000000000,-5.551115E-017,-5.551115E-017));
#421=DIRECTION('',(-1.0,0.0,0.0));
#422=VECTOR('',#421,1.310000000000000);
#423=LINE('',#420,#422);
#424=EDGE_CURVE('',#419,#411,#423,.T.);
#425=ORIENTED_EDGE('',*,*,#424,.F.);
#426=CARTESIAN_POINT('',(0.655000000000000,-5.551115E-017,-5.551115E-017));
#427=DIRECTION('',(0.0,-1.0,0.0));
#428=VECTOR('',#427,1.499999999999999);
#429=LINE('',#426,#428);
#430=EDGE_CURVE('',#419,#387,#429,.T.);
#431=ORIENTED_EDGE('',*,*,#430,.T.);
#432=ORIENTED_EDGE('',*,*,#392,.T.);
#433=EDGE_LOOP('',(#417,#425,#431,#432));
#434=FACE_OUTER_BOUND('',#433,.T.);
#435=ORIENTED_EDGE('',*,*,#167,.T.);
#436=ORIENTED_EDGE('',*,*,#315,.T.);
#437=EDGE_LOOP('',(#435,#436));
#438=FACE_BOUND('',#437,.T.);
#439=ADVANCED_FACE('',(#434,#438),#409,.T.);
#440=CARTESIAN_POINT('',(0.655000000000000,-5.551115E-017,-5.551115E-017));
#441=DIRECTION('',(0.0,1.0,0.0));
#442=DIRECTION('',(0.0,0.0,1.0));
#443=AXIS2_PLACEMENT_3D('',#440,#441,#442);
#444=PLANE('',#443);
#445=CARTESIAN_POINT('',(-0.655000000000000,9.436896E-016,3.000000000000001));
#446=VERTEX_POINT('',#445);
#447=CARTESIAN_POINT('',(-0.655000000000000,5.551115E-017,5.551115E-017));
#448=DIRECTION('',(0.0,0.0,1.0));
#449=VECTOR('',#448,3.000000000000001);
#450=LINE('',#447,#449);
#451=EDGE_CURVE('',#411,#446,#450,.T.);
#452=ORIENTED_EDGE('',*,*,#451,.T.);
#453=CARTESIAN_POINT('',(0.655000000000001,8.326673E-016,3.000000000000001));
#454=VERTEX_POINT('',#453);
#455=CARTESIAN_POINT('',(0.655000000000001,8.326673E-016,3.000000000000001));
#456=DIRECTION('',(-1.0,0.0,0.0));
#457=VECTOR('',#456,1.310000000000001);
#458=LINE('',#455,#457);
#459=EDGE_CURVE('',#454,#446,#458,.T.);
#460=ORIENTED_EDGE('',*,*,#459,.F.);
#461=CARTESIAN_POINT('',(0.655000000000001,8.326673E-016,3.000000000000001));
#462=DIRECTION('',(0.0,0.0,-1.0));
#463=VECTOR('',#462,3.000000000000001);
#464=LINE('',#461,#463);
#465=EDGE_CURVE('',#454,#419,#464,.T.);
#466=ORIENTED_EDGE('',*,*,#465,.T.);
#467=ORIENTED_EDGE('',*,*,#424,.T.);
#468=EDGE_LOOP('',(#452,#460,#466,#467));
#469=FACE_OUTER_BOUND('',#468,.T.);
#470=ORIENTED_EDGE('',*,*,#251,.T.);
#471=ORIENTED_EDGE('',*,*,#267,.T.);
#472=EDGE_LOOP('',(#470,#471));
#473=FACE_BOUND('',#472,.T.);
#474=ORIENTED_EDGE('',*,*,#209,.T.);
#475=ORIENTED_EDGE('',*,*,#291,.T.);
#476=EDGE_LOOP('',(#474,#475));
#477=FACE_BOUND('',#476,.T.);
#478=ADVANCED_FACE('',(#469,#473,#477),#444,.T.);
#479=CARTESIAN_POINT('',(0.655000000000001,8.326673E-016,2.750000000000001));
#480=DIRECTION('',(-1.0,8.474985E-017,8.474985E-017));
#481=DIRECTION('',(0.0,1.0,0.0));
#482=AXIS2_PLACEMENT_3D('',#479,#480,#481);
#483=CYLINDRICAL_SURFACE('',#482,0.250000000000000);
#484=CARTESIAN_POINT('',(-0.655000000000000,-0.249999999999999,2.750000000000001));
#485=VERTEX_POINT('',#484);
#486=CARTESIAN_POINT('',(-0.654999999999999,9.436896E-016,2.750000000000001));
#487=DIRECTION('',(1.0,0.0,0.0));
#488=DIRECTION('',(0.0,1.0,0.0));
#489=AXIS2_PLACEMENT_3D('',#486,#487,#488);
#490=CIRCLE('',#489,0.250000000000000);
#491=EDGE_CURVE('',#446,#485,#490,.T.);
#492=ORIENTED_EDGE('',*,*,#491,.T.);
#493=CARTESIAN_POINT('',(0.655000000000001,-0.249999999999999,2.750000000000001));
#494=VERTEX_POINT('',#493);
#495=CARTESIAN_POINT('',(0.655000000000001,-0.249999999999999,2.750000000000001));
#496=DIRECTION('',(-1.0,0.0,0.0));
#497=VECTOR('',#496,1.310000000000001);
#498=LINE('',#495,#497);
#499=EDGE_CURVE('',#494,#485,#498,.T.);
#500=ORIENTED_EDGE('',*,*,#499,.F.);
#501=CARTESIAN_POINT('',(0.655000000000001,8.326673E-016,2.750000000000001));
#502=DIRECTION('',(-1.0,0.0,0.0));
#503=DIRECTION('',(0.0,1.0,0.0));
#504=AXIS2_PLACEMENT_3D('',#501,#502,#503);
#505=CIRCLE('',#504,0.250000000000000);
#506=EDGE_CURVE('',#494,#454,#505,.T.);
#507=ORIENTED_EDGE('',*,*,#506,.T.);
#508=ORIENTED_EDGE('',*,*,#459,.T.);
#509=EDGE_LOOP('',(#492,#500,#507,#508));
#510=FACE_OUTER_BOUND('',#509,.T.);
#511=ADVANCED_FACE('',(#510),#483,.T.);
#512=CARTESIAN_POINT('',(0.655000000000001,-0.249999999999999,2.750000000000001));
#513=DIRECTION('',(0.0,-1.0,0.0));
#514=DIRECTION('',(0.0,0.0,-1.0));
#515=AXIS2_PLACEMENT_3D('',#512,#513,#514);
#516=PLANE('',#515);
#517=CARTESIAN_POINT('',(-0.655000000000000,-0.249999999999999,0.562000000000000));
#518=VERTEX_POINT('',#517);
#519=CARTESIAN_POINT('',(-0.655000000000000,-0.249999999999999,2.750000000000001));
#520=DIRECTION('',(0.0,0.0,-1.0));
#521=VECTOR('',#520,2.188000000000001);
#522=LINE('',#519,#521);
#523=EDGE_CURVE('',#485,#518,#522,.T.);
#524=ORIENTED_EDGE('',*,*,#523,.T.);
#525=CARTESIAN_POINT('',(0.655000000000000,-0.249999999999999,0.562000000000000));
#526=VERTEX_POINT('',#525);
#527=CARTESIAN_POINT('',(0.655000000000000,-0.249999999999999,0.562000000000000));
#528=DIRECTION('',(-1.0,0.0,0.0));
#529=VECTOR('',#528,1.310000000000000);
#530=LINE('',#527,#529);
#531=EDGE_CURVE('',#526,#518,#530,.T.);
#532=ORIENTED_EDGE('',*,*,#531,.F.);
#533=CARTESIAN_POINT('',(0.655000000000000,-0.249999999999999,0.562000000000000));
#534=DIRECTION('',(0.0,0.0,1.0));
#535=VECTOR('',#534,2.188000000000001);
#536=LINE('',#533,#535);
#537=EDGE_CURVE('',#526,#494,#536,.T.);
#538=ORIENTED_EDGE('',*,*,#537,.T.);
#539=ORIENTED_EDGE('',*,*,#499,.T.);
#540=EDGE_LOOP('',(#524,#532,#538,#539));
#541=FACE_OUTER_BOUND('',#540,.T.);
#542=ORIENTED_EDGE('',*,*,#275,.T.);
#543=ORIENTED_EDGE('',*,*,#236,.T.);
#544=EDGE_LOOP('',(#542,#543));
#545=FACE_BOUND('',#544,.T.);
#546=ORIENTED_EDGE('',*,*,#299,.T.);
#547=ORIENTED_EDGE('',*,*,#194,.T.);
#548=EDGE_LOOP('',(#546,#547));
#549=FACE_BOUND('',#548,.T.);
#550=ADVANCED_FACE('',(#541,#545,#549),#516,.T.);
#551=CARTESIAN_POINT('',(0.655000000000000,-0.561999999999999,0.562000000000000));
#552=DIRECTION('',(-1.0,8.474985E-017,8.474985E-017));
#553=DIRECTION('',(0.0,1.0,0.0));
#554=AXIS2_PLACEMENT_3D('',#551,#552,#553);
#555=CYLINDRICAL_SURFACE('',#554,0.312000000000000);
#556=CARTESIAN_POINT('',(-0.655000000000000,-0.561999999999999,0.562000000000000));
#557=DIRECTION('',(-1.0,0.0,0.0));
#558=DIRECTION('',(0.0,1.0,0.0));
#559=AXIS2_PLACEMENT_3D('',#556,#557,#558);
#560=CIRCLE('',#559,0.312000000000000);
#561=EDGE_CURVE('',#518,#334,#560,.T.);
#562=ORIENTED_EDGE('',*,*,#561,.T.);
#563=ORIENTED_EDGE('',*,*,#363,.F.);
#564=CARTESIAN_POINT('',(0.655000000000000,-0.561999999999999,0.562000000000000));
#565=DIRECTION('',(1.0,0.0,0.0));
#566=DIRECTION('',(0.0,1.0,0.0));
#567=AXIS2_PLACEMENT_3D('',#564,#565,#566);
#568=CIRCLE('',#567,0.312000000000000);
#569=EDGE_CURVE('',#352,#526,#568,.T.);
#570=ORIENTED_EDGE('',*,*,#569,.T.);
#571=ORIENTED_EDGE('',*,*,#531,.T.);
#572=EDGE_LOOP('',(#562,#563,#570,#571));
#573=FACE_OUTER_BOUND('',#572,.T.);
#574=ADVANCED_FACE('',(#573),#555,.F.);
#575=CARTESIAN_POINT('',(-0.655000000000000,-0.561999999999999,0.250000000000001));
#576=DIRECTION('',(-1.0,0.0,0.0));
#577=DIRECTION('',(0.0,0.0,1.0));
#578=AXIS2_PLACEMENT_3D('',#575,#576,#577);
#579=PLANE('',#578);
#580=ORIENTED_EDGE('',*,*,#341,.F.);
#581=ORIENTED_EDGE('',*,*,#561,.F.);
#582=ORIENTED_EDGE('',*,*,#523,.F.);
#583=ORIENTED_EDGE('',*,*,#491,.F.);
#584=ORIENTED_EDGE('',*,*,#451,.F.);
#585=ORIENTED_EDGE('',*,*,#416,.F.);
#586=ORIENTED_EDGE('',*,*,#384,.F.);
#587=EDGE_LOOP('',(#580,#581,#582,#583,#584,#585,#586));
#588=FACE_OUTER_BOUND('',#587,.T.);
#589=ADVANCED_FACE('',(#588),#579,.T.);
#590=CARTESIAN_POINT('',(0.655000000000000,-0.561999999999999,0.250000000000001));
#591=DIRECTION('',(-1.0,0.0,0.0));
#592=DIRECTION('',(0.0,0.0,1.0));
#593=AXIS2_PLACEMENT_3D('',#590,#591,#592);
#594=PLANE('',#593);
#595=ORIENTED_EDGE('',*,*,#569,.F.);
#596=ORIENTED_EDGE('',*,*,#357,.F.);
#597=ORIENTED_EDGE('',*,*,#399,.F.);
#598=ORIENTED_EDGE('',*,*,#430,.F.);
#599=ORIENTED_EDGE('',*,*,#465,.F.);
#600=ORIENTED_EDGE('',*,*,#506,.F.);
#601=ORIENTED_EDGE('',*,*,#537,.F.);
#602=EDGE_LOOP('',(#595,#596,#597,#598,#599,#600,#601));
#603=FACE_OUTER_BOUND('',#602,.T.);
#604=ADVANCED_FACE('',(#603),#594,.F.);
#605=CLOSED_SHELL('',(#171,#213,#255,#279,#303,#327,#371,#404,#439,#478,#511,#550,#574,#589,#604));
#606=MANIFOLD_SOLID_BREP('1444',#605);
#607=ADVANCED_BREP_SHAPE_REPRESENTATION('ABSR1',(#606),#33);
#608=SHAPE_REPRESENTATION_RELATIONSHIP('SRRPL1',' ',#607,#127);
ENDSEC;
END-ISO-10303-21;
