ISO-10303-21;
HEADER;
/****************************************************************
 * Generated by software with PDE/Lib inside                    *
 * PDE/Lib Version 3.2.2, created Thu Mar 23, 2000 at 18:38:49  *
 * International Technegroup Inc. (www.iti-oh.com)              *
 ****************************************************************/
FILE_DESCRIPTION((''),'2;1');
FILE_NAME('15SP1882.stp','2006-03-13T15:24:49',('Shawn Mantel'),('Faztek, LLC'),'Mechanical Desktop 2005','Mechanical Desktop 2005',', , ');
FILE_SCHEMA(('CONFIG_CONTROL_DESIGN'));
ENDSEC;
DATA;
#8=(NAMED_UNIT(*)PLANE_ANGLE_UNIT()SI_UNIT($,.RADIAN.));
#9=DIMENSIONAL_EXPONENTS(0.0,0.0,0.0,0.0,0.0,0.0,0.0);
#10=PLANE_ANGLE_MEASURE_WITH_UNIT(PLANE_ANGLE_MEASURE(0.017453292500000),#8);
#14=(CONVERSION_BASED_UNIT('DEGREE',#10)NAMED_UNIT(#9)PLANE_ANGLE_UNIT());
#18=(NAMED_UNIT(*)SI_UNIT($,.STERADIAN.)SOLID_ANGLE_UNIT());
#20=DIMENSIONAL_EXPONENTS(1.0,0.0,0.0,0.0,0.0,0.0,0.0);
#24=(LENGTH_UNIT()NAMED_UNIT(*)SI_UNIT(.MILLI.,.METRE.));
#25=LENGTH_MEASURE_WITH_UNIT(LENGTH_MEASURE(25.399999999999999),#24);
#27=(CONVERSION_BASED_UNIT('INCH',#25)LENGTH_UNIT()NAMED_UNIT(#20));
#28=UNCERTAINTY_MEASURE_WITH_UNIT(LENGTH_MEASURE(0.000001000000000),#27,'DISTANCE_ACCURACY_VALUE','');
#33=(GEOMETRIC_REPRESENTATION_CONTEXT(3)GLOBAL_UNCERTAINTY_ASSIGNED_CONTEXT((#28))GLOBAL_UNIT_ASSIGNED_CONTEXT((#14,#18,#27))REPRESENTATION_CONTEXT('None','None'));
#34=APPLICATION_CONTEXT('CONFIGURATION CONTROLLED 3D DESIGNS OF MECHANICAL PARTS AND ASSEMBLIES');
#35=APPLICATION_PROTOCOL_DEFINITION('INTERNATIONAL STANDARD','config_control_design',1995,#34);
#36=MECHANICAL_CONTEXT('3D Mechanical Parts',#34,'mechanical');
#37=PRODUCT('Product','Product',' ',(#36));
#38=PRODUCT_RELATED_PRODUCT_CATEGORY('detail',$,(#37));
#39=PRODUCT_CATEGORY('part',$);
#40=PRODUCT_CATEGORY_RELATIONSHIP('None','None',#39,#38);
#41=PERSON('1','Design','Joe',$,$,$);
#42=ORGANIZATION($,'None','None');
#43=PERSON_AND_ORGANIZATION(#41,#42);
#44=PERSON_AND_ORGANIZATION_ROLE('design_owner');
#45=CC_DESIGN_PERSON_AND_ORGANIZATION_ASSIGNMENT(#43,#44,(#37));
#46=PRODUCT_DEFINITION_FORMATION_WITH_SPECIFIED_SOURCE('None','None',#37,.NOT_KNOWN.);
#47=PERSON('2','Creator','Joe',$,$,$);
#48=ORGANIZATION($,'None','None');
#49=PERSON_AND_ORGANIZATION(#47,#48);
#50=PERSON_AND_ORGANIZATION_ROLE('creator');
#51=CC_DESIGN_PERSON_AND_ORGANIZATION_ASSIGNMENT(#49,#50,(#46));
#52=PERSON('3','Supplier','Joe',$,$,$);
#53=ORGANIZATION($,'None','None');
#54=PERSON_AND_ORGANIZATION(#52,#53);
#55=PERSON_AND_ORGANIZATION_ROLE('design_supplier');
#56=CC_DESIGN_PERSON_AND_ORGANIZATION_ASSIGNMENT(#54,#55,(#46));
#57=APPROVAL_STATUS('approved');
#58=APPROVAL(#57,'None');
#59=PERSON('4','Approver','Joe',$,$,$);
#60=ORGANIZATION($,'None','None');
#61=PERSON_AND_ORGANIZATION(#59,#60);
#62=APPROVAL_ROLE('approver');
#63=APPROVAL_PERSON_ORGANIZATION(#61,#58,#62);
#64=COORDINATED_UNIVERSAL_TIME_OFFSET(8,$,.BEHIND.);
#65=CALENDAR_DATE(1996,29,5);
#66=LOCAL_TIME(12,0,0.0,#64);
#67=DATE_AND_TIME(#65,#66);
#68=APPROVAL_DATE_TIME(#67,#58);
#69=CC_DESIGN_APPROVAL(#58,(#46));
#70=SECURITY_CLASSIFICATION_LEVEL('unclassified');
#71=SECURITY_CLASSIFICATION('security','None',#70);
#72=CC_DESIGN_SECURITY_CLASSIFICATION(#71,(#46));
#73=APPROVAL_STATUS('approved');
#74=APPROVAL(#73,'None');
#75=PERSON('5','Approver','Joe',$,$,$);
#76=ORGANIZATION($,'None','None');
#77=PERSON_AND_ORGANIZATION(#75,#76);
#78=APPROVAL_ROLE('approver');
#79=APPROVAL_PERSON_ORGANIZATION(#77,#74,#78);
#80=COORDINATED_UNIVERSAL_TIME_OFFSET(8,$,.BEHIND.);
#81=CALENDAR_DATE(1996,29,5);
#82=LOCAL_TIME(12,0,0.0,#80);
#83=DATE_AND_TIME(#81,#82);
#84=APPROVAL_DATE_TIME(#83,#74);
#85=CC_DESIGN_APPROVAL(#74,(#71));
#86=PERSON('6','Classifier','Joe',$,$,$);
#87=ORGANIZATION($,'None','None');
#88=PERSON_AND_ORGANIZATION(#86,#87);
#89=PERSON_AND_ORGANIZATION_ROLE('classification_officer');
#90=CC_DESIGN_PERSON_AND_ORGANIZATION_ASSIGNMENT(#88,#89,(#71));
#91=COORDINATED_UNIVERSAL_TIME_OFFSET(8,$,.BEHIND.);
#92=CALENDAR_DATE(1996,29,5);
#93=LOCAL_TIME(12,0,0.0,#91);
#94=DATE_AND_TIME(#92,#93);
#95=DATE_TIME_ROLE('classification_date');
#96=CC_DESIGN_DATE_AND_TIME_ASSIGNMENT(#94,#95,(#71));
#97=DESIGN_CONTEXT('Design Context',#34,'design');
#98=PRODUCT_DEFINITION('None','None',#46,#97);
#99=PERSON('7','Creator','Joe',$,$,$);
#100=ORGANIZATION($,'None','None');
#101=PERSON_AND_ORGANIZATION(#99,#100);
#102=PERSON_AND_ORGANIZATION_ROLE('creator');
#103=CC_DESIGN_PERSON_AND_ORGANIZATION_ASSIGNMENT(#101,#102,(#98));
#104=COORDINATED_UNIVERSAL_TIME_OFFSET(8,$,.BEHIND.);
#105=CALENDAR_DATE(1996,29,5);
#106=LOCAL_TIME(12,0,0.0,#104);
#107=DATE_AND_TIME(#105,#106);
#108=DATE_TIME_ROLE('creation_date');
#109=CC_DESIGN_DATE_AND_TIME_ASSIGNMENT(#107,#108,(#98));
#110=APPROVAL_STATUS('approved');
#111=APPROVAL(#110,'None');
#112=PERSON('8','Approver','Joe',$,$,$);
#113=ORGANIZATION($,'None','None');
#114=PERSON_AND_ORGANIZATION(#112,#113);
#115=APPROVAL_ROLE('approver');
#116=APPROVAL_PERSON_ORGANIZATION(#114,#111,#115);
#117=COORDINATED_UNIVERSAL_TIME_OFFSET(8,$,.BEHIND.);
#118=CALENDAR_DATE(1996,29,5);
#119=LOCAL_TIME(12,0,0.0,#117);
#120=DATE_AND_TIME(#118,#119);
#121=APPROVAL_DATE_TIME(#120,#111);
#122=CC_DESIGN_APPROVAL(#111,(#98));
#123=CARTESIAN_POINT('NONE',(0.0,0.0,0.0));
#124=DIRECTION('NONE',(0.0,0.0,1.0));
#125=DIRECTION('NONE',(1.0,0.0,0.0));
#126=AXIS2_PLACEMENT_3D('NONE',#123,#124,#125);
#127=SHAPE_REPRESENTATION('SR1',(#126),#33);
#128=PRODUCT_DEFINITION_SHAPE('PDS1','Test Part',#98);
#129=SHAPE_DEFINITION_REPRESENTATION(#128,#127);
#130=CARTESIAN_POINT('',(-0.750000000000000,-8.485281374238571,2.274323E-015));
#131=DIRECTION('',(2.668171E-017,-0.707106781186547,0.707106781186548));
#132=DIRECTION('',(1.0,0.0,0.0));
#133=AXIS2_PLACEMENT_3D('',#130,#131,#132);
#134=PLANE('',#133);
#135=CARTESIAN_POINT('',(0.749999999999999,-8.485281374238571,2.274323E-015));
#136=VERTEX_POINT('',#135);
#137=CARTESIAN_POINT('',(0.750000000000001,1.776357E-015,8.485281374238570));
#138=VERTEX_POINT('',#137);
#139=CARTESIAN_POINT('',(0.749999999999999,-8.485281374238571,2.274323E-015));
#140=DIRECTION('',(1.480297E-016,0.707106781186548,0.707106781186547));
#141=VECTOR('',#140,12.0);
#142=LINE('',#139,#141);
#143=EDGE_CURVE('',#136,#138,#142,.T.);
#144=ORIENTED_EDGE('',*,*,#143,.T.);
#145=CARTESIAN_POINT('',(-0.749999999999999,1.776357E-015,8.485281374238570));
#146=VERTEX_POINT('',#145);
#147=CARTESIAN_POINT('',(-0.749999999999999,1.776357E-015,8.485281374238570));
#148=DIRECTION('',(1.0,0.0,0.0));
#149=VECTOR('',#148,1.500000000000000);
#150=LINE('',#147,#149);
#151=EDGE_CURVE('',#146,#138,#150,.T.);
#152=ORIENTED_EDGE('',*,*,#151,.F.);
#153=CARTESIAN_POINT('',(-0.750000000000000,-8.485281374238571,2.274323E-015));
#154=VERTEX_POINT('',#153);
#155=CARTESIAN_POINT('',(-0.749999999999999,1.776357E-015,8.485281374238570));
#156=DIRECTION('',(-1.480297E-016,-0.707106781186548,-0.707106781186547));
#157=VECTOR('',#156,12.0);
#158=LINE('',#155,#157);
#159=EDGE_CURVE('',#146,#154,#158,.T.);
#160=ORIENTED_EDGE('',*,*,#159,.T.);
#161=CARTESIAN_POINT('',(-0.750000000000000,-8.485281374238571,2.274323E-015));
#162=DIRECTION('',(1.0,0.0,0.0));
#163=VECTOR('',#162,1.500000000000000);
#164=LINE('',#161,#163);
#165=EDGE_CURVE('',#154,#136,#164,.T.);
#166=ORIENTED_EDGE('',*,*,#165,.T.);
#167=EDGE_LOOP('',(#144,#152,#160,#166));
#168=FACE_OUTER_BOUND('',#167,.T.);
#169=ADVANCED_FACE('',(#168),#134,.T.);
#170=CARTESIAN_POINT('',(-0.749999999999999,1.776357E-015,8.485281374238570));
#171=DIRECTION('',(0.0,1.0,0.0));
#172=DIRECTION('',(-1.0,0.0,0.0));
#173=AXIS2_PLACEMENT_3D('',#170,#171,#172);
#174=PLANE('',#173);
#175=CARTESIAN_POINT('',(0.750000000000001,0.0,4.242640687119285));
#176=VERTEX_POINT('',#175);
#177=CARTESIAN_POINT('',(0.750000000000001,1.776357E-015,8.485281374238570));
#178=DIRECTION('',(0.0,0.0,-1.0));
#179=VECTOR('',#178,4.242640687119285);
#180=LINE('',#177,#179);
#181=EDGE_CURVE('',#138,#176,#180,.T.);
#182=ORIENTED_EDGE('',*,*,#181,.T.);
#183=CARTESIAN_POINT('',(-0.749999999999999,0.0,4.242640687119285));
#184=VERTEX_POINT('',#183);
#185=CARTESIAN_POINT('',(-0.749999999999999,0.0,4.242640687119285));
#186=DIRECTION('',(1.0,0.0,0.0));
#187=VECTOR('',#186,1.500000000000000);
#188=LINE('',#185,#187);
#189=EDGE_CURVE('',#184,#176,#188,.T.);
#190=ORIENTED_EDGE('',*,*,#189,.F.);
#191=CARTESIAN_POINT('',(-0.749999999999999,0.0,4.242640687119285));
#192=DIRECTION('',(0.0,0.0,1.0));
#193=VECTOR('',#192,4.242640687119285);
#194=LINE('',#191,#193);
#195=EDGE_CURVE('',#184,#146,#194,.T.);
#196=ORIENTED_EDGE('',*,*,#195,.T.);
#197=ORIENTED_EDGE('',*,*,#151,.T.);
#198=EDGE_LOOP('',(#182,#190,#196,#197));
#199=FACE_OUTER_BOUND('',#198,.T.);
#200=ADVANCED_FACE('',(#199),#174,.T.);
#201=CARTESIAN_POINT('',(-0.749999999999999,0.0,4.242640687119285));
#202=DIRECTION('',(-2.668171E-017,0.707106781186547,-0.707106781186548));
#203=DIRECTION('',(-1.0,0.0,0.0));
#204=AXIS2_PLACEMENT_3D('',#201,#202,#203);
#205=PLANE('',#204);
#206=CARTESIAN_POINT('',(0.750000000000000,-4.242640687119286,9.420555E-016));
#207=VERTEX_POINT('',#206);
#208=CARTESIAN_POINT('',(0.750000000000001,0.0,4.242640687119285));
#209=DIRECTION('',(-1.480297E-016,-0.707106781186548,-0.707106781186547));
#210=VECTOR('',#209,5.999999999999999);
#211=LINE('',#208,#210);
#212=EDGE_CURVE('',#176,#207,#211,.T.);
#213=ORIENTED_EDGE('',*,*,#212,.T.);
#214=CARTESIAN_POINT('',(-0.750000000000000,-4.242640687119286,9.420555E-016));
#215=VERTEX_POINT('',#214);
#216=CARTESIAN_POINT('',(-0.750000000000000,-4.242640687119286,9.420555E-016));
#217=DIRECTION('',(1.0,0.0,0.0));
#218=VECTOR('',#217,1.500000000000000);
#219=LINE('',#216,#218);
#220=EDGE_CURVE('',#215,#207,#219,.T.);
#221=ORIENTED_EDGE('',*,*,#220,.F.);
#222=CARTESIAN_POINT('',(-0.750000000000000,-4.242640687119286,9.420555E-016));
#223=DIRECTION('',(1.480297E-016,0.707106781186548,0.707106781186547));
#224=VECTOR('',#223,5.999999999999999);
#225=LINE('',#222,#224);
#226=EDGE_CURVE('',#215,#184,#225,.T.);
#227=ORIENTED_EDGE('',*,*,#226,.T.);
#228=ORIENTED_EDGE('',*,*,#189,.T.);
#229=EDGE_LOOP('',(#213,#221,#227,#228));
#230=FACE_OUTER_BOUND('',#229,.T.);
#231=ADVANCED_FACE('',(#230),#205,.T.);
#232=CARTESIAN_POINT('',(-0.750000000000000,-4.242640687119286,9.420555E-016));
#233=DIRECTION('',(0.0,0.0,-1.0));
#234=DIRECTION('',(-1.0,0.0,0.0));
#235=AXIS2_PLACEMENT_3D('',#232,#233,#234);
#236=PLANE('',#235);
#237=CARTESIAN_POINT('',(0.750000000000000,-4.242640687119286,9.420555E-016));
#238=DIRECTION('',(0.0,-1.0,0.0));
#239=VECTOR('',#238,4.242640687119286);
#240=LINE('',#237,#239);
#241=EDGE_CURVE('',#207,#136,#240,.T.);
#242=ORIENTED_EDGE('',*,*,#241,.T.);
#243=ORIENTED_EDGE('',*,*,#165,.F.);
#244=CARTESIAN_POINT('',(-0.750000000000000,-8.485281374238571,2.274323E-015));
#245=DIRECTION('',(0.0,1.0,0.0));
#246=VECTOR('',#245,4.242640687119286);
#247=LINE('',#244,#246);
#248=EDGE_CURVE('',#154,#215,#247,.T.);
#249=ORIENTED_EDGE('',*,*,#248,.T.);
#250=ORIENTED_EDGE('',*,*,#220,.T.);
#251=EDGE_LOOP('',(#242,#243,#249,#250));
#252=FACE_OUTER_BOUND('',#251,.T.);
#253=ADVANCED_FACE('',(#252),#236,.T.);
#254=CARTESIAN_POINT('',(-0.750000000000000,-3.181980515339465,3.181980515339465));
#255=DIRECTION('',(-1.0,0.0,0.0));
#256=DIRECTION('',(0.0,-0.707106781186547,0.707106781186548));
#257=AXIS2_PLACEMENT_3D('',#254,#255,#256);
#258=PLANE('',#257);
#259=ORIENTED_EDGE('',*,*,#248,.F.);
#260=ORIENTED_EDGE('',*,*,#159,.F.);
#261=ORIENTED_EDGE('',*,*,#195,.F.);
#262=ORIENTED_EDGE('',*,*,#226,.F.);
#263=EDGE_LOOP('',(#259,#260,#261,#262));
#264=FACE_OUTER_BOUND('',#263,.T.);
#265=ADVANCED_FACE('',(#264),#258,.T.);
#266=CARTESIAN_POINT('',(0.749999999999999,-8.485281374238571,2.274323E-015));
#267=DIRECTION('',(-1.0,0.0,0.0));
#268=DIRECTION('',(0.0,-0.707106781186547,0.707106781186548));
#269=AXIS2_PLACEMENT_3D('',#266,#267,#268);
#270=PLANE('',#269);
#271=ORIENTED_EDGE('',*,*,#143,.F.);
#272=ORIENTED_EDGE('',*,*,#241,.F.);
#273=ORIENTED_EDGE('',*,*,#212,.F.);
#274=ORIENTED_EDGE('',*,*,#181,.F.);
#275=EDGE_LOOP('',(#271,#272,#273,#274));
#276=FACE_OUTER_BOUND('',#275,.T.);
#277=ADVANCED_FACE('',(#276),#270,.F.);
#278=CLOSED_SHELL('',(#169,#200,#231,#253,#265,#277));
#279=MANIFOLD_SOLID_BREP('2E2',#278);
#280=ADVANCED_BREP_SHAPE_REPRESENTATION('ABSR1',(#279),#33);
#281=SHAPE_REPRESENTATION_RELATIONSHIP('SRRPL1',' ',#280,#127);
ENDSEC;
END-ISO-10303-21;
