ISO-10303-21;
HEADER;
/****************************************************************
 * Generated by software with PDE/Lib inside                    *
 * PDE/Lib Version 3.2.2, created Thu Mar 23, 2000 at 18:38:49  *
 * International Technegroup Inc. (www.iti-oh.com)              *
 ****************************************************************/
FILE_DESCRIPTION((''),'2;1');
FILE_NAME('15JP4532.stp','2006-03-13T15:29:54',('Shawn Mantel'),('Faztek, LLC'),'Mechanical Desktop 2005','Mechanical Desktop 2005',', , ');
FILE_SCHEMA(('CONFIG_CONTROL_DESIGN'));
ENDSEC;
DATA;
#8=(NAMED_UNIT(*)PLANE_ANGLE_UNIT()SI_UNIT($,.RADIAN.));
#9=DIMENSIONAL_EXPONENTS(0.0,0.0,0.0,0.0,0.0,0.0,0.0);
#10=PLANE_ANGLE_MEASURE_WITH_UNIT(PLANE_ANGLE_MEASURE(0.017453292500000),#8);
#14=(CONVERSION_BASED_UNIT('DEGREE',#10)NAMED_UNIT(#9)PLANE_ANGLE_UNIT());
#18=(NAMED_UNIT(*)SI_UNIT($,.STERADIAN.)SOLID_ANGLE_UNIT());
#20=DIMENSIONAL_EXPONENTS(1.0,0.0,0.0,0.0,0.0,0.0,0.0);
#24=(LENGTH_UNIT()NAMED_UNIT(*)SI_UNIT(.MILLI.,.METRE.));
#25=LENGTH_MEASURE_WITH_UNIT(LENGTH_MEASURE(25.399999999999999),#24);
#27=(CONVERSION_BASED_UNIT('INCH',#25)LENGTH_UNIT()NAMED_UNIT(#20));
#28=UNCERTAINTY_MEASURE_WITH_UNIT(LENGTH_MEASURE(0.000001000000000),#27,'DISTANCE_ACCURACY_VALUE','');
#33=(GEOMETRIC_REPRESENTATION_CONTEXT(3)GLOBAL_UNCERTAINTY_ASSIGNED_CONTEXT((#28))GLOBAL_UNIT_ASSIGNED_CONTEXT((#14,#18,#27))REPRESENTATION_CONTEXT('None','None'));
#34=APPLICATION_CONTEXT('CONFIGURATION CONTROLLED 3D DESIGNS OF MECHANICAL PARTS AND ASSEMBLIES');
#35=APPLICATION_PROTOCOL_DEFINITION('INTERNATIONAL STANDARD','config_control_design',1995,#34);
#36=MECHANICAL_CONTEXT('3D Mechanical Parts',#34,'mechanical');
#37=PRODUCT('Product','Product',' ',(#36));
#38=PRODUCT_RELATED_PRODUCT_CATEGORY('detail',$,(#37));
#39=PRODUCT_CATEGORY('part',$);
#40=PRODUCT_CATEGORY_RELATIONSHIP('None','None',#39,#38);
#41=PERSON('1','Design','Joe',$,$,$);
#42=ORGANIZATION($,'None','None');
#43=PERSON_AND_ORGANIZATION(#41,#42);
#44=PERSON_AND_ORGANIZATION_ROLE('design_owner');
#45=CC_DESIGN_PERSON_AND_ORGANIZATION_ASSIGNMENT(#43,#44,(#37));
#46=PRODUCT_DEFINITION_FORMATION_WITH_SPECIFIED_SOURCE('None','None',#37,.NOT_KNOWN.);
#47=PERSON('2','Creator','Joe',$,$,$);
#48=ORGANIZATION($,'None','None');
#49=PERSON_AND_ORGANIZATION(#47,#48);
#50=PERSON_AND_ORGANIZATION_ROLE('creator');
#51=CC_DESIGN_PERSON_AND_ORGANIZATION_ASSIGNMENT(#49,#50,(#46));
#52=PERSON('3','Supplier','Joe',$,$,$);
#53=ORGANIZATION($,'None','None');
#54=PERSON_AND_ORGANIZATION(#52,#53);
#55=PERSON_AND_ORGANIZATION_ROLE('design_supplier');
#56=CC_DESIGN_PERSON_AND_ORGANIZATION_ASSIGNMENT(#54,#55,(#46));
#57=APPROVAL_STATUS('approved');
#58=APPROVAL(#57,'None');
#59=PERSON('4','Approver','Joe',$,$,$);
#60=ORGANIZATION($,'None','None');
#61=PERSON_AND_ORGANIZATION(#59,#60);
#62=APPROVAL_ROLE('approver');
#63=APPROVAL_PERSON_ORGANIZATION(#61,#58,#62);
#64=COORDINATED_UNIVERSAL_TIME_OFFSET(8,$,.BEHIND.);
#65=CALENDAR_DATE(1996,29,5);
#66=LOCAL_TIME(12,0,0.0,#64);
#67=DATE_AND_TIME(#65,#66);
#68=APPROVAL_DATE_TIME(#67,#58);
#69=CC_DESIGN_APPROVAL(#58,(#46));
#70=SECURITY_CLASSIFICATION_LEVEL('unclassified');
#71=SECURITY_CLASSIFICATION('security','None',#70);
#72=CC_DESIGN_SECURITY_CLASSIFICATION(#71,(#46));
#73=APPROVAL_STATUS('approved');
#74=APPROVAL(#73,'None');
#75=PERSON('5','Approver','Joe',$,$,$);
#76=ORGANIZATION($,'None','None');
#77=PERSON_AND_ORGANIZATION(#75,#76);
#78=APPROVAL_ROLE('approver');
#79=APPROVAL_PERSON_ORGANIZATION(#77,#74,#78);
#80=COORDINATED_UNIVERSAL_TIME_OFFSET(8,$,.BEHIND.);
#81=CALENDAR_DATE(1996,29,5);
#82=LOCAL_TIME(12,0,0.0,#80);
#83=DATE_AND_TIME(#81,#82);
#84=APPROVAL_DATE_TIME(#83,#74);
#85=CC_DESIGN_APPROVAL(#74,(#71));
#86=PERSON('6','Classifier','Joe',$,$,$);
#87=ORGANIZATION($,'None','None');
#88=PERSON_AND_ORGANIZATION(#86,#87);
#89=PERSON_AND_ORGANIZATION_ROLE('classification_officer');
#90=CC_DESIGN_PERSON_AND_ORGANIZATION_ASSIGNMENT(#88,#89,(#71));
#91=COORDINATED_UNIVERSAL_TIME_OFFSET(8,$,.BEHIND.);
#92=CALENDAR_DATE(1996,29,5);
#93=LOCAL_TIME(12,0,0.0,#91);
#94=DATE_AND_TIME(#92,#93);
#95=DATE_TIME_ROLE('classification_date');
#96=CC_DESIGN_DATE_AND_TIME_ASSIGNMENT(#94,#95,(#71));
#97=DESIGN_CONTEXT('Design Context',#34,'design');
#98=PRODUCT_DEFINITION('None','None',#46,#97);
#99=PERSON('7','Creator','Joe',$,$,$);
#100=ORGANIZATION($,'None','None');
#101=PERSON_AND_ORGANIZATION(#99,#100);
#102=PERSON_AND_ORGANIZATION_ROLE('creator');
#103=CC_DESIGN_PERSON_AND_ORGANIZATION_ASSIGNMENT(#101,#102,(#98));
#104=COORDINATED_UNIVERSAL_TIME_OFFSET(8,$,.BEHIND.);
#105=CALENDAR_DATE(1996,29,5);
#106=LOCAL_TIME(12,0,0.0,#104);
#107=DATE_AND_TIME(#105,#106);
#108=DATE_TIME_ROLE('creation_date');
#109=CC_DESIGN_DATE_AND_TIME_ASSIGNMENT(#107,#108,(#98));
#110=APPROVAL_STATUS('approved');
#111=APPROVAL(#110,'None');
#112=PERSON('8','Approver','Joe',$,$,$);
#113=ORGANIZATION($,'None','None');
#114=PERSON_AND_ORGANIZATION(#112,#113);
#115=APPROVAL_ROLE('approver');
#116=APPROVAL_PERSON_ORGANIZATION(#114,#111,#115);
#117=COORDINATED_UNIVERSAL_TIME_OFFSET(8,$,.BEHIND.);
#118=CALENDAR_DATE(1996,29,5);
#119=LOCAL_TIME(12,0,0.0,#117);
#120=DATE_AND_TIME(#118,#119);
#121=APPROVAL_DATE_TIME(#120,#111);
#122=CC_DESIGN_APPROVAL(#111,(#98));
#123=CARTESIAN_POINT('NONE',(0.0,0.0,0.0));
#124=DIRECTION('NONE',(0.0,0.0,1.0));
#125=DIRECTION('NONE',(1.0,0.0,0.0));
#126=AXIS2_PLACEMENT_3D('NONE',#123,#124,#125);
#127=SHAPE_REPRESENTATION('SR1',(#126),#33);
#128=PRODUCT_DEFINITION_SHAPE('PDS1','Test Part',#98);
#129=SHAPE_DEFINITION_REPRESENTATION(#128,#127);
#130=CARTESIAN_POINT('',(0.750000000000000,2.799038105676655,0.0));
#131=DIRECTION('',(1.922963E-016,-1.110223E-016,1.0));
#132=DIRECTION('',(0.500000000000000,0.866025403784438,0.0));
#133=AXIS2_PLACEMENT_3D('',#130,#131,#132);
#134=CYLINDRICAL_SURFACE('',#133,0.171000000000000);
#135=CARTESIAN_POINT('',(0.835499999999996,2.947128449723793,0.250000000000001));
#136=VERTEX_POINT('',#135);
#137=CARTESIAN_POINT('',(0.835499999999996,2.947128449723793,8.881784E-016));
#138=VERTEX_POINT('',#137);
#139=CARTESIAN_POINT('',(0.835499999999996,2.947128449723793,0.250000000000001));
#140=DIRECTION('',(0.0,0.0,-1.0));
#141=VECTOR('',#140,0.250000000000000);
#142=LINE('',#139,#141);
#143=EDGE_CURVE('',#136,#138,#142,.T.);
#144=ORIENTED_EDGE('',*,*,#143,.F.);
#145=CARTESIAN_POINT('',(0.664500000000000,2.650947761629516,0.250000000000000));
#146=VERTEX_POINT('',#145);
#147=CARTESIAN_POINT('',(0.750000000000000,2.799038105676655,0.250000000000000));
#148=DIRECTION('',(0.0,0.0,-1.000000000000000));
#149=DIRECTION('',(0.500000000000000,0.866025403784438,0.0));
#150=AXIS2_PLACEMENT_3D('',#147,#148,#149);
#151=CIRCLE('',#150,0.171000000000000);
#152=EDGE_CURVE('',#146,#136,#151,.T.);
#153=ORIENTED_EDGE('',*,*,#152,.F.);
#154=CARTESIAN_POINT('',(0.664500000000000,2.650947761629516,1.096089E-017));
#155=VERTEX_POINT('',#154);
#156=CARTESIAN_POINT('',(0.664500000000000,2.650947761629516,1.096089E-017));
#157=DIRECTION('',(0.0,0.0,1.0));
#158=VECTOR('',#157,0.250000000000000);
#159=LINE('',#156,#158);
#160=EDGE_CURVE('',#155,#146,#159,.T.);
#161=ORIENTED_EDGE('',*,*,#160,.F.);
#162=CARTESIAN_POINT('',(0.750000000000000,2.799038105676655,0.0));
#163=DIRECTION('',(0.0,0.0,1.000000000000000));
#164=DIRECTION('',(0.500000000000000,0.866025403784438,0.0));
#165=AXIS2_PLACEMENT_3D('',#162,#163,#164);
#166=CIRCLE('',#165,0.171000000000000);
#167=EDGE_CURVE('',#138,#155,#166,.T.);
#168=ORIENTED_EDGE('',*,*,#167,.F.);
#169=EDGE_LOOP('',(#144,#153,#161,#168));
#170=FACE_OUTER_BOUND('',#169,.T.);
#171=ADVANCED_FACE('',(#170),#134,.F.);
#172=CARTESIAN_POINT('',(0.0,1.499999999999997,0.0));
#173=DIRECTION('',(1.922963E-016,-1.110223E-016,1.0));
#174=DIRECTION('',(0.500000000000000,0.866025403784438,0.0));
#175=AXIS2_PLACEMENT_3D('',#172,#173,#174);
#176=CYLINDRICAL_SURFACE('',#175,0.171000000000000);
#177=CARTESIAN_POINT('',(0.085499999999996,1.648090344047135,0.250000000000000));
#178=VERTEX_POINT('',#177);
#179=CARTESIAN_POINT('',(0.085499999999996,1.648090344047135,0.0));
#180=VERTEX_POINT('',#179);
#181=CARTESIAN_POINT('',(0.085499999999996,1.648090344047135,0.250000000000000));
#182=DIRECTION('',(0.0,0.0,-1.0));
#183=VECTOR('',#182,0.250000000000000);
#184=LINE('',#181,#183);
#185=EDGE_CURVE('',#178,#180,#184,.T.);
#186=ORIENTED_EDGE('',*,*,#185,.F.);
#187=CARTESIAN_POINT('',(-0.085500000000000,1.351909655952858,0.250000000000000));
#188=VERTEX_POINT('',#187);
#189=CARTESIAN_POINT('',(0.0,1.499999999999997,0.250000000000000));
#190=DIRECTION('',(0.0,0.0,-1.000000000000000));
#191=DIRECTION('',(0.500000000000000,0.866025403784438,0.0));
#192=AXIS2_PLACEMENT_3D('',#189,#190,#191);
#193=CIRCLE('',#192,0.171000000000000);
#194=EDGE_CURVE('',#188,#178,#193,.T.);
#195=ORIENTED_EDGE('',*,*,#194,.F.);
#196=CARTESIAN_POINT('',(-0.085500000000000,1.351909655952858,1.096089E-017));
#197=VERTEX_POINT('',#196);
#198=CARTESIAN_POINT('',(-0.085500000000000,1.351909655952858,1.096089E-017));
#199=DIRECTION('',(0.0,0.0,1.0));
#200=VECTOR('',#199,0.250000000000000);
#201=LINE('',#198,#200);
#202=EDGE_CURVE('',#197,#188,#201,.T.);
#203=ORIENTED_EDGE('',*,*,#202,.F.);
#204=CARTESIAN_POINT('',(0.0,1.499999999999997,0.0));
#205=DIRECTION('',(0.0,0.0,1.000000000000000));
#206=DIRECTION('',(0.500000000000000,0.866025403784438,0.0));
#207=AXIS2_PLACEMENT_3D('',#204,#205,#206);
#208=CIRCLE('',#207,0.171000000000000);
#209=EDGE_CURVE('',#180,#197,#208,.T.);
#210=ORIENTED_EDGE('',*,*,#209,.F.);
#211=EDGE_LOOP('',(#186,#195,#203,#210));
#212=FACE_OUTER_BOUND('',#211,.T.);
#213=ADVANCED_FACE('',(#212),#176,.F.);
#214=CARTESIAN_POINT('',(0.0,0.0,8.881784E-016));
#215=DIRECTION('',(0.0,-2.220446E-016,1.0));
#216=DIRECTION('',(1.0,0.0,0.0));
#217=AXIS2_PLACEMENT_3D('',#214,#215,#216);
#218=CYLINDRICAL_SURFACE('',#217,0.171000000000000);
#219=CARTESIAN_POINT('',(0.170999999999999,0.0,0.250000000000001));
#220=VERTEX_POINT('',#219);
#221=CARTESIAN_POINT('',(0.170999999999999,0.0,8.881784E-016));
#222=VERTEX_POINT('',#221);
#223=CARTESIAN_POINT('',(0.170999999999999,0.0,0.250000000000001));
#224=DIRECTION('',(0.0,0.0,-1.0));
#225=VECTOR('',#224,0.250000000000000);
#226=LINE('',#223,#225);
#227=EDGE_CURVE('',#220,#222,#226,.T.);
#228=ORIENTED_EDGE('',*,*,#227,.F.);
#229=CARTESIAN_POINT('',(-0.171000000000000,-3.457038E-017,0.250000000000001));
#230=VERTEX_POINT('',#229);
#231=CARTESIAN_POINT('',(0.0,0.0,0.250000000000001));
#232=DIRECTION('',(0.0,0.0,-1.0));
#233=DIRECTION('',(1.0,0.0,0.0));
#234=AXIS2_PLACEMENT_3D('',#231,#232,#233);
#235=CIRCLE('',#234,0.171000000000000);
#236=EDGE_CURVE('',#230,#220,#235,.T.);
#237=ORIENTED_EDGE('',*,*,#236,.F.);
#238=CARTESIAN_POINT('',(-0.171000000000000,2.094077E-017,-2.919478E-033));
#239=VERTEX_POINT('',#238);
#240=CARTESIAN_POINT('',(-0.171000000000000,2.094077E-017,-2.919478E-033));
#241=DIRECTION('',(0.0,0.0,1.0));
#242=VECTOR('',#241,0.250000000000001);
#243=LINE('',#240,#242);
#244=EDGE_CURVE('',#239,#230,#243,.T.);
#245=ORIENTED_EDGE('',*,*,#244,.F.);
#246=CARTESIAN_POINT('',(0.0,0.0,0.0));
#247=DIRECTION('',(0.0,0.0,1.0));
#248=DIRECTION('',(1.0,0.0,0.0));
#249=AXIS2_PLACEMENT_3D('',#246,#247,#248);
#250=CIRCLE('',#249,0.171000000000000);
#251=EDGE_CURVE('',#222,#239,#250,.T.);
#252=ORIENTED_EDGE('',*,*,#251,.F.);
#253=EDGE_LOOP('',(#228,#237,#245,#252));
#254=FACE_OUTER_BOUND('',#253,.T.);
#255=ADVANCED_FACE('',(#254),#218,.F.);
#256=CARTESIAN_POINT('',(1.500000000000000,0.0,8.881784E-016));
#257=DIRECTION('',(0.0,-2.220446E-016,1.0));
#258=DIRECTION('',(1.0,0.0,0.0));
#259=AXIS2_PLACEMENT_3D('',#256,#257,#258);
#260=CYLINDRICAL_SURFACE('',#259,0.171000000000000);
#261=CARTESIAN_POINT('',(1.670999999999998,0.0,0.250000000000001));
#262=VERTEX_POINT('',#261);
#263=CARTESIAN_POINT('',(1.670999999999998,0.0,8.881784E-016));
#264=VERTEX_POINT('',#263);
#265=CARTESIAN_POINT('',(1.670999999999998,0.0,0.250000000000001));
#266=DIRECTION('',(0.0,0.0,-1.0));
#267=VECTOR('',#266,0.250000000000000);
#268=LINE('',#265,#267);
#269=EDGE_CURVE('',#262,#264,#268,.T.);
#270=ORIENTED_EDGE('',*,*,#269,.F.);
#271=CARTESIAN_POINT('',(1.329000000000000,-3.457038E-017,0.250000000000001));
#272=VERTEX_POINT('',#271);
#273=CARTESIAN_POINT('',(1.500000000000000,0.0,0.250000000000001));
#274=DIRECTION('',(0.0,0.0,-1.0));
#275=DIRECTION('',(1.0,0.0,0.0));
#276=AXIS2_PLACEMENT_3D('',#273,#274,#275);
#277=CIRCLE('',#276,0.171000000000000);
#278=EDGE_CURVE('',#272,#262,#277,.T.);
#279=ORIENTED_EDGE('',*,*,#278,.F.);
#280=CARTESIAN_POINT('',(1.329000000000000,2.094077E-017,-2.919478E-033));
#281=VERTEX_POINT('',#280);
#282=CARTESIAN_POINT('',(1.329000000000000,2.094077E-017,-2.919478E-033));
#283=DIRECTION('',(0.0,0.0,1.0));
#284=VECTOR('',#283,0.250000000000001);
#285=LINE('',#282,#284);
#286=EDGE_CURVE('',#281,#272,#285,.T.);
#287=ORIENTED_EDGE('',*,*,#286,.F.);
#288=CARTESIAN_POINT('',(1.500000000000000,0.0,0.0));
#289=DIRECTION('',(0.0,0.0,1.0));
#290=DIRECTION('',(1.0,0.0,0.0));
#291=AXIS2_PLACEMENT_3D('',#288,#289,#290);
#292=CIRCLE('',#291,0.171000000000000);
#293=EDGE_CURVE('',#264,#281,#292,.T.);
#294=ORIENTED_EDGE('',*,*,#293,.F.);
#295=EDGE_LOOP('',(#270,#279,#287,#294));
#296=FACE_OUTER_BOUND('',#295,.T.);
#297=ADVANCED_FACE('',(#296),#260,.F.);
#298=CARTESIAN_POINT('',(-0.750000000000000,-0.750000000000000,0.0));
#299=DIRECTION('',(0.0,1.0,0.0));
#300=DIRECTION('',(0.0,0.0,1.0));
#301=AXIS2_PLACEMENT_3D('',#298,#299,#300);
#302=PLANE('',#301);
#303=CARTESIAN_POINT('',(-0.750000000000000,-0.750000000000000,0.250000000000000));
#304=VERTEX_POINT('',#303);
#305=CARTESIAN_POINT('',(2.250000000000000,-0.750000000000000,0.250000000000000));
#306=VERTEX_POINT('',#305);
#307=CARTESIAN_POINT('',(-0.750000000000000,-0.750000000000000,0.250000000000000));
#308=DIRECTION('',(1.0,0.0,0.0));
#309=VECTOR('',#308,3.0);
#310=LINE('',#307,#309);
#311=EDGE_CURVE('',#304,#306,#310,.T.);
#312=ORIENTED_EDGE('',*,*,#311,.F.);
#313=CARTESIAN_POINT('',(-0.750000000000000,-0.750000000000000,0.0));
#314=VERTEX_POINT('',#313);
#315=CARTESIAN_POINT('',(-0.750000000000000,-0.750000000000000,0.0));
#316=DIRECTION('',(0.0,0.0,1.0));
#317=VECTOR('',#316,0.250000000000000);
#318=LINE('',#315,#317);
#319=EDGE_CURVE('',#314,#304,#318,.T.);
#320=ORIENTED_EDGE('',*,*,#319,.F.);
#321=CARTESIAN_POINT('',(2.250000000000000,-0.750000000000000,0.0));
#322=VERTEX_POINT('',#321);
#323=CARTESIAN_POINT('',(2.250000000000000,-0.750000000000000,0.0));
#324=DIRECTION('',(-1.0,0.0,0.0));
#325=VECTOR('',#324,3.0);
#326=LINE('',#323,#325);
#327=EDGE_CURVE('',#322,#314,#326,.T.);
#328=ORIENTED_EDGE('',*,*,#327,.F.);
#329=CARTESIAN_POINT('',(2.250000000000000,-0.750000000000000,0.250000000000000));
#330=DIRECTION('',(0.0,0.0,-1.0));
#331=VECTOR('',#330,0.250000000000000);
#332=LINE('',#329,#331);
#333=EDGE_CURVE('',#306,#322,#332,.T.);
#334=ORIENTED_EDGE('',*,*,#333,.F.);
#335=EDGE_LOOP('',(#312,#320,#328,#334));
#336=FACE_OUTER_BOUND('',#335,.T.);
#337=ADVANCED_FACE('',(#336),#302,.F.);
#338=CARTESIAN_POINT('',(2.249999999999998,3.750000000000001,8.881784E-016));
#339=DIRECTION('',(1.0,0.0,0.0));
#340=DIRECTION('',(0.0,-1.0,0.0));
#341=AXIS2_PLACEMENT_3D('',#338,#339,#340);
#342=PLANE('',#341);
#343=ORIENTED_EDGE('',*,*,#333,.T.);
#344=CARTESIAN_POINT('',(2.249999999999998,3.750000000000001,8.881784E-016));
#345=VERTEX_POINT('',#344);
#346=CARTESIAN_POINT('',(2.250000000000000,-0.750000000000000,0.0));
#347=DIRECTION('',(0.0,1.0,0.0));
#348=VECTOR('',#347,4.500000000000001);
#349=LINE('',#346,#348);
#350=EDGE_CURVE('',#322,#345,#349,.T.);
#351=ORIENTED_EDGE('',*,*,#350,.T.);
#352=CARTESIAN_POINT('',(2.249999999999998,3.750000000000001,0.250000000000002));
#353=VERTEX_POINT('',#352);
#354=CARTESIAN_POINT('',(2.249999999999998,3.750000000000001,8.881784E-016));
#355=DIRECTION('',(0.0,0.0,1.0));
#356=VECTOR('',#355,0.250000000000001);
#357=LINE('',#354,#356);
#358=EDGE_CURVE('',#345,#353,#357,.T.);
#359=ORIENTED_EDGE('',*,*,#358,.T.);
#360=CARTESIAN_POINT('',(2.249999999999998,3.750000000000001,0.250000000000002));
#361=DIRECTION('',(0.0,-1.0,0.0));
#362=VECTOR('',#361,4.500000000000001);
#363=LINE('',#360,#362);
#364=EDGE_CURVE('',#353,#306,#363,.T.);
#365=ORIENTED_EDGE('',*,*,#364,.T.);
#366=EDGE_LOOP('',(#343,#351,#359,#365));
#367=FACE_OUTER_BOUND('',#366,.T.);
#368=ADVANCED_FACE('',(#367),#342,.T.);
#369=CARTESIAN_POINT('',(0.750000000000000,0.750000000000001,0.0));
#370=DIRECTION('',(0.0,0.0,-1.0));
#371=DIRECTION('',(0.0,1.0,0.0));
#372=AXIS2_PLACEMENT_3D('',#369,#370,#371);
#373=PLANE('',#372);
#374=ORIENTED_EDGE('',*,*,#327,.T.);
#375=CARTESIAN_POINT('',(-0.750000000000000,1.599000000000001,8.881784E-016));
#376=VERTEX_POINT('',#375);
#377=CARTESIAN_POINT('',(-0.750000000000000,1.599000000000001,8.881784E-016));
#378=DIRECTION('',(0.0,-1.0,0.0));
#379=VECTOR('',#378,2.349000000000001);
#380=LINE('',#377,#379);
#381=EDGE_CURVE('',#376,#314,#380,.T.);
#382=ORIENTED_EDGE('',*,*,#381,.F.);
#383=CARTESIAN_POINT('',(0.500000000000000,3.750000000000001,8.881784E-016));
#384=VERTEX_POINT('',#383);
#385=CARTESIAN_POINT('',(0.500000000000000,3.750000000000001,8.881784E-016));
#386=DIRECTION('',(-0.502445789324287,-0.864608714269232,0.0));
#387=VECTOR('',#386,2.487830581048476);
#388=LINE('',#385,#387);
#389=EDGE_CURVE('',#384,#376,#388,.T.);
#390=ORIENTED_EDGE('',*,*,#389,.F.);
#391=CARTESIAN_POINT('',(2.249999999999998,3.750000000000001,8.881784E-016));
#392=DIRECTION('',(-1.0,0.0,0.0));
#393=VECTOR('',#392,1.749999999999998);
#394=LINE('',#391,#393);
#395=EDGE_CURVE('',#345,#384,#394,.T.);
#396=ORIENTED_EDGE('',*,*,#395,.F.);
#397=ORIENTED_EDGE('',*,*,#350,.F.);
#398=EDGE_LOOP('',(#374,#382,#390,#396,#397));
#399=FACE_OUTER_BOUND('',#398,.T.);
#400=ORIENTED_EDGE('',*,*,#167,.T.);
#401=CARTESIAN_POINT('',(0.750000000000000,2.799038105676655,0.0));
#402=DIRECTION('',(0.0,0.0,1.000000000000000));
#403=DIRECTION('',(0.500000000000000,0.866025403784438,0.0));
#404=AXIS2_PLACEMENT_3D('',#401,#402,#403);
#405=CIRCLE('',#404,0.171000000000000);
#406=EDGE_CURVE('',#155,#138,#405,.T.);
#407=ORIENTED_EDGE('',*,*,#406,.T.);
#408=EDGE_LOOP('',(#400,#407));
#409=FACE_BOUND('',#408,.T.);
#410=ORIENTED_EDGE('',*,*,#209,.T.);
#411=CARTESIAN_POINT('',(0.0,1.499999999999997,0.0));
#412=DIRECTION('',(0.0,0.0,1.000000000000000));
#413=DIRECTION('',(0.500000000000000,0.866025403784438,0.0));
#414=AXIS2_PLACEMENT_3D('',#411,#412,#413);
#415=CIRCLE('',#414,0.171000000000000);
#416=EDGE_CURVE('',#197,#180,#415,.T.);
#417=ORIENTED_EDGE('',*,*,#416,.T.);
#418=EDGE_LOOP('',(#410,#417));
#419=FACE_BOUND('',#418,.T.);
#420=ORIENTED_EDGE('',*,*,#251,.T.);
#421=CARTESIAN_POINT('',(0.0,0.0,0.0));
#422=DIRECTION('',(0.0,0.0,1.0));
#423=DIRECTION('',(1.0,0.0,0.0));
#424=AXIS2_PLACEMENT_3D('',#421,#422,#423);
#425=CIRCLE('',#424,0.171000000000000);
#426=EDGE_CURVE('',#239,#222,#425,.T.);
#427=ORIENTED_EDGE('',*,*,#426,.T.);
#428=EDGE_LOOP('',(#420,#427));
#429=FACE_BOUND('',#428,.T.);
#430=ORIENTED_EDGE('',*,*,#293,.T.);
#431=CARTESIAN_POINT('',(1.500000000000000,0.0,0.0));
#432=DIRECTION('',(0.0,0.0,1.0));
#433=DIRECTION('',(1.0,0.0,0.0));
#434=AXIS2_PLACEMENT_3D('',#431,#432,#433);
#435=CIRCLE('',#434,0.171000000000000);
#436=EDGE_CURVE('',#281,#264,#435,.T.);
#437=ORIENTED_EDGE('',*,*,#436,.T.);
#438=EDGE_LOOP('',(#430,#437));
#439=FACE_BOUND('',#438,.T.);
#440=ADVANCED_FACE('',(#399,#409,#419,#429,#439),#373,.T.);
#441=CARTESIAN_POINT('',(1.500000000000000,0.0,8.881784E-016));
#442=DIRECTION('',(0.0,-2.220446E-016,1.0));
#443=DIRECTION('',(1.0,0.0,0.0));
#444=AXIS2_PLACEMENT_3D('',#441,#442,#443);
#445=CYLINDRICAL_SURFACE('',#444,0.171000000000000);
#446=ORIENTED_EDGE('',*,*,#269,.T.);
#447=ORIENTED_EDGE('',*,*,#436,.F.);
#448=ORIENTED_EDGE('',*,*,#286,.T.);
#449=CARTESIAN_POINT('',(1.500000000000000,0.0,0.250000000000001));
#450=DIRECTION('',(0.0,0.0,-1.0));
#451=DIRECTION('',(1.0,0.0,0.0));
#452=AXIS2_PLACEMENT_3D('',#449,#450,#451);
#453=CIRCLE('',#452,0.171000000000000);
#454=EDGE_CURVE('',#262,#272,#453,.T.);
#455=ORIENTED_EDGE('',*,*,#454,.F.);
#456=EDGE_LOOP('',(#446,#447,#448,#455));
#457=FACE_OUTER_BOUND('',#456,.T.);
#458=ADVANCED_FACE('',(#457),#445,.F.);
#459=CARTESIAN_POINT('',(0.0,0.0,8.881784E-016));
#460=DIRECTION('',(0.0,-2.220446E-016,1.0));
#461=DIRECTION('',(1.0,0.0,0.0));
#462=AXIS2_PLACEMENT_3D('',#459,#460,#461);
#463=CYLINDRICAL_SURFACE('',#462,0.171000000000000);
#464=ORIENTED_EDGE('',*,*,#227,.T.);
#465=ORIENTED_EDGE('',*,*,#426,.F.);
#466=ORIENTED_EDGE('',*,*,#244,.T.);
#467=CARTESIAN_POINT('',(0.0,0.0,0.250000000000001));
#468=DIRECTION('',(0.0,0.0,-1.0));
#469=DIRECTION('',(1.0,0.0,0.0));
#470=AXIS2_PLACEMENT_3D('',#467,#468,#469);
#471=CIRCLE('',#470,0.171000000000000);
#472=EDGE_CURVE('',#220,#230,#471,.T.);
#473=ORIENTED_EDGE('',*,*,#472,.F.);
#474=EDGE_LOOP('',(#464,#465,#466,#473));
#475=FACE_OUTER_BOUND('',#474,.T.);
#476=ADVANCED_FACE('',(#475),#463,.F.);
#477=CARTESIAN_POINT('',(0.0,1.499999999999997,0.0));
#478=DIRECTION('',(1.922963E-016,-1.110223E-016,1.0));
#479=DIRECTION('',(0.500000000000000,0.866025403784438,0.0));
#480=AXIS2_PLACEMENT_3D('',#477,#478,#479);
#481=CYLINDRICAL_SURFACE('',#480,0.171000000000000);
#482=ORIENTED_EDGE('',*,*,#185,.T.);
#483=ORIENTED_EDGE('',*,*,#416,.F.);
#484=ORIENTED_EDGE('',*,*,#202,.T.);
#485=CARTESIAN_POINT('',(0.0,1.499999999999997,0.250000000000000));
#486=DIRECTION('',(0.0,0.0,-1.000000000000000));
#487=DIRECTION('',(0.500000000000000,0.866025403784438,0.0));
#488=AXIS2_PLACEMENT_3D('',#485,#486,#487);
#489=CIRCLE('',#488,0.171000000000000);
#490=EDGE_CURVE('',#178,#188,#489,.T.);
#491=ORIENTED_EDGE('',*,*,#490,.F.);
#492=EDGE_LOOP('',(#482,#483,#484,#491));
#493=FACE_OUTER_BOUND('',#492,.T.);
#494=ADVANCED_FACE('',(#493),#481,.F.);
#495=CARTESIAN_POINT('',(0.750000000000000,2.799038105676655,0.0));
#496=DIRECTION('',(1.922963E-016,-1.110223E-016,1.0));
#497=DIRECTION('',(0.500000000000000,0.866025403784438,0.0));
#498=AXIS2_PLACEMENT_3D('',#495,#496,#497);
#499=CYLINDRICAL_SURFACE('',#498,0.171000000000000);
#500=ORIENTED_EDGE('',*,*,#143,.T.);
#501=ORIENTED_EDGE('',*,*,#406,.F.);
#502=ORIENTED_EDGE('',*,*,#160,.T.);
#503=CARTESIAN_POINT('',(0.750000000000000,2.799038105676655,0.250000000000000));
#504=DIRECTION('',(0.0,0.0,-1.000000000000000));
#505=DIRECTION('',(0.500000000000000,0.866025403784438,0.0));
#506=AXIS2_PLACEMENT_3D('',#503,#504,#505);
#507=CIRCLE('',#506,0.171000000000000);
#508=EDGE_CURVE('',#136,#146,#507,.T.);
#509=ORIENTED_EDGE('',*,*,#508,.F.);
#510=EDGE_LOOP('',(#500,#501,#502,#509));
#511=FACE_OUTER_BOUND('',#510,.T.);
#512=ADVANCED_FACE('',(#511),#499,.F.);
#513=CARTESIAN_POINT('',(-0.125000000000000,2.674499999999999,8.881784E-016));
#514=DIRECTION('',(-0.864608714269232,0.502445789324287,1.115654E-016));
#515=DIRECTION('',(0.502445789324287,0.864608714269232,1.919817E-016));
#516=AXIS2_PLACEMENT_3D('',#513,#514,#515);
#517=PLANE('',#516);
#518=CARTESIAN_POINT('',(-0.750000000000000,1.599000000000001,0.250000000000001));
#519=VERTEX_POINT('',#518);
#520=CARTESIAN_POINT('',(0.500000000000000,3.750000000000001,0.250000000000001));
#521=VERTEX_POINT('',#520);
#522=CARTESIAN_POINT('',(-0.750000000000000,1.599000000000001,0.250000000000001));
#523=DIRECTION('',(0.502445789324287,0.864608714269232,0.0));
#524=VECTOR('',#523,2.487830581048476);
#525=LINE('',#522,#524);
#526=EDGE_CURVE('',#519,#521,#525,.T.);
#527=ORIENTED_EDGE('',*,*,#526,.T.);
#528=CARTESIAN_POINT('',(0.500000000000000,3.750000000000001,0.250000000000001));
#529=DIRECTION('',(0.0,0.0,-1.0));
#530=VECTOR('',#529,0.250000000000000);
#531=LINE('',#528,#530);
#532=EDGE_CURVE('',#521,#384,#531,.T.);
#533=ORIENTED_EDGE('',*,*,#532,.T.);
#534=ORIENTED_EDGE('',*,*,#389,.T.);
#535=CARTESIAN_POINT('',(-0.750000000000000,1.599000000000001,8.881784E-016));
#536=DIRECTION('',(0.0,0.0,1.0));
#537=VECTOR('',#536,0.250000000000000);
#538=LINE('',#535,#537);
#539=EDGE_CURVE('',#376,#519,#538,.T.);
#540=ORIENTED_EDGE('',*,*,#539,.T.);
#541=EDGE_LOOP('',(#527,#533,#534,#540));
#542=FACE_OUTER_BOUND('',#541,.T.);
#543=ADVANCED_FACE('',(#542),#517,.T.);
#544=CARTESIAN_POINT('',(-0.750000000000000,3.750000000000001,8.881784E-016));
#545=DIRECTION('',(0.0,1.0,0.0));
#546=DIRECTION('',(1.0,0.0,0.0));
#547=AXIS2_PLACEMENT_3D('',#544,#545,#546);
#548=PLANE('',#547);
#549=ORIENTED_EDGE('',*,*,#532,.F.);
#550=CARTESIAN_POINT('',(0.500000000000000,3.750000000000001,0.250000000000001));
#551=DIRECTION('',(1.0,0.0,0.0));
#552=VECTOR('',#551,1.749999999999998);
#553=LINE('',#550,#552);
#554=EDGE_CURVE('',#521,#353,#553,.T.);
#555=ORIENTED_EDGE('',*,*,#554,.T.);
#556=ORIENTED_EDGE('',*,*,#358,.F.);
#557=ORIENTED_EDGE('',*,*,#395,.T.);
#558=EDGE_LOOP('',(#549,#555,#556,#557));
#559=FACE_OUTER_BOUND('',#558,.T.);
#560=ADVANCED_FACE('',(#559),#548,.T.);
#561=CARTESIAN_POINT('',(-0.750000000000000,-2.250000000000000,0.0));
#562=DIRECTION('',(-1.0,0.0,0.0));
#563=DIRECTION('',(0.0,1.0,0.0));
#564=AXIS2_PLACEMENT_3D('',#561,#562,#563);
#565=PLANE('',#564);
#566=ORIENTED_EDGE('',*,*,#319,.T.);
#567=CARTESIAN_POINT('',(-0.750000000000000,-0.750000000000000,0.250000000000000));
#568=DIRECTION('',(0.0,1.0,0.0));
#569=VECTOR('',#568,2.349000000000001);
#570=LINE('',#567,#569);
#571=EDGE_CURVE('',#304,#519,#570,.T.);
#572=ORIENTED_EDGE('',*,*,#571,.T.);
#573=ORIENTED_EDGE('',*,*,#539,.F.);
#574=ORIENTED_EDGE('',*,*,#381,.T.);
#575=EDGE_LOOP('',(#566,#572,#573,#574));
#576=FACE_OUTER_BOUND('',#575,.T.);
#577=ADVANCED_FACE('',(#576),#565,.T.);
#578=CARTESIAN_POINT('',(-0.750000000000000,-2.250000000000000,0.250000000000000));
#579=DIRECTION('',(0.0,0.0,-1.0));
#580=DIRECTION('',(0.0,1.0,0.0));
#581=AXIS2_PLACEMENT_3D('',#578,#579,#580);
#582=PLANE('',#581);
#583=ORIENTED_EDGE('',*,*,#311,.T.);
#584=ORIENTED_EDGE('',*,*,#364,.F.);
#585=ORIENTED_EDGE('',*,*,#554,.F.);
#586=ORIENTED_EDGE('',*,*,#526,.F.);
#587=ORIENTED_EDGE('',*,*,#571,.F.);
#588=EDGE_LOOP('',(#583,#584,#585,#586,#587));
#589=FACE_OUTER_BOUND('',#588,.T.);
#590=ORIENTED_EDGE('',*,*,#454,.T.);
#591=ORIENTED_EDGE('',*,*,#278,.T.);
#592=EDGE_LOOP('',(#590,#591));
#593=FACE_BOUND('',#592,.T.);
#594=ORIENTED_EDGE('',*,*,#472,.T.);
#595=ORIENTED_EDGE('',*,*,#236,.T.);
#596=EDGE_LOOP('',(#594,#595));
#597=FACE_BOUND('',#596,.T.);
#598=ORIENTED_EDGE('',*,*,#490,.T.);
#599=ORIENTED_EDGE('',*,*,#194,.T.);
#600=EDGE_LOOP('',(#598,#599));
#601=FACE_BOUND('',#600,.T.);
#602=ORIENTED_EDGE('',*,*,#508,.T.);
#603=ORIENTED_EDGE('',*,*,#152,.T.);
#604=EDGE_LOOP('',(#602,#603));
#605=FACE_BOUND('',#604,.T.);
#606=ADVANCED_FACE('',(#589,#593,#597,#601,#605),#582,.F.);
#607=CLOSED_SHELL('',(#171,#213,#255,#297,#337,#368,#440,#458,#476,#494,#512,#543,#560,#577,#606));
#608=MANIFOLD_SOLID_BREP('2B',#607);
#609=ADVANCED_BREP_SHAPE_REPRESENTATION('ABSR1',(#608),#33);
#610=SHAPE_REPRESENTATION_RELATIONSHIP('SRRPL1',' ',#609,#127);
ENDSEC;
END-ISO-10303-21;
