ISO-10303-21;
HEADER;
/****************************************************************
 * Generated by software with PDE/Lib inside                    *
 * PDE/Lib Version 3.2.2, created Thu Mar 23, 2000 at 18:38:49  *
 * International Technegroup Inc. (www.iti-oh.com)              *
 ****************************************************************/
FILE_DESCRIPTION((''),'2;1');
FILE_NAME('15JP4527.stp','2006-03-13T15:30:16',('Shawn Mantel'),('Faztek, LLC'),'Mechanical Desktop 2005','Mechanical Desktop 2005',', , ');
FILE_SCHEMA(('CONFIG_CONTROL_DESIGN'));
ENDSEC;
DATA;
#8=(NAMED_UNIT(*)PLANE_ANGLE_UNIT()SI_UNIT($,.RADIAN.));
#9=DIMENSIONAL_EXPONENTS(0.0,0.0,0.0,0.0,0.0,0.0,0.0);
#10=PLANE_ANGLE_MEASURE_WITH_UNIT(PLANE_ANGLE_MEASURE(0.017453292500000),#8);
#14=(CONVERSION_BASED_UNIT('DEGREE',#10)NAMED_UNIT(#9)PLANE_ANGLE_UNIT());
#18=(NAMED_UNIT(*)SI_UNIT($,.STERADIAN.)SOLID_ANGLE_UNIT());
#20=DIMENSIONAL_EXPONENTS(1.0,0.0,0.0,0.0,0.0,0.0,0.0);
#24=(LENGTH_UNIT()NAMED_UNIT(*)SI_UNIT(.MILLI.,.METRE.));
#25=LENGTH_MEASURE_WITH_UNIT(LENGTH_MEASURE(25.399999999999999),#24);
#27=(CONVERSION_BASED_UNIT('INCH',#25)LENGTH_UNIT()NAMED_UNIT(#20));
#28=UNCERTAINTY_MEASURE_WITH_UNIT(LENGTH_MEASURE(0.000001000000000),#27,'DISTANCE_ACCURACY_VALUE','');
#33=(GEOMETRIC_REPRESENTATION_CONTEXT(3)GLOBAL_UNCERTAINTY_ASSIGNED_CONTEXT((#28))GLOBAL_UNIT_ASSIGNED_CONTEXT((#14,#18,#27))REPRESENTATION_CONTEXT('None','None'));
#34=APPLICATION_CONTEXT('CONFIGURATION CONTROLLED 3D DESIGNS OF MECHANICAL PARTS AND ASSEMBLIES');
#35=APPLICATION_PROTOCOL_DEFINITION('INTERNATIONAL STANDARD','config_control_design',1995,#34);
#36=MECHANICAL_CONTEXT('3D Mechanical Parts',#34,'mechanical');
#37=PRODUCT('Product','Product',' ',(#36));
#38=PRODUCT_RELATED_PRODUCT_CATEGORY('detail',$,(#37));
#39=PRODUCT_CATEGORY('part',$);
#40=PRODUCT_CATEGORY_RELATIONSHIP('None','None',#39,#38);
#41=PERSON('1','Design','Joe',$,$,$);
#42=ORGANIZATION($,'None','None');
#43=PERSON_AND_ORGANIZATION(#41,#42);
#44=PERSON_AND_ORGANIZATION_ROLE('design_owner');
#45=CC_DESIGN_PERSON_AND_ORGANIZATION_ASSIGNMENT(#43,#44,(#37));
#46=PRODUCT_DEFINITION_FORMATION_WITH_SPECIFIED_SOURCE('None','None',#37,.NOT_KNOWN.);
#47=PERSON('2','Creator','Joe',$,$,$);
#48=ORGANIZATION($,'None','None');
#49=PERSON_AND_ORGANIZATION(#47,#48);
#50=PERSON_AND_ORGANIZATION_ROLE('creator');
#51=CC_DESIGN_PERSON_AND_ORGANIZATION_ASSIGNMENT(#49,#50,(#46));
#52=PERSON('3','Supplier','Joe',$,$,$);
#53=ORGANIZATION($,'None','None');
#54=PERSON_AND_ORGANIZATION(#52,#53);
#55=PERSON_AND_ORGANIZATION_ROLE('design_supplier');
#56=CC_DESIGN_PERSON_AND_ORGANIZATION_ASSIGNMENT(#54,#55,(#46));
#57=APPROVAL_STATUS('approved');
#58=APPROVAL(#57,'None');
#59=PERSON('4','Approver','Joe',$,$,$);
#60=ORGANIZATION($,'None','None');
#61=PERSON_AND_ORGANIZATION(#59,#60);
#62=APPROVAL_ROLE('approver');
#63=APPROVAL_PERSON_ORGANIZATION(#61,#58,#62);
#64=COORDINATED_UNIVERSAL_TIME_OFFSET(8,$,.BEHIND.);
#65=CALENDAR_DATE(1996,29,5);
#66=LOCAL_TIME(12,0,0.0,#64);
#67=DATE_AND_TIME(#65,#66);
#68=APPROVAL_DATE_TIME(#67,#58);
#69=CC_DESIGN_APPROVAL(#58,(#46));
#70=SECURITY_CLASSIFICATION_LEVEL('unclassified');
#71=SECURITY_CLASSIFICATION('security','None',#70);
#72=CC_DESIGN_SECURITY_CLASSIFICATION(#71,(#46));
#73=APPROVAL_STATUS('approved');
#74=APPROVAL(#73,'None');
#75=PERSON('5','Approver','Joe',$,$,$);
#76=ORGANIZATION($,'None','None');
#77=PERSON_AND_ORGANIZATION(#75,#76);
#78=APPROVAL_ROLE('approver');
#79=APPROVAL_PERSON_ORGANIZATION(#77,#74,#78);
#80=COORDINATED_UNIVERSAL_TIME_OFFSET(8,$,.BEHIND.);
#81=CALENDAR_DATE(1996,29,5);
#82=LOCAL_TIME(12,0,0.0,#80);
#83=DATE_AND_TIME(#81,#82);
#84=APPROVAL_DATE_TIME(#83,#74);
#85=CC_DESIGN_APPROVAL(#74,(#71));
#86=PERSON('6','Classifier','Joe',$,$,$);
#87=ORGANIZATION($,'None','None');
#88=PERSON_AND_ORGANIZATION(#86,#87);
#89=PERSON_AND_ORGANIZATION_ROLE('classification_officer');
#90=CC_DESIGN_PERSON_AND_ORGANIZATION_ASSIGNMENT(#88,#89,(#71));
#91=COORDINATED_UNIVERSAL_TIME_OFFSET(8,$,.BEHIND.);
#92=CALENDAR_DATE(1996,29,5);
#93=LOCAL_TIME(12,0,0.0,#91);
#94=DATE_AND_TIME(#92,#93);
#95=DATE_TIME_ROLE('classification_date');
#96=CC_DESIGN_DATE_AND_TIME_ASSIGNMENT(#94,#95,(#71));
#97=DESIGN_CONTEXT('Design Context',#34,'design');
#98=PRODUCT_DEFINITION('None','None',#46,#97);
#99=PERSON('7','Creator','Joe',$,$,$);
#100=ORGANIZATION($,'None','None');
#101=PERSON_AND_ORGANIZATION(#99,#100);
#102=PERSON_AND_ORGANIZATION_ROLE('creator');
#103=CC_DESIGN_PERSON_AND_ORGANIZATION_ASSIGNMENT(#101,#102,(#98));
#104=COORDINATED_UNIVERSAL_TIME_OFFSET(8,$,.BEHIND.);
#105=CALENDAR_DATE(1996,29,5);
#106=LOCAL_TIME(12,0,0.0,#104);
#107=DATE_AND_TIME(#105,#106);
#108=DATE_TIME_ROLE('creation_date');
#109=CC_DESIGN_DATE_AND_TIME_ASSIGNMENT(#107,#108,(#98));
#110=APPROVAL_STATUS('approved');
#111=APPROVAL(#110,'None');
#112=PERSON('8','Approver','Joe',$,$,$);
#113=ORGANIZATION($,'None','None');
#114=PERSON_AND_ORGANIZATION(#112,#113);
#115=APPROVAL_ROLE('approver');
#116=APPROVAL_PERSON_ORGANIZATION(#114,#111,#115);
#117=COORDINATED_UNIVERSAL_TIME_OFFSET(8,$,.BEHIND.);
#118=CALENDAR_DATE(1996,29,5);
#119=LOCAL_TIME(12,0,0.0,#117);
#120=DATE_AND_TIME(#118,#119);
#121=APPROVAL_DATE_TIME(#120,#111);
#122=CC_DESIGN_APPROVAL(#111,(#98));
#123=CARTESIAN_POINT('NONE',(0.0,0.0,0.0));
#124=DIRECTION('NONE',(0.0,0.0,1.0));
#125=DIRECTION('NONE',(1.0,0.0,0.0));
#126=AXIS2_PLACEMENT_3D('NONE',#123,#124,#125);
#127=SHAPE_REPRESENTATION('SR1',(#126),#33);
#128=PRODUCT_DEFINITION_SHAPE('PDS1','Test Part',#98);
#129=SHAPE_DEFINITION_REPRESENTATION(#128,#127);
#130=CARTESIAN_POINT('',(1.429507477818434,0.000209345607974,0.0));
#131=DIRECTION('',(0.0,0.0,1.0));
#132=DIRECTION('',(1.0,0.0,0.0));
#133=AXIS2_PLACEMENT_3D('',#130,#131,#132);
#134=CYLINDRICAL_SURFACE('',#133,0.171000000000000);
#135=CARTESIAN_POINT('',(1.600507477818434,0.000209345607974,0.250000000000000));
#136=VERTEX_POINT('',#135);
#137=CARTESIAN_POINT('',(1.600507477818434,0.000209345607974,0.0));
#138=VERTEX_POINT('',#137);
#139=CARTESIAN_POINT('',(1.600507477818434,0.000209345607974,0.250000000000000));
#140=DIRECTION('',(0.0,0.0,-1.0));
#141=VECTOR('',#140,0.250000000000000);
#142=LINE('',#139,#141);
#143=EDGE_CURVE('',#136,#138,#142,.T.);
#144=ORIENTED_EDGE('',*,*,#143,.F.);
#145=CARTESIAN_POINT('',(1.258507477818434,0.000209345607974,0.250000000000000));
#146=VERTEX_POINT('',#145);
#147=CARTESIAN_POINT('',(1.429507477818434,0.000209345607974,0.250000000000000));
#148=DIRECTION('',(0.0,0.0,-1.0));
#149=DIRECTION('',(1.0,0.0,0.0));
#150=AXIS2_PLACEMENT_3D('',#147,#148,#149);
#151=CIRCLE('',#150,0.171000000000000);
#152=EDGE_CURVE('',#146,#136,#151,.T.);
#153=ORIENTED_EDGE('',*,*,#152,.F.);
#154=CARTESIAN_POINT('',(1.258507477818434,0.000209345607974,0.0));
#155=VERTEX_POINT('',#154);
#156=CARTESIAN_POINT('',(1.258507477818434,0.000209345607974,0.0));
#157=DIRECTION('',(0.0,0.0,1.0));
#158=VECTOR('',#157,0.250000000000000);
#159=LINE('',#156,#158);
#160=EDGE_CURVE('',#155,#146,#159,.T.);
#161=ORIENTED_EDGE('',*,*,#160,.F.);
#162=CARTESIAN_POINT('',(1.429507477818434,0.000209345607974,0.0));
#163=DIRECTION('',(0.0,0.0,1.0));
#164=DIRECTION('',(1.0,0.0,0.0));
#165=AXIS2_PLACEMENT_3D('',#162,#163,#164);
#166=CIRCLE('',#165,0.171000000000000);
#167=EDGE_CURVE('',#138,#155,#166,.T.);
#168=ORIENTED_EDGE('',*,*,#167,.F.);
#169=EDGE_LOOP('',(#144,#153,#161,#168));
#170=FACE_OUTER_BOUND('',#169,.T.);
#171=ADVANCED_FACE('',(#170),#134,.F.);
#172=CARTESIAN_POINT('',(0.679507477818434,1.500209345607974,0.0));
#173=DIRECTION('',(0.0,0.0,1.0));
#174=DIRECTION('',(1.0,0.0,0.0));
#175=AXIS2_PLACEMENT_3D('',#172,#173,#174);
#176=CYLINDRICAL_SURFACE('',#175,0.171000000000000);
#177=CARTESIAN_POINT('',(0.850507477818434,1.500209345607974,0.250000000000000));
#178=VERTEX_POINT('',#177);
#179=CARTESIAN_POINT('',(0.850507477818434,1.500209345607974,0.0));
#180=VERTEX_POINT('',#179);
#181=CARTESIAN_POINT('',(0.850507477818434,1.500209345607974,0.250000000000000));
#182=DIRECTION('',(0.0,0.0,-1.0));
#183=VECTOR('',#182,0.250000000000000);
#184=LINE('',#181,#183);
#185=EDGE_CURVE('',#178,#180,#184,.T.);
#186=ORIENTED_EDGE('',*,*,#185,.F.);
#187=CARTESIAN_POINT('',(0.508507477818434,1.500209345607974,0.250000000000000));
#188=VERTEX_POINT('',#187);
#189=CARTESIAN_POINT('',(0.679507477818434,1.500209345607974,0.250000000000000));
#190=DIRECTION('',(0.0,0.0,-1.0));
#191=DIRECTION('',(1.0,0.0,0.0));
#192=AXIS2_PLACEMENT_3D('',#189,#190,#191);
#193=CIRCLE('',#192,0.171000000000000);
#194=EDGE_CURVE('',#188,#178,#193,.T.);
#195=ORIENTED_EDGE('',*,*,#194,.F.);
#196=CARTESIAN_POINT('',(0.508507477818434,1.500209345607974,0.0));
#197=VERTEX_POINT('',#196);
#198=CARTESIAN_POINT('',(0.508507477818434,1.500209345607974,0.0));
#199=DIRECTION('',(0.0,0.0,1.0));
#200=VECTOR('',#199,0.250000000000000);
#201=LINE('',#198,#200);
#202=EDGE_CURVE('',#197,#188,#201,.T.);
#203=ORIENTED_EDGE('',*,*,#202,.F.);
#204=CARTESIAN_POINT('',(0.679507477818434,1.500209345607974,0.0));
#205=DIRECTION('',(0.0,0.0,1.0));
#206=DIRECTION('',(1.0,0.0,0.0));
#207=AXIS2_PLACEMENT_3D('',#204,#205,#206);
#208=CIRCLE('',#207,0.171000000000000);
#209=EDGE_CURVE('',#180,#197,#208,.T.);
#210=ORIENTED_EDGE('',*,*,#209,.F.);
#211=EDGE_LOOP('',(#186,#195,#203,#210));
#212=FACE_OUTER_BOUND('',#211,.T.);
#213=ADVANCED_FACE('',(#212),#176,.F.);
#214=CARTESIAN_POINT('',(0.679507477818434,3.000209345607974,0.0));
#215=DIRECTION('',(0.0,0.0,1.0));
#216=DIRECTION('',(1.0,0.0,0.0));
#217=AXIS2_PLACEMENT_3D('',#214,#215,#216);
#218=CYLINDRICAL_SURFACE('',#217,0.171000000000000);
#219=CARTESIAN_POINT('',(0.850507477818434,3.000209345607974,0.250000000000000));
#220=VERTEX_POINT('',#219);
#221=CARTESIAN_POINT('',(0.850507477818434,3.000209345607974,0.0));
#222=VERTEX_POINT('',#221);
#223=CARTESIAN_POINT('',(0.850507477818434,3.000209345607974,0.250000000000000));
#224=DIRECTION('',(0.0,0.0,-1.0));
#225=VECTOR('',#224,0.250000000000000);
#226=LINE('',#223,#225);
#227=EDGE_CURVE('',#220,#222,#226,.T.);
#228=ORIENTED_EDGE('',*,*,#227,.F.);
#229=CARTESIAN_POINT('',(0.508507477818434,3.000209345607974,0.250000000000000));
#230=VERTEX_POINT('',#229);
#231=CARTESIAN_POINT('',(0.679507477818434,3.000209345607974,0.250000000000000));
#232=DIRECTION('',(0.0,0.0,-1.0));
#233=DIRECTION('',(1.0,0.0,0.0));
#234=AXIS2_PLACEMENT_3D('',#231,#232,#233);
#235=CIRCLE('',#234,0.171000000000000);
#236=EDGE_CURVE('',#230,#220,#235,.T.);
#237=ORIENTED_EDGE('',*,*,#236,.F.);
#238=CARTESIAN_POINT('',(0.508507477818434,3.000209345607974,0.0));
#239=VERTEX_POINT('',#238);
#240=CARTESIAN_POINT('',(0.508507477818434,3.000209345607974,0.0));
#241=DIRECTION('',(0.0,0.0,1.0));
#242=VECTOR('',#241,0.250000000000000);
#243=LINE('',#240,#242);
#244=EDGE_CURVE('',#239,#230,#243,.T.);
#245=ORIENTED_EDGE('',*,*,#244,.F.);
#246=CARTESIAN_POINT('',(0.679507477818434,3.000209345607974,0.0));
#247=DIRECTION('',(0.0,0.0,1.0));
#248=DIRECTION('',(1.0,0.0,0.0));
#249=AXIS2_PLACEMENT_3D('',#246,#247,#248);
#250=CIRCLE('',#249,0.171000000000000);
#251=EDGE_CURVE('',#222,#239,#250,.T.);
#252=ORIENTED_EDGE('',*,*,#251,.F.);
#253=EDGE_LOOP('',(#228,#237,#245,#252));
#254=FACE_OUTER_BOUND('',#253,.T.);
#255=ADVANCED_FACE('',(#254),#218,.F.);
#256=CARTESIAN_POINT('',(-0.070492522181566,0.000209345607974,0.0));
#257=DIRECTION('',(0.0,0.0,1.0));
#258=DIRECTION('',(1.0,0.0,0.0));
#259=AXIS2_PLACEMENT_3D('',#256,#257,#258);
#260=CYLINDRICAL_SURFACE('',#259,0.171000000000000);
#261=CARTESIAN_POINT('',(0.100507477818434,0.000209345607974,0.250000000000000));
#262=VERTEX_POINT('',#261);
#263=CARTESIAN_POINT('',(0.100507477818434,0.000209345607974,0.0));
#264=VERTEX_POINT('',#263);
#265=CARTESIAN_POINT('',(0.100507477818434,0.000209345607974,0.250000000000000));
#266=DIRECTION('',(0.0,0.0,-1.0));
#267=VECTOR('',#266,0.250000000000000);
#268=LINE('',#265,#267);
#269=EDGE_CURVE('',#262,#264,#268,.T.);
#270=ORIENTED_EDGE('',*,*,#269,.F.);
#271=CARTESIAN_POINT('',(-0.241492522181566,0.000209345607974,0.250000000000000));
#272=VERTEX_POINT('',#271);
#273=CARTESIAN_POINT('',(-0.070492522181566,0.000209345607974,0.250000000000000));
#274=DIRECTION('',(0.0,0.0,-1.0));
#275=DIRECTION('',(1.0,0.0,0.0));
#276=AXIS2_PLACEMENT_3D('',#273,#274,#275);
#277=CIRCLE('',#276,0.171000000000000);
#278=EDGE_CURVE('',#272,#262,#277,.T.);
#279=ORIENTED_EDGE('',*,*,#278,.F.);
#280=CARTESIAN_POINT('',(-0.241492522181566,0.000209345607974,0.0));
#281=VERTEX_POINT('',#280);
#282=CARTESIAN_POINT('',(-0.241492522181566,0.000209345607974,0.0));
#283=DIRECTION('',(0.0,0.0,1.0));
#284=VECTOR('',#283,0.250000000000000);
#285=LINE('',#282,#284);
#286=EDGE_CURVE('',#281,#272,#285,.T.);
#287=ORIENTED_EDGE('',*,*,#286,.F.);
#288=CARTESIAN_POINT('',(-0.070492522181566,0.000209345607974,0.0));
#289=DIRECTION('',(0.0,0.0,1.0));
#290=DIRECTION('',(1.0,0.0,0.0));
#291=AXIS2_PLACEMENT_3D('',#288,#289,#290);
#292=CIRCLE('',#291,0.171000000000000);
#293=EDGE_CURVE('',#264,#281,#292,.T.);
#294=ORIENTED_EDGE('',*,*,#293,.F.);
#295=EDGE_LOOP('',(#270,#279,#287,#294));
#296=FACE_OUTER_BOUND('',#295,.T.);
#297=ADVANCED_FACE('',(#296),#260,.F.);
#298=CARTESIAN_POINT('',(-0.070492522181566,0.000209345607974,0.0));
#299=DIRECTION('',(0.0,0.0,1.0));
#300=DIRECTION('',(1.0,0.0,0.0));
#301=AXIS2_PLACEMENT_3D('',#298,#299,#300);
#302=CYLINDRICAL_SURFACE('',#301,0.171000000000000);
#303=ORIENTED_EDGE('',*,*,#269,.T.);
#304=CARTESIAN_POINT('',(-0.070492522181566,0.000209345607974,0.0));
#305=DIRECTION('',(0.0,0.0,1.0));
#306=DIRECTION('',(1.0,0.0,0.0));
#307=AXIS2_PLACEMENT_3D('',#304,#305,#306);
#308=CIRCLE('',#307,0.171000000000000);
#309=EDGE_CURVE('',#281,#264,#308,.T.);
#310=ORIENTED_EDGE('',*,*,#309,.F.);
#311=ORIENTED_EDGE('',*,*,#286,.T.);
#312=CARTESIAN_POINT('',(-0.070492522181566,0.000209345607974,0.250000000000000));
#313=DIRECTION('',(0.0,0.0,-1.0));
#314=DIRECTION('',(1.0,0.0,0.0));
#315=AXIS2_PLACEMENT_3D('',#312,#313,#314);
#316=CIRCLE('',#315,0.171000000000000);
#317=EDGE_CURVE('',#262,#272,#316,.T.);
#318=ORIENTED_EDGE('',*,*,#317,.F.);
#319=EDGE_LOOP('',(#303,#310,#311,#318));
#320=FACE_OUTER_BOUND('',#319,.T.);
#321=ADVANCED_FACE('',(#320),#302,.F.);
#322=CARTESIAN_POINT('',(0.679507477818434,3.000209345607974,0.0));
#323=DIRECTION('',(0.0,0.0,1.0));
#324=DIRECTION('',(1.0,0.0,0.0));
#325=AXIS2_PLACEMENT_3D('',#322,#323,#324);
#326=CYLINDRICAL_SURFACE('',#325,0.171000000000000);
#327=ORIENTED_EDGE('',*,*,#227,.T.);
#328=CARTESIAN_POINT('',(0.679507477818434,3.000209345607974,0.0));
#329=DIRECTION('',(0.0,0.0,1.0));
#330=DIRECTION('',(1.0,0.0,0.0));
#331=AXIS2_PLACEMENT_3D('',#328,#329,#330);
#332=CIRCLE('',#331,0.171000000000000);
#333=EDGE_CURVE('',#239,#222,#332,.T.);
#334=ORIENTED_EDGE('',*,*,#333,.F.);
#335=ORIENTED_EDGE('',*,*,#244,.T.);
#336=CARTESIAN_POINT('',(0.679507477818434,3.000209345607974,0.250000000000000));
#337=DIRECTION('',(0.0,0.0,-1.0));
#338=DIRECTION('',(1.0,0.0,0.0));
#339=AXIS2_PLACEMENT_3D('',#336,#337,#338);
#340=CIRCLE('',#339,0.171000000000000);
#341=EDGE_CURVE('',#220,#230,#340,.T.);
#342=ORIENTED_EDGE('',*,*,#341,.F.);
#343=EDGE_LOOP('',(#327,#334,#335,#342));
#344=FACE_OUTER_BOUND('',#343,.T.);
#345=ADVANCED_FACE('',(#344),#326,.F.);
#346=CARTESIAN_POINT('',(0.679507477818434,1.500209345607974,0.0));
#347=DIRECTION('',(0.0,0.0,1.0));
#348=DIRECTION('',(1.0,0.0,0.0));
#349=AXIS2_PLACEMENT_3D('',#346,#347,#348);
#350=CYLINDRICAL_SURFACE('',#349,0.171000000000000);
#351=ORIENTED_EDGE('',*,*,#185,.T.);
#352=CARTESIAN_POINT('',(0.679507477818434,1.500209345607974,0.0));
#353=DIRECTION('',(0.0,0.0,1.0));
#354=DIRECTION('',(1.0,0.0,0.0));
#355=AXIS2_PLACEMENT_3D('',#352,#353,#354);
#356=CIRCLE('',#355,0.171000000000000);
#357=EDGE_CURVE('',#197,#180,#356,.T.);
#358=ORIENTED_EDGE('',*,*,#357,.F.);
#359=ORIENTED_EDGE('',*,*,#202,.T.);
#360=CARTESIAN_POINT('',(0.679507477818434,1.500209345607974,0.250000000000000));
#361=DIRECTION('',(0.0,0.0,-1.0));
#362=DIRECTION('',(1.0,0.0,0.0));
#363=AXIS2_PLACEMENT_3D('',#360,#361,#362);
#364=CIRCLE('',#363,0.171000000000000);
#365=EDGE_CURVE('',#178,#188,#364,.T.);
#366=ORIENTED_EDGE('',*,*,#365,.F.);
#367=EDGE_LOOP('',(#351,#358,#359,#366));
#368=FACE_OUTER_BOUND('',#367,.T.);
#369=ADVANCED_FACE('',(#368),#350,.F.);
#370=CARTESIAN_POINT('',(1.429507477818434,0.000209345607974,0.0));
#371=DIRECTION('',(0.0,0.0,1.0));
#372=DIRECTION('',(1.0,0.0,0.0));
#373=AXIS2_PLACEMENT_3D('',#370,#371,#372);
#374=CYLINDRICAL_SURFACE('',#373,0.171000000000000);
#375=ORIENTED_EDGE('',*,*,#143,.T.);
#376=CARTESIAN_POINT('',(1.429507477818434,0.000209345607974,0.0));
#377=DIRECTION('',(0.0,0.0,1.0));
#378=DIRECTION('',(1.0,0.0,0.0));
#379=AXIS2_PLACEMENT_3D('',#376,#377,#378);
#380=CIRCLE('',#379,0.171000000000000);
#381=EDGE_CURVE('',#155,#138,#380,.T.);
#382=ORIENTED_EDGE('',*,*,#381,.F.);
#383=ORIENTED_EDGE('',*,*,#160,.T.);
#384=CARTESIAN_POINT('',(1.429507477818434,0.000209345607974,0.250000000000000));
#385=DIRECTION('',(0.0,0.0,-1.0));
#386=DIRECTION('',(1.0,0.0,0.0));
#387=AXIS2_PLACEMENT_3D('',#384,#385,#386);
#388=CIRCLE('',#387,0.171000000000000);
#389=EDGE_CURVE('',#136,#146,#388,.T.);
#390=ORIENTED_EDGE('',*,*,#389,.F.);
#391=EDGE_LOOP('',(#375,#382,#383,#390));
#392=FACE_OUTER_BOUND('',#391,.T.);
#393=ADVANCED_FACE('',(#392),#374,.F.);
#394=CARTESIAN_POINT('',(-0.820492522181566,-0.749790654392026,0.0));
#395=DIRECTION('',(-1.0,0.0,0.0));
#396=DIRECTION('',(0.0,0.0,1.0));
#397=AXIS2_PLACEMENT_3D('',#394,#395,#396);
#398=PLANE('',#397);
#399=CARTESIAN_POINT('',(-0.820492522181566,-0.749790654392026,0.250000000000000));
#400=VERTEX_POINT('',#399);
#401=CARTESIAN_POINT('',(-0.820492522181566,0.750209345607974,0.250000000000000));
#402=VERTEX_POINT('',#401);
#403=CARTESIAN_POINT('',(-0.820492522181566,-0.749790654392026,0.250000000000000));
#404=DIRECTION('',(0.0,1.0,0.0));
#405=VECTOR('',#404,1.500000000000000);
#406=LINE('',#403,#405);
#407=EDGE_CURVE('',#400,#402,#406,.T.);
#408=ORIENTED_EDGE('',*,*,#407,.T.);
#409=CARTESIAN_POINT('',(-0.820492522181566,0.750209345607974,0.0));
#410=VERTEX_POINT('',#409);
#411=CARTESIAN_POINT('',(-0.820492522181566,0.750209345607974,0.0));
#412=DIRECTION('',(0.0,0.0,1.0));
#413=VECTOR('',#412,0.250000000000000);
#414=LINE('',#411,#413);
#415=EDGE_CURVE('',#410,#402,#414,.T.);
#416=ORIENTED_EDGE('',*,*,#415,.F.);
#417=CARTESIAN_POINT('',(-0.820492522181566,-0.749790654392026,0.0));
#418=VERTEX_POINT('',#417);
#419=CARTESIAN_POINT('',(-0.820492522181566,0.750209345607974,0.0));
#420=DIRECTION('',(0.0,-1.0,0.0));
#421=VECTOR('',#420,1.500000000000000);
#422=LINE('',#419,#421);
#423=EDGE_CURVE('',#410,#418,#422,.T.);
#424=ORIENTED_EDGE('',*,*,#423,.T.);
#425=CARTESIAN_POINT('',(-0.820492522181566,-0.749790654392026,0.0));
#426=DIRECTION('',(0.0,0.0,1.0));
#427=VECTOR('',#426,0.250000000000000);
#428=LINE('',#425,#427);
#429=EDGE_CURVE('',#418,#400,#428,.T.);
#430=ORIENTED_EDGE('',*,*,#429,.T.);
#431=EDGE_LOOP('',(#408,#416,#424,#430));
#432=FACE_OUTER_BOUND('',#431,.T.);
#433=ADVANCED_FACE('',(#432),#398,.T.);
#434=CARTESIAN_POINT('',(-0.820492522181566,0.750209345607974,0.0));
#435=DIRECTION('',(-0.970142500145332,0.242535625036333,0.0));
#436=DIRECTION('',(0.0,0.0,1.0));
#437=AXIS2_PLACEMENT_3D('',#434,#435,#436);
#438=PLANE('',#437);
#439=CARTESIAN_POINT('',(-0.070492522181566,3.750209345607974,0.250000000000000));
#440=VERTEX_POINT('',#439);
#441=CARTESIAN_POINT('',(-0.820492522181566,0.750209345607974,0.250000000000000));
#442=DIRECTION('',(0.242535625036333,0.970142500145332,0.0));
#443=VECTOR('',#442,3.092329219213245);
#444=LINE('',#441,#443);
#445=EDGE_CURVE('',#402,#440,#444,.T.);
#446=ORIENTED_EDGE('',*,*,#445,.T.);
#447=CARTESIAN_POINT('',(-0.070492522181566,3.750209345607974,0.0));
#448=VERTEX_POINT('',#447);
#449=CARTESIAN_POINT('',(-0.070492522181566,3.750209345607974,0.0));
#450=DIRECTION('',(0.0,0.0,1.0));
#451=VECTOR('',#450,0.250000000000000);
#452=LINE('',#449,#451);
#453=EDGE_CURVE('',#448,#440,#452,.T.);
#454=ORIENTED_EDGE('',*,*,#453,.F.);
#455=CARTESIAN_POINT('',(-0.070492522181566,3.750209345607974,0.0));
#456=DIRECTION('',(-0.242535625036333,-0.970142500145332,0.0));
#457=VECTOR('',#456,3.092329219213245);
#458=LINE('',#455,#457);
#459=EDGE_CURVE('',#448,#410,#458,.T.);
#460=ORIENTED_EDGE('',*,*,#459,.T.);
#461=ORIENTED_EDGE('',*,*,#415,.T.);
#462=EDGE_LOOP('',(#446,#454,#460,#461));
#463=FACE_OUTER_BOUND('',#462,.T.);
#464=ADVANCED_FACE('',(#463),#438,.T.);
#465=CARTESIAN_POINT('',(-0.070492522181566,3.750209345607974,0.0));
#466=DIRECTION('',(0.0,1.0,0.0));
#467=DIRECTION('',(0.0,0.0,1.0));
#468=AXIS2_PLACEMENT_3D('',#465,#466,#467);
#469=PLANE('',#468);
#470=CARTESIAN_POINT('',(1.429507477818434,3.750209345607974,0.250000000000000));
#471=VERTEX_POINT('',#470);
#472=CARTESIAN_POINT('',(-0.070492522181566,3.750209345607974,0.250000000000000));
#473=DIRECTION('',(1.0,0.0,0.0));
#474=VECTOR('',#473,1.500000000000000);
#475=LINE('',#472,#474);
#476=EDGE_CURVE('',#440,#471,#475,.T.);
#477=ORIENTED_EDGE('',*,*,#476,.T.);
#478=CARTESIAN_POINT('',(1.429507477818434,3.750209345607974,0.0));
#479=VERTEX_POINT('',#478);
#480=CARTESIAN_POINT('',(1.429507477818434,3.750209345607974,0.0));
#481=DIRECTION('',(0.0,0.0,1.0));
#482=VECTOR('',#481,0.250000000000000);
#483=LINE('',#480,#482);
#484=EDGE_CURVE('',#479,#471,#483,.T.);
#485=ORIENTED_EDGE('',*,*,#484,.F.);
#486=CARTESIAN_POINT('',(1.429507477818434,3.750209345607974,0.0));
#487=DIRECTION('',(-1.0,0.0,0.0));
#488=VECTOR('',#487,1.500000000000000);
#489=LINE('',#486,#488);
#490=EDGE_CURVE('',#479,#448,#489,.T.);
#491=ORIENTED_EDGE('',*,*,#490,.T.);
#492=ORIENTED_EDGE('',*,*,#453,.T.);
#493=EDGE_LOOP('',(#477,#485,#491,#492));
#494=FACE_OUTER_BOUND('',#493,.T.);
#495=ADVANCED_FACE('',(#494),#469,.T.);
#496=CARTESIAN_POINT('',(1.429507477818434,3.750209345607974,0.0));
#497=DIRECTION('',(0.970142500145332,0.242535625036333,0.0));
#498=DIRECTION('',(0.0,0.0,-1.0));
#499=AXIS2_PLACEMENT_3D('',#496,#497,#498);
#500=PLANE('',#499);
#501=CARTESIAN_POINT('',(2.179507477818434,0.750209345607974,0.250000000000000));
#502=VERTEX_POINT('',#501);
#503=CARTESIAN_POINT('',(1.429507477818434,3.750209345607974,0.250000000000000));
#504=DIRECTION('',(0.242535625036333,-0.970142500145332,0.0));
#505=VECTOR('',#504,3.092329219213245);
#506=LINE('',#503,#505);
#507=EDGE_CURVE('',#471,#502,#506,.T.);
#508=ORIENTED_EDGE('',*,*,#507,.T.);
#509=CARTESIAN_POINT('',(2.179507477818434,0.750209345607974,0.0));
#510=VERTEX_POINT('',#509);
#511=CARTESIAN_POINT('',(2.179507477818434,0.750209345607974,0.0));
#512=DIRECTION('',(0.0,0.0,1.0));
#513=VECTOR('',#512,0.250000000000000);
#514=LINE('',#511,#513);
#515=EDGE_CURVE('',#510,#502,#514,.T.);
#516=ORIENTED_EDGE('',*,*,#515,.F.);
#517=CARTESIAN_POINT('',(2.179507477818434,0.750209345607974,0.0));
#518=DIRECTION('',(-0.242535625036333,0.970142500145332,0.0));
#519=VECTOR('',#518,3.092329219213245);
#520=LINE('',#517,#519);
#521=EDGE_CURVE('',#510,#479,#520,.T.);
#522=ORIENTED_EDGE('',*,*,#521,.T.);
#523=ORIENTED_EDGE('',*,*,#484,.T.);
#524=EDGE_LOOP('',(#508,#516,#522,#523));
#525=FACE_OUTER_BOUND('',#524,.T.);
#526=ADVANCED_FACE('',(#525),#500,.T.);
#527=CARTESIAN_POINT('',(2.179507477818434,0.750209345607974,0.0));
#528=DIRECTION('',(1.0,0.0,0.0));
#529=DIRECTION('',(0.0,0.0,-1.0));
#530=AXIS2_PLACEMENT_3D('',#527,#528,#529);
#531=PLANE('',#530);
#532=CARTESIAN_POINT('',(2.179507477818434,-0.749790654392026,0.250000000000000));
#533=VERTEX_POINT('',#532);
#534=CARTESIAN_POINT('',(2.179507477818434,0.750209345607974,0.250000000000000));
#535=DIRECTION('',(0.0,-1.0,0.0));
#536=VECTOR('',#535,1.500000000000000);
#537=LINE('',#534,#536);
#538=EDGE_CURVE('',#502,#533,#537,.T.);
#539=ORIENTED_EDGE('',*,*,#538,.T.);
#540=CARTESIAN_POINT('',(2.179507477818434,-0.749790654392026,0.0));
#541=VERTEX_POINT('',#540);
#542=CARTESIAN_POINT('',(2.179507477818434,-0.749790654392026,0.0));
#543=DIRECTION('',(0.0,0.0,1.0));
#544=VECTOR('',#543,0.250000000000000);
#545=LINE('',#542,#544);
#546=EDGE_CURVE('',#541,#533,#545,.T.);
#547=ORIENTED_EDGE('',*,*,#546,.F.);
#548=CARTESIAN_POINT('',(2.179507477818434,-0.749790654392026,0.0));
#549=DIRECTION('',(0.0,1.0,0.0));
#550=VECTOR('',#549,1.500000000000000);
#551=LINE('',#548,#550);
#552=EDGE_CURVE('',#541,#510,#551,.T.);
#553=ORIENTED_EDGE('',*,*,#552,.T.);
#554=ORIENTED_EDGE('',*,*,#515,.T.);
#555=EDGE_LOOP('',(#539,#547,#553,#554));
#556=FACE_OUTER_BOUND('',#555,.T.);
#557=ADVANCED_FACE('',(#556),#531,.T.);
#558=CARTESIAN_POINT('',(2.179507477818434,-0.749790654392026,0.0));
#559=DIRECTION('',(0.0,-1.0,0.0));
#560=DIRECTION('',(0.0,0.0,-1.0));
#561=AXIS2_PLACEMENT_3D('',#558,#559,#560);
#562=PLANE('',#561);
#563=CARTESIAN_POINT('',(2.179507477818434,-0.749790654392026,0.250000000000000));
#564=DIRECTION('',(-1.0,0.0,0.0));
#565=VECTOR('',#564,3.0);
#566=LINE('',#563,#565);
#567=EDGE_CURVE('',#533,#400,#566,.T.);
#568=ORIENTED_EDGE('',*,*,#567,.T.);
#569=ORIENTED_EDGE('',*,*,#429,.F.);
#570=CARTESIAN_POINT('',(-0.820492522181566,-0.749790654392026,0.0));
#571=DIRECTION('',(1.0,0.0,0.0));
#572=VECTOR('',#571,3.0);
#573=LINE('',#570,#572);
#574=EDGE_CURVE('',#418,#541,#573,.T.);
#575=ORIENTED_EDGE('',*,*,#574,.T.);
#576=ORIENTED_EDGE('',*,*,#546,.T.);
#577=EDGE_LOOP('',(#568,#569,#575,#576));
#578=FACE_OUTER_BOUND('',#577,.T.);
#579=ADVANCED_FACE('',(#578),#562,.T.);
#580=CARTESIAN_POINT('',(0.679507477818434,1.250209345607974,0.0));
#581=DIRECTION('',(0.0,0.0,-1.0));
#582=DIRECTION('',(-1.0,0.0,0.0));
#583=AXIS2_PLACEMENT_3D('',#580,#581,#582);
#584=PLANE('',#583);
#585=ORIENTED_EDGE('',*,*,#574,.F.);
#586=ORIENTED_EDGE('',*,*,#423,.F.);
#587=ORIENTED_EDGE('',*,*,#459,.F.);
#588=ORIENTED_EDGE('',*,*,#490,.F.);
#589=ORIENTED_EDGE('',*,*,#521,.F.);
#590=ORIENTED_EDGE('',*,*,#552,.F.);
#591=EDGE_LOOP('',(#585,#586,#587,#588,#589,#590));
#592=FACE_OUTER_BOUND('',#591,.T.);
#593=ORIENTED_EDGE('',*,*,#293,.T.);
#594=ORIENTED_EDGE('',*,*,#309,.T.);
#595=EDGE_LOOP('',(#593,#594));
#596=FACE_BOUND('',#595,.T.);
#597=ORIENTED_EDGE('',*,*,#251,.T.);
#598=ORIENTED_EDGE('',*,*,#333,.T.);
#599=EDGE_LOOP('',(#597,#598));
#600=FACE_BOUND('',#599,.T.);
#601=ORIENTED_EDGE('',*,*,#209,.T.);
#602=ORIENTED_EDGE('',*,*,#357,.T.);
#603=EDGE_LOOP('',(#601,#602));
#604=FACE_BOUND('',#603,.T.);
#605=ORIENTED_EDGE('',*,*,#167,.T.);
#606=ORIENTED_EDGE('',*,*,#381,.T.);
#607=EDGE_LOOP('',(#605,#606));
#608=FACE_BOUND('',#607,.T.);
#609=ADVANCED_FACE('',(#592,#596,#600,#604,#608),#584,.T.);
#610=CARTESIAN_POINT('',(-0.820492522181566,-0.749790654392026,0.250000000000000));
#611=DIRECTION('',(0.0,0.0,-1.0));
#612=DIRECTION('',(-1.0,0.0,0.0));
#613=AXIS2_PLACEMENT_3D('',#610,#611,#612);
#614=PLANE('',#613);
#615=ORIENTED_EDGE('',*,*,#407,.F.);
#616=ORIENTED_EDGE('',*,*,#567,.F.);
#617=ORIENTED_EDGE('',*,*,#538,.F.);
#618=ORIENTED_EDGE('',*,*,#507,.F.);
#619=ORIENTED_EDGE('',*,*,#476,.F.);
#620=ORIENTED_EDGE('',*,*,#445,.F.);
#621=EDGE_LOOP('',(#615,#616,#617,#618,#619,#620));
#622=FACE_OUTER_BOUND('',#621,.T.);
#623=ORIENTED_EDGE('',*,*,#317,.T.);
#624=ORIENTED_EDGE('',*,*,#278,.T.);
#625=EDGE_LOOP('',(#623,#624));
#626=FACE_BOUND('',#625,.T.);
#627=ORIENTED_EDGE('',*,*,#341,.T.);
#628=ORIENTED_EDGE('',*,*,#236,.T.);
#629=EDGE_LOOP('',(#627,#628));
#630=FACE_BOUND('',#629,.T.);
#631=ORIENTED_EDGE('',*,*,#365,.T.);
#632=ORIENTED_EDGE('',*,*,#194,.T.);
#633=EDGE_LOOP('',(#631,#632));
#634=FACE_BOUND('',#633,.T.);
#635=ORIENTED_EDGE('',*,*,#389,.T.);
#636=ORIENTED_EDGE('',*,*,#152,.T.);
#637=EDGE_LOOP('',(#635,#636));
#638=FACE_BOUND('',#637,.T.);
#639=ADVANCED_FACE('',(#622,#626,#630,#634,#638),#614,.F.);
#640=CLOSED_SHELL('',(#171,#213,#255,#297,#321,#345,#369,#393,#433,#464,#495,#526,#557,#579,#609,#639));
#641=MANIFOLD_SOLID_BREP('2B',#640);
#642=ADVANCED_BREP_SHAPE_REPRESENTATION('ABSR1',(#641),#33);
#643=SHAPE_REPRESENTATION_RELATIONSHIP('SRRPL1',' ',#642,#127);
ENDSEC;
END-ISO-10303-21;
