ISO-10303-21;
HEADER;
/****************************************************************
 * Generated by software with PDE/Lib inside                    *
 * PDE/Lib Version 3.2.2, created Thu Mar 23, 2000 at 18:38:49  *
 * International Technegroup Inc. (www.iti-oh.com)              *
 ****************************************************************/
FILE_DESCRIPTION((''),'2;1');
FILE_NAME('15JP4507.stp','2006-03-13T15:31:46',('Shawn Mantel'),('Faztek, LLC'),'Mechanical Desktop 2005','Mechanical Desktop 2005',', , ');
FILE_SCHEMA(('CONFIG_CONTROL_DESIGN'));
ENDSEC;
DATA;
#8=(NAMED_UNIT(*)PLANE_ANGLE_UNIT()SI_UNIT($,.RADIAN.));
#9=DIMENSIONAL_EXPONENTS(0.0,0.0,0.0,0.0,0.0,0.0,0.0);
#10=PLANE_ANGLE_MEASURE_WITH_UNIT(PLANE_ANGLE_MEASURE(0.017453292500000),#8);
#14=(CONVERSION_BASED_UNIT('DEGREE',#10)NAMED_UNIT(#9)PLANE_ANGLE_UNIT());
#18=(NAMED_UNIT(*)SI_UNIT($,.STERADIAN.)SOLID_ANGLE_UNIT());
#20=DIMENSIONAL_EXPONENTS(1.0,0.0,0.0,0.0,0.0,0.0,0.0);
#24=(LENGTH_UNIT()NAMED_UNIT(*)SI_UNIT(.MILLI.,.METRE.));
#25=LENGTH_MEASURE_WITH_UNIT(LENGTH_MEASURE(25.399999999999999),#24);
#27=(CONVERSION_BASED_UNIT('INCH',#25)LENGTH_UNIT()NAMED_UNIT(#20));
#28=UNCERTAINTY_MEASURE_WITH_UNIT(LENGTH_MEASURE(0.000001000000000),#27,'DISTANCE_ACCURACY_VALUE','');
#33=(GEOMETRIC_REPRESENTATION_CONTEXT(3)GLOBAL_UNCERTAINTY_ASSIGNED_CONTEXT((#28))GLOBAL_UNIT_ASSIGNED_CONTEXT((#14,#18,#27))REPRESENTATION_CONTEXT('None','None'));
#34=APPLICATION_CONTEXT('CONFIGURATION CONTROLLED 3D DESIGNS OF MECHANICAL PARTS AND ASSEMBLIES');
#35=APPLICATION_PROTOCOL_DEFINITION('INTERNATIONAL STANDARD','config_control_design',1995,#34);
#36=MECHANICAL_CONTEXT('3D Mechanical Parts',#34,'mechanical');
#37=PRODUCT('Product','Product',' ',(#36));
#38=PRODUCT_RELATED_PRODUCT_CATEGORY('detail',$,(#37));
#39=PRODUCT_CATEGORY('part',$);
#40=PRODUCT_CATEGORY_RELATIONSHIP('None','None',#39,#38);
#41=PERSON('1','Design','Joe',$,$,$);
#42=ORGANIZATION($,'None','None');
#43=PERSON_AND_ORGANIZATION(#41,#42);
#44=PERSON_AND_ORGANIZATION_ROLE('design_owner');
#45=CC_DESIGN_PERSON_AND_ORGANIZATION_ASSIGNMENT(#43,#44,(#37));
#46=PRODUCT_DEFINITION_FORMATION_WITH_SPECIFIED_SOURCE('None','None',#37,.NOT_KNOWN.);
#47=PERSON('2','Creator','Joe',$,$,$);
#48=ORGANIZATION($,'None','None');
#49=PERSON_AND_ORGANIZATION(#47,#48);
#50=PERSON_AND_ORGANIZATION_ROLE('creator');
#51=CC_DESIGN_PERSON_AND_ORGANIZATION_ASSIGNMENT(#49,#50,(#46));
#52=PERSON('3','Supplier','Joe',$,$,$);
#53=ORGANIZATION($,'None','None');
#54=PERSON_AND_ORGANIZATION(#52,#53);
#55=PERSON_AND_ORGANIZATION_ROLE('design_supplier');
#56=CC_DESIGN_PERSON_AND_ORGANIZATION_ASSIGNMENT(#54,#55,(#46));
#57=APPROVAL_STATUS('approved');
#58=APPROVAL(#57,'None');
#59=PERSON('4','Approver','Joe',$,$,$);
#60=ORGANIZATION($,'None','None');
#61=PERSON_AND_ORGANIZATION(#59,#60);
#62=APPROVAL_ROLE('approver');
#63=APPROVAL_PERSON_ORGANIZATION(#61,#58,#62);
#64=COORDINATED_UNIVERSAL_TIME_OFFSET(8,$,.BEHIND.);
#65=CALENDAR_DATE(1996,29,5);
#66=LOCAL_TIME(12,0,0.0,#64);
#67=DATE_AND_TIME(#65,#66);
#68=APPROVAL_DATE_TIME(#67,#58);
#69=CC_DESIGN_APPROVAL(#58,(#46));
#70=SECURITY_CLASSIFICATION_LEVEL('unclassified');
#71=SECURITY_CLASSIFICATION('security','None',#70);
#72=CC_DESIGN_SECURITY_CLASSIFICATION(#71,(#46));
#73=APPROVAL_STATUS('approved');
#74=APPROVAL(#73,'None');
#75=PERSON('5','Approver','Joe',$,$,$);
#76=ORGANIZATION($,'None','None');
#77=PERSON_AND_ORGANIZATION(#75,#76);
#78=APPROVAL_ROLE('approver');
#79=APPROVAL_PERSON_ORGANIZATION(#77,#74,#78);
#80=COORDINATED_UNIVERSAL_TIME_OFFSET(8,$,.BEHIND.);
#81=CALENDAR_DATE(1996,29,5);
#82=LOCAL_TIME(12,0,0.0,#80);
#83=DATE_AND_TIME(#81,#82);
#84=APPROVAL_DATE_TIME(#83,#74);
#85=CC_DESIGN_APPROVAL(#74,(#71));
#86=PERSON('6','Classifier','Joe',$,$,$);
#87=ORGANIZATION($,'None','None');
#88=PERSON_AND_ORGANIZATION(#86,#87);
#89=PERSON_AND_ORGANIZATION_ROLE('classification_officer');
#90=CC_DESIGN_PERSON_AND_ORGANIZATION_ASSIGNMENT(#88,#89,(#71));
#91=COORDINATED_UNIVERSAL_TIME_OFFSET(8,$,.BEHIND.);
#92=CALENDAR_DATE(1996,29,5);
#93=LOCAL_TIME(12,0,0.0,#91);
#94=DATE_AND_TIME(#92,#93);
#95=DATE_TIME_ROLE('classification_date');
#96=CC_DESIGN_DATE_AND_TIME_ASSIGNMENT(#94,#95,(#71));
#97=DESIGN_CONTEXT('Design Context',#34,'design');
#98=PRODUCT_DEFINITION('None','None',#46,#97);
#99=PERSON('7','Creator','Joe',$,$,$);
#100=ORGANIZATION($,'None','None');
#101=PERSON_AND_ORGANIZATION(#99,#100);
#102=PERSON_AND_ORGANIZATION_ROLE('creator');
#103=CC_DESIGN_PERSON_AND_ORGANIZATION_ASSIGNMENT(#101,#102,(#98));
#104=COORDINATED_UNIVERSAL_TIME_OFFSET(8,$,.BEHIND.);
#105=CALENDAR_DATE(1996,29,5);
#106=LOCAL_TIME(12,0,0.0,#104);
#107=DATE_AND_TIME(#105,#106);
#108=DATE_TIME_ROLE('creation_date');
#109=CC_DESIGN_DATE_AND_TIME_ASSIGNMENT(#107,#108,(#98));
#110=APPROVAL_STATUS('approved');
#111=APPROVAL(#110,'None');
#112=PERSON('8','Approver','Joe',$,$,$);
#113=ORGANIZATION($,'None','None');
#114=PERSON_AND_ORGANIZATION(#112,#113);
#115=APPROVAL_ROLE('approver');
#116=APPROVAL_PERSON_ORGANIZATION(#114,#111,#115);
#117=COORDINATED_UNIVERSAL_TIME_OFFSET(8,$,.BEHIND.);
#118=CALENDAR_DATE(1996,29,5);
#119=LOCAL_TIME(12,0,0.0,#117);
#120=DATE_AND_TIME(#118,#119);
#121=APPROVAL_DATE_TIME(#120,#111);
#122=CC_DESIGN_APPROVAL(#111,(#98));
#123=CARTESIAN_POINT('NONE',(0.0,0.0,0.0));
#124=DIRECTION('NONE',(0.0,0.0,1.0));
#125=DIRECTION('NONE',(1.0,0.0,0.0));
#126=AXIS2_PLACEMENT_3D('NONE',#123,#124,#125);
#127=SHAPE_REPRESENTATION('SR1',(#126),#33);
#128=PRODUCT_DEFINITION_SHAPE('PDS1','Test Part',#98);
#129=SHAPE_DEFINITION_REPRESENTATION(#128,#127);
#130=CARTESIAN_POINT('',(3.0,1.110223E-016,0.249999999999999));
#131=DIRECTION('',(-3.216286E-016,-1.991679E-016,-1.0));
#132=DIRECTION('',(-1.0,0.0,0.0));
#133=AXIS2_PLACEMENT_3D('',#130,#131,#132);
#134=CYLINDRICAL_SURFACE('',#133,0.171875000000000);
#135=CARTESIAN_POINT('',(2.828125000000000,-1.110223E-016,-9.992007E-016));
#136=VERTEX_POINT('',#135);
#137=CARTESIAN_POINT('',(2.828125000000000,0.0,0.249999999999999));
#138=VERTEX_POINT('',#137);
#139=CARTESIAN_POINT('',(2.828125000000000,-1.110223E-016,-9.992007E-016));
#140=DIRECTION('',(0.0,0.0,1.0));
#141=VECTOR('',#140,0.250000000000000);
#142=LINE('',#139,#141);
#143=EDGE_CURVE('',#136,#138,#142,.T.);
#144=ORIENTED_EDGE('',*,*,#143,.F.);
#145=CARTESIAN_POINT('',(3.171875000000000,8.227824E-017,-1.165503E-015));
#146=VERTEX_POINT('',#145);
#147=CARTESIAN_POINT('',(3.0,0.0,-1.110223E-015));
#148=DIRECTION('',(0.0,0.0,1.0));
#149=DIRECTION('',(-1.0,0.0,0.0));
#150=AXIS2_PLACEMENT_3D('',#147,#148,#149);
#151=CIRCLE('',#150,0.171875000000000);
#152=EDGE_CURVE('',#146,#136,#151,.T.);
#153=ORIENTED_EDGE('',*,*,#152,.F.);
#154=CARTESIAN_POINT('',(3.171875000000000,1.320702E-016,0.249999999999999));
#155=VERTEX_POINT('',#154);
#156=CARTESIAN_POINT('',(3.171875000000000,1.320702E-016,0.249999999999999));
#157=DIRECTION('',(0.0,0.0,-1.0));
#158=VECTOR('',#157,0.250000000000000);
#159=LINE('',#156,#158);
#160=EDGE_CURVE('',#155,#146,#159,.T.);
#161=ORIENTED_EDGE('',*,*,#160,.F.);
#162=CARTESIAN_POINT('',(3.0,1.110223E-016,0.249999999999999));
#163=DIRECTION('',(0.0,0.0,-1.0));
#164=DIRECTION('',(-1.0,0.0,0.0));
#165=AXIS2_PLACEMENT_3D('',#162,#163,#164);
#166=CIRCLE('',#165,0.171875000000000);
#167=EDGE_CURVE('',#138,#155,#166,.T.);
#168=ORIENTED_EDGE('',*,*,#167,.F.);
#169=EDGE_LOOP('',(#144,#153,#161,#168));
#170=FACE_OUTER_BOUND('',#169,.T.);
#171=ADVANCED_FACE('',(#170),#134,.F.);
#172=CARTESIAN_POINT('',(1.500000000000000,1.110223E-016,0.249999999999999));
#173=DIRECTION('',(-3.216286E-016,-1.991679E-016,-1.0));
#174=DIRECTION('',(-1.0,0.0,0.0));
#175=AXIS2_PLACEMENT_3D('',#172,#173,#174);
#176=CYLINDRICAL_SURFACE('',#175,0.171875000000000);
#177=CARTESIAN_POINT('',(1.328125000000000,-1.110223E-016,-4.440892E-016));
#178=VERTEX_POINT('',#177);
#179=CARTESIAN_POINT('',(1.328125000000000,0.0,0.250000000000000));
#180=VERTEX_POINT('',#179);
#181=CARTESIAN_POINT('',(1.328125000000000,-1.110223E-016,-4.440892E-016));
#182=DIRECTION('',(0.0,0.0,1.0));
#183=VECTOR('',#182,0.250000000000000);
#184=LINE('',#181,#183);
#185=EDGE_CURVE('',#178,#180,#184,.T.);
#186=ORIENTED_EDGE('',*,*,#185,.F.);
#187=CARTESIAN_POINT('',(1.671875000000000,8.227824E-017,-6.103914E-016));
#188=VERTEX_POINT('',#187);
#189=CARTESIAN_POINT('',(1.500000000000000,0.0,-5.551115E-016));
#190=DIRECTION('',(0.0,0.0,1.0));
#191=DIRECTION('',(-1.0,0.0,0.0));
#192=AXIS2_PLACEMENT_3D('',#189,#190,#191);
#193=CIRCLE('',#192,0.171875000000000);
#194=EDGE_CURVE('',#188,#178,#193,.T.);
#195=ORIENTED_EDGE('',*,*,#194,.F.);
#196=CARTESIAN_POINT('',(1.671875000000000,1.320702E-016,0.249999999999999));
#197=VERTEX_POINT('',#196);
#198=CARTESIAN_POINT('',(1.671875000000000,1.320702E-016,0.249999999999999));
#199=DIRECTION('',(0.0,0.0,-1.0));
#200=VECTOR('',#199,0.250000000000000);
#201=LINE('',#198,#200);
#202=EDGE_CURVE('',#197,#188,#201,.T.);
#203=ORIENTED_EDGE('',*,*,#202,.F.);
#204=CARTESIAN_POINT('',(1.500000000000000,1.110223E-016,0.249999999999999));
#205=DIRECTION('',(0.0,0.0,-1.0));
#206=DIRECTION('',(-1.0,0.0,0.0));
#207=AXIS2_PLACEMENT_3D('',#204,#205,#206);
#208=CIRCLE('',#207,0.171875000000000);
#209=EDGE_CURVE('',#180,#197,#208,.T.);
#210=ORIENTED_EDGE('',*,*,#209,.F.);
#211=EDGE_LOOP('',(#186,#195,#203,#210));
#212=FACE_OUTER_BOUND('',#211,.T.);
#213=ADVANCED_FACE('',(#212),#176,.F.);
#214=CARTESIAN_POINT('',(0.0,1.110223E-016,0.250000000000000));
#215=DIRECTION('',(-3.216286E-016,-1.991679E-016,-1.0));
#216=DIRECTION('',(-1.0,0.0,0.0));
#217=AXIS2_PLACEMENT_3D('',#214,#215,#216);
#218=CYLINDRICAL_SURFACE('',#217,0.171875000000000);
#219=CARTESIAN_POINT('',(-0.171875000000000,-1.110223E-016,0.0));
#220=VERTEX_POINT('',#219);
#221=CARTESIAN_POINT('',(-0.171875000000000,0.0,0.250000000000000));
#222=VERTEX_POINT('',#221);
#223=CARTESIAN_POINT('',(-0.171875000000000,-1.110223E-016,0.0));
#224=DIRECTION('',(0.0,0.0,1.0));
#225=VECTOR('',#224,0.250000000000000);
#226=LINE('',#223,#225);
#227=EDGE_CURVE('',#220,#222,#226,.T.);
#228=ORIENTED_EDGE('',*,*,#227,.F.);
#229=CARTESIAN_POINT('',(0.171875000000000,8.227824E-017,-5.527991E-017));
#230=VERTEX_POINT('',#229);
#231=CARTESIAN_POINT('',(0.0,0.0,0.0));
#232=DIRECTION('',(0.0,0.0,1.0));
#233=DIRECTION('',(-1.0,0.0,0.0));
#234=AXIS2_PLACEMENT_3D('',#231,#232,#233);
#235=CIRCLE('',#234,0.171875000000000);
#236=EDGE_CURVE('',#230,#220,#235,.T.);
#237=ORIENTED_EDGE('',*,*,#236,.F.);
#238=CARTESIAN_POINT('',(0.171875000000000,1.320702E-016,0.250000000000000));
#239=VERTEX_POINT('',#238);
#240=CARTESIAN_POINT('',(0.171875000000000,1.320702E-016,0.250000000000000));
#241=DIRECTION('',(0.0,0.0,-1.0));
#242=VECTOR('',#241,0.250000000000000);
#243=LINE('',#240,#242);
#244=EDGE_CURVE('',#239,#230,#243,.T.);
#245=ORIENTED_EDGE('',*,*,#244,.F.);
#246=CARTESIAN_POINT('',(0.0,1.110223E-016,0.250000000000000));
#247=DIRECTION('',(0.0,0.0,-1.0));
#248=DIRECTION('',(-1.0,0.0,0.0));
#249=AXIS2_PLACEMENT_3D('',#246,#247,#248);
#250=CIRCLE('',#249,0.171875000000000);
#251=EDGE_CURVE('',#222,#239,#250,.T.);
#252=ORIENTED_EDGE('',*,*,#251,.F.);
#253=EDGE_LOOP('',(#228,#237,#245,#252));
#254=FACE_OUTER_BOUND('',#253,.T.);
#255=ADVANCED_FACE('',(#254),#218,.F.);
#256=CARTESIAN_POINT('',(0.0,1.500000000000000,0.250000000000000));
#257=DIRECTION('',(-3.216286E-016,-1.991679E-016,-1.0));
#258=DIRECTION('',(-1.0,0.0,0.0));
#259=AXIS2_PLACEMENT_3D('',#256,#257,#258);
#260=CYLINDRICAL_SURFACE('',#259,0.171875000000000);
#261=CARTESIAN_POINT('',(-0.171875000000000,1.500000000000000,-3.330669E-016));
#262=VERTEX_POINT('',#261);
#263=CARTESIAN_POINT('',(-0.171875000000000,1.500000000000000,0.250000000000000));
#264=VERTEX_POINT('',#263);
#265=CARTESIAN_POINT('',(-0.171875000000000,1.500000000000000,-3.330669E-016));
#266=DIRECTION('',(0.0,0.0,1.0));
#267=VECTOR('',#266,0.250000000000000);
#268=LINE('',#265,#267);
#269=EDGE_CURVE('',#262,#264,#268,.T.);
#270=ORIENTED_EDGE('',*,*,#269,.F.);
#271=CARTESIAN_POINT('',(0.171875000000000,1.500000000000000,-4.438580E-016));
#272=VERTEX_POINT('',#271);
#273=CARTESIAN_POINT('',(0.0,1.500000000000000,-3.885781E-016));
#274=DIRECTION('',(0.0,0.0,1.0));
#275=DIRECTION('',(-1.0,0.0,0.0));
#276=AXIS2_PLACEMENT_3D('',#273,#274,#275);
#277=CIRCLE('',#276,0.171875000000000);
#278=EDGE_CURVE('',#272,#262,#277,.T.);
#279=ORIENTED_EDGE('',*,*,#278,.F.);
#280=CARTESIAN_POINT('',(0.171875000000000,1.500000000000000,0.250000000000000));
#281=VERTEX_POINT('',#280);
#282=CARTESIAN_POINT('',(0.171875000000000,1.500000000000000,0.250000000000000));
#283=DIRECTION('',(0.0,0.0,-1.0));
#284=VECTOR('',#283,0.250000000000000);
#285=LINE('',#282,#284);
#286=EDGE_CURVE('',#281,#272,#285,.T.);
#287=ORIENTED_EDGE('',*,*,#286,.F.);
#288=CARTESIAN_POINT('',(0.0,1.500000000000000,0.250000000000000));
#289=DIRECTION('',(0.0,0.0,-1.0));
#290=DIRECTION('',(-1.0,0.0,0.0));
#291=AXIS2_PLACEMENT_3D('',#288,#289,#290);
#292=CIRCLE('',#291,0.171875000000000);
#293=EDGE_CURVE('',#264,#281,#292,.T.);
#294=ORIENTED_EDGE('',*,*,#293,.F.);
#295=EDGE_LOOP('',(#270,#279,#287,#294));
#296=FACE_OUTER_BOUND('',#295,.T.);
#297=ADVANCED_FACE('',(#296),#260,.F.);
#298=CARTESIAN_POINT('',(0.0,3.0,0.250000000000000));
#299=DIRECTION('',(-3.216286E-016,-1.991679E-016,-1.0));
#300=DIRECTION('',(-1.0,0.0,0.0));
#301=AXIS2_PLACEMENT_3D('',#298,#299,#300);
#302=CYLINDRICAL_SURFACE('',#301,0.171875000000000);
#303=CARTESIAN_POINT('',(-0.171875000000000,3.0,-3.330669E-016));
#304=VERTEX_POINT('',#303);
#305=CARTESIAN_POINT('',(-0.171875000000000,3.0,0.250000000000000));
#306=VERTEX_POINT('',#305);
#307=CARTESIAN_POINT('',(-0.171875000000000,3.0,-3.330669E-016));
#308=DIRECTION('',(0.0,0.0,1.0));
#309=VECTOR('',#308,0.250000000000000);
#310=LINE('',#307,#309);
#311=EDGE_CURVE('',#304,#306,#310,.T.);
#312=ORIENTED_EDGE('',*,*,#311,.F.);
#313=CARTESIAN_POINT('',(0.171875000000000,3.0,-3.883468E-016));
#314=VERTEX_POINT('',#313);
#315=CARTESIAN_POINT('',(0.0,3.0,-3.330669E-016));
#316=DIRECTION('',(0.0,0.0,1.0));
#317=DIRECTION('',(-1.0,0.0,0.0));
#318=AXIS2_PLACEMENT_3D('',#315,#316,#317);
#319=CIRCLE('',#318,0.171875000000000);
#320=EDGE_CURVE('',#314,#304,#319,.T.);
#321=ORIENTED_EDGE('',*,*,#320,.F.);
#322=CARTESIAN_POINT('',(0.171875000000000,3.0,0.250000000000000));
#323=VERTEX_POINT('',#322);
#324=CARTESIAN_POINT('',(0.171875000000000,3.0,0.250000000000000));
#325=DIRECTION('',(0.0,0.0,-1.0));
#326=VECTOR('',#325,0.250000000000000);
#327=LINE('',#324,#326);
#328=EDGE_CURVE('',#323,#314,#327,.T.);
#329=ORIENTED_EDGE('',*,*,#328,.F.);
#330=CARTESIAN_POINT('',(0.0,3.0,0.250000000000000));
#331=DIRECTION('',(0.0,0.0,-1.0));
#332=DIRECTION('',(-1.0,0.0,0.0));
#333=AXIS2_PLACEMENT_3D('',#330,#331,#332);
#334=CIRCLE('',#333,0.171875000000000);
#335=EDGE_CURVE('',#306,#323,#334,.T.);
#336=ORIENTED_EDGE('',*,*,#335,.F.);
#337=EDGE_LOOP('',(#312,#321,#329,#336));
#338=FACE_OUTER_BOUND('',#337,.T.);
#339=ADVANCED_FACE('',(#338),#302,.F.);
#340=CARTESIAN_POINT('',(0.0,3.0,0.250000000000000));
#341=DIRECTION('',(-3.216286E-016,-1.991679E-016,-1.0));
#342=DIRECTION('',(-1.0,0.0,0.0));
#343=AXIS2_PLACEMENT_3D('',#340,#341,#342);
#344=CYLINDRICAL_SURFACE('',#343,0.171875000000000);
#345=ORIENTED_EDGE('',*,*,#311,.T.);
#346=CARTESIAN_POINT('',(0.0,3.0,0.250000000000000));
#347=DIRECTION('',(0.0,0.0,-1.0));
#348=DIRECTION('',(-1.0,0.0,0.0));
#349=AXIS2_PLACEMENT_3D('',#346,#347,#348);
#350=CIRCLE('',#349,0.171875000000000);
#351=EDGE_CURVE('',#323,#306,#350,.T.);
#352=ORIENTED_EDGE('',*,*,#351,.F.);
#353=ORIENTED_EDGE('',*,*,#328,.T.);
#354=CARTESIAN_POINT('',(0.0,3.0,-3.330669E-016));
#355=DIRECTION('',(0.0,0.0,1.0));
#356=DIRECTION('',(-1.0,0.0,0.0));
#357=AXIS2_PLACEMENT_3D('',#354,#355,#356);
#358=CIRCLE('',#357,0.171875000000000);
#359=EDGE_CURVE('',#304,#314,#358,.T.);
#360=ORIENTED_EDGE('',*,*,#359,.F.);
#361=EDGE_LOOP('',(#345,#352,#353,#360));
#362=FACE_OUTER_BOUND('',#361,.T.);
#363=ADVANCED_FACE('',(#362),#344,.F.);
#364=CARTESIAN_POINT('',(0.0,1.500000000000000,0.250000000000000));
#365=DIRECTION('',(-3.216286E-016,-1.991679E-016,-1.0));
#366=DIRECTION('',(-1.0,0.0,0.0));
#367=AXIS2_PLACEMENT_3D('',#364,#365,#366);
#368=CYLINDRICAL_SURFACE('',#367,0.171875000000000);
#369=ORIENTED_EDGE('',*,*,#269,.T.);
#370=CARTESIAN_POINT('',(0.0,1.500000000000000,0.250000000000000));
#371=DIRECTION('',(0.0,0.0,-1.0));
#372=DIRECTION('',(-1.0,0.0,0.0));
#373=AXIS2_PLACEMENT_3D('',#370,#371,#372);
#374=CIRCLE('',#373,0.171875000000000);
#375=EDGE_CURVE('',#281,#264,#374,.T.);
#376=ORIENTED_EDGE('',*,*,#375,.F.);
#377=ORIENTED_EDGE('',*,*,#286,.T.);
#378=CARTESIAN_POINT('',(0.0,1.500000000000000,-3.885781E-016));
#379=DIRECTION('',(0.0,0.0,1.0));
#380=DIRECTION('',(-1.0,0.0,0.0));
#381=AXIS2_PLACEMENT_3D('',#378,#379,#380);
#382=CIRCLE('',#381,0.171875000000000);
#383=EDGE_CURVE('',#262,#272,#382,.T.);
#384=ORIENTED_EDGE('',*,*,#383,.F.);
#385=EDGE_LOOP('',(#369,#376,#377,#384));
#386=FACE_OUTER_BOUND('',#385,.T.);
#387=ADVANCED_FACE('',(#386),#368,.F.);
#388=CARTESIAN_POINT('',(0.0,1.110223E-016,0.250000000000000));
#389=DIRECTION('',(-3.216286E-016,-1.991679E-016,-1.0));
#390=DIRECTION('',(-1.0,0.0,0.0));
#391=AXIS2_PLACEMENT_3D('',#388,#389,#390);
#392=CYLINDRICAL_SURFACE('',#391,0.171875000000000);
#393=ORIENTED_EDGE('',*,*,#227,.T.);
#394=CARTESIAN_POINT('',(0.0,1.110223E-016,0.250000000000000));
#395=DIRECTION('',(0.0,0.0,-1.0));
#396=DIRECTION('',(-1.0,0.0,0.0));
#397=AXIS2_PLACEMENT_3D('',#394,#395,#396);
#398=CIRCLE('',#397,0.171875000000000);
#399=EDGE_CURVE('',#239,#222,#398,.T.);
#400=ORIENTED_EDGE('',*,*,#399,.F.);
#401=ORIENTED_EDGE('',*,*,#244,.T.);
#402=CARTESIAN_POINT('',(0.0,0.0,0.0));
#403=DIRECTION('',(0.0,0.0,1.0));
#404=DIRECTION('',(-1.0,0.0,0.0));
#405=AXIS2_PLACEMENT_3D('',#402,#403,#404);
#406=CIRCLE('',#405,0.171875000000000);
#407=EDGE_CURVE('',#220,#230,#406,.T.);
#408=ORIENTED_EDGE('',*,*,#407,.F.);
#409=EDGE_LOOP('',(#393,#400,#401,#408));
#410=FACE_OUTER_BOUND('',#409,.T.);
#411=ADVANCED_FACE('',(#410),#392,.F.);
#412=CARTESIAN_POINT('',(1.500000000000000,1.110223E-016,0.249999999999999));
#413=DIRECTION('',(-3.216286E-016,-1.991679E-016,-1.0));
#414=DIRECTION('',(-1.0,0.0,0.0));
#415=AXIS2_PLACEMENT_3D('',#412,#413,#414);
#416=CYLINDRICAL_SURFACE('',#415,0.171875000000000);
#417=ORIENTED_EDGE('',*,*,#185,.T.);
#418=CARTESIAN_POINT('',(1.500000000000000,1.110223E-016,0.249999999999999));
#419=DIRECTION('',(0.0,0.0,-1.0));
#420=DIRECTION('',(-1.0,0.0,0.0));
#421=AXIS2_PLACEMENT_3D('',#418,#419,#420);
#422=CIRCLE('',#421,0.171875000000000);
#423=EDGE_CURVE('',#197,#180,#422,.T.);
#424=ORIENTED_EDGE('',*,*,#423,.F.);
#425=ORIENTED_EDGE('',*,*,#202,.T.);
#426=CARTESIAN_POINT('',(1.500000000000000,0.0,-5.551115E-016));
#427=DIRECTION('',(0.0,0.0,1.0));
#428=DIRECTION('',(-1.0,0.0,0.0));
#429=AXIS2_PLACEMENT_3D('',#426,#427,#428);
#430=CIRCLE('',#429,0.171875000000000);
#431=EDGE_CURVE('',#178,#188,#430,.T.);
#432=ORIENTED_EDGE('',*,*,#431,.F.);
#433=EDGE_LOOP('',(#417,#424,#425,#432));
#434=FACE_OUTER_BOUND('',#433,.T.);
#435=ADVANCED_FACE('',(#434),#416,.F.);
#436=CARTESIAN_POINT('',(3.0,1.110223E-016,0.249999999999999));
#437=DIRECTION('',(-3.216286E-016,-1.991679E-016,-1.0));
#438=DIRECTION('',(-1.0,0.0,0.0));
#439=AXIS2_PLACEMENT_3D('',#436,#437,#438);
#440=CYLINDRICAL_SURFACE('',#439,0.171875000000000);
#441=ORIENTED_EDGE('',*,*,#143,.T.);
#442=CARTESIAN_POINT('',(3.0,1.110223E-016,0.249999999999999));
#443=DIRECTION('',(0.0,0.0,-1.0));
#444=DIRECTION('',(-1.0,0.0,0.0));
#445=AXIS2_PLACEMENT_3D('',#442,#443,#444);
#446=CIRCLE('',#445,0.171875000000000);
#447=EDGE_CURVE('',#155,#138,#446,.T.);
#448=ORIENTED_EDGE('',*,*,#447,.F.);
#449=ORIENTED_EDGE('',*,*,#160,.T.);
#450=CARTESIAN_POINT('',(3.0,0.0,-1.110223E-015));
#451=DIRECTION('',(0.0,0.0,1.0));
#452=DIRECTION('',(-1.0,0.0,0.0));
#453=AXIS2_PLACEMENT_3D('',#450,#451,#452);
#454=CIRCLE('',#453,0.171875000000000);
#455=EDGE_CURVE('',#136,#146,#454,.T.);
#456=ORIENTED_EDGE('',*,*,#455,.F.);
#457=EDGE_LOOP('',(#441,#448,#449,#456));
#458=FACE_OUTER_BOUND('',#457,.T.);
#459=ADVANCED_FACE('',(#458),#440,.F.);
#460=CARTESIAN_POINT('',(3.750000000000000,0.750000000000000,0.249999999999999));
#461=DIRECTION('',(0.707106781186547,0.707106781186548,-3.682587E-016));
#462=DIRECTION('',(0.0,0.0,-1.0));
#463=AXIS2_PLACEMENT_3D('',#460,#461,#462);
#464=PLANE('',#463);
#465=CARTESIAN_POINT('',(3.750000000000000,0.750000000000000,-1.498801E-015));
#466=VERTEX_POINT('',#465);
#467=CARTESIAN_POINT('',(0.750000000000000,3.749999999999999,-7.771561E-016));
#468=VERTEX_POINT('',#467);
#469=CARTESIAN_POINT('',(3.750000000000000,0.750000000000000,-1.498801E-015));
#470=DIRECTION('',(-0.707106781186548,0.707106781186547,1.700933E-016));
#471=VECTOR('',#470,4.242640687119284);
#472=LINE('',#469,#471);
#473=EDGE_CURVE('',#466,#468,#472,.T.);
#474=ORIENTED_EDGE('',*,*,#473,.T.);
#475=CARTESIAN_POINT('',(0.750000000000000,3.749999999999999,0.249999999999999));
#476=VERTEX_POINT('',#475);
#477=CARTESIAN_POINT('',(0.750000000000000,3.749999999999999,0.249999999999999));
#478=DIRECTION('',(0.0,0.0,-1.0));
#479=VECTOR('',#478,0.250000000000000);
#480=LINE('',#477,#479);
#481=EDGE_CURVE('',#476,#468,#480,.T.);
#482=ORIENTED_EDGE('',*,*,#481,.F.);
#483=CARTESIAN_POINT('',(3.750000000000000,0.750000000000000,0.249999999999999));
#484=VERTEX_POINT('',#483);
#485=CARTESIAN_POINT('',(0.750000000000000,3.749999999999999,0.249999999999999));
#486=DIRECTION('',(0.707106781186548,-0.707106781186547,-1.700933E-016));
#487=VECTOR('',#486,4.242640687119284);
#488=LINE('',#485,#487);
#489=EDGE_CURVE('',#476,#484,#488,.T.);
#490=ORIENTED_EDGE('',*,*,#489,.T.);
#491=CARTESIAN_POINT('',(3.750000000000000,0.750000000000000,0.249999999999999));
#492=DIRECTION('',(0.0,0.0,-1.0));
#493=VECTOR('',#492,0.250000000000000);
#494=LINE('',#491,#493);
#495=EDGE_CURVE('',#484,#466,#494,.T.);
#496=ORIENTED_EDGE('',*,*,#495,.T.);
#497=EDGE_LOOP('',(#474,#482,#490,#496));
#498=FACE_OUTER_BOUND('',#497,.T.);
#499=ADVANCED_FACE('',(#498),#464,.T.);
#500=CARTESIAN_POINT('',(0.750000000000000,3.749999999999999,0.249999999999999));
#501=DIRECTION('',(0.0,1.0,0.0));
#502=DIRECTION('',(0.0,0.0,-1.0));
#503=AXIS2_PLACEMENT_3D('',#500,#501,#502);
#504=PLANE('',#503);
#505=CARTESIAN_POINT('',(-0.750000000000000,3.749999999999999,-2.775558E-016));
#506=VERTEX_POINT('',#505);
#507=CARTESIAN_POINT('',(0.750000000000000,3.749999999999999,-7.771561E-016));
#508=DIRECTION('',(-1.0,0.0,0.0));
#509=VECTOR('',#508,1.500000000000000);
#510=LINE('',#507,#509);
#511=EDGE_CURVE('',#468,#506,#510,.T.);
#512=ORIENTED_EDGE('',*,*,#511,.T.);
#513=CARTESIAN_POINT('',(-0.750000000000000,3.749999999999999,0.250000000000000));
#514=VERTEX_POINT('',#513);
#515=CARTESIAN_POINT('',(-0.750000000000000,3.749999999999999,0.250000000000000));
#516=DIRECTION('',(0.0,0.0,-1.0));
#517=VECTOR('',#516,0.250000000000000);
#518=LINE('',#515,#517);
#519=EDGE_CURVE('',#514,#506,#518,.T.);
#520=ORIENTED_EDGE('',*,*,#519,.F.);
#521=CARTESIAN_POINT('',(-0.750000000000000,3.749999999999999,0.250000000000000));
#522=DIRECTION('',(1.0,0.0,0.0));
#523=VECTOR('',#522,1.500000000000000);
#524=LINE('',#521,#523);
#525=EDGE_CURVE('',#514,#476,#524,.T.);
#526=ORIENTED_EDGE('',*,*,#525,.T.);
#527=ORIENTED_EDGE('',*,*,#481,.T.);
#528=EDGE_LOOP('',(#512,#520,#526,#527));
#529=FACE_OUTER_BOUND('',#528,.T.);
#530=ADVANCED_FACE('',(#529),#504,.T.);
#531=CARTESIAN_POINT('',(-0.750000000000000,3.749999999999999,0.250000000000000));
#532=DIRECTION('',(-1.0,0.0,0.0));
#533=DIRECTION('',(0.0,0.0,1.0));
#534=AXIS2_PLACEMENT_3D('',#531,#532,#533);
#535=PLANE('',#534);
#536=CARTESIAN_POINT('',(-0.750000000000000,-0.750000000000000,4.440892E-016));
#537=VERTEX_POINT('',#536);
#538=CARTESIAN_POINT('',(-0.750000000000000,3.749999999999999,-2.775558E-016));
#539=DIRECTION('',(0.0,-1.0,0.0));
#540=VECTOR('',#539,4.499999999999999);
#541=LINE('',#538,#540);
#542=EDGE_CURVE('',#506,#537,#541,.T.);
#543=ORIENTED_EDGE('',*,*,#542,.T.);
#544=CARTESIAN_POINT('',(-0.750000000000000,-0.750000000000000,0.250000000000000));
#545=VERTEX_POINT('',#544);
#546=CARTESIAN_POINT('',(-0.750000000000000,-0.750000000000000,0.250000000000000));
#547=DIRECTION('',(0.0,0.0,-1.0));
#548=VECTOR('',#547,0.250000000000000);
#549=LINE('',#546,#548);
#550=EDGE_CURVE('',#545,#537,#549,.T.);
#551=ORIENTED_EDGE('',*,*,#550,.F.);
#552=CARTESIAN_POINT('',(-0.750000000000000,-0.750000000000000,0.250000000000000));
#553=DIRECTION('',(0.0,1.0,0.0));
#554=VECTOR('',#553,4.499999999999999);
#555=LINE('',#552,#554);
#556=EDGE_CURVE('',#545,#514,#555,.T.);
#557=ORIENTED_EDGE('',*,*,#556,.T.);
#558=ORIENTED_EDGE('',*,*,#519,.T.);
#559=EDGE_LOOP('',(#543,#551,#557,#558));
#560=FACE_OUTER_BOUND('',#559,.T.);
#561=ADVANCED_FACE('',(#560),#535,.T.);
#562=CARTESIAN_POINT('',(-0.750000000000000,-0.750000000000000,0.250000000000000));
#563=DIRECTION('',(0.0,-1.0,0.0));
#564=DIRECTION('',(0.0,0.0,1.0));
#565=AXIS2_PLACEMENT_3D('',#562,#563,#564);
#566=PLANE('',#565);
#567=CARTESIAN_POINT('',(3.750000000000000,-0.750000000000000,-1.110223E-015));
#568=VERTEX_POINT('',#567);
#569=CARTESIAN_POINT('',(-0.750000000000000,-0.750000000000000,4.440892E-016));
#570=DIRECTION('',(1.0,0.0,0.0));
#571=VECTOR('',#570,4.500000000000000);
#572=LINE('',#569,#571);
#573=EDGE_CURVE('',#537,#568,#572,.T.);
#574=ORIENTED_EDGE('',*,*,#573,.T.);
#575=CARTESIAN_POINT('',(3.750000000000000,-0.750000000000000,0.249999999999999));
#576=VERTEX_POINT('',#575);
#577=CARTESIAN_POINT('',(3.750000000000000,-0.750000000000000,0.249999999999999));
#578=DIRECTION('',(0.0,0.0,-1.0));
#579=VECTOR('',#578,0.250000000000000);
#580=LINE('',#577,#579);
#581=EDGE_CURVE('',#576,#568,#580,.T.);
#582=ORIENTED_EDGE('',*,*,#581,.F.);
#583=CARTESIAN_POINT('',(3.750000000000000,-0.750000000000000,0.249999999999999));
#584=DIRECTION('',(-1.0,0.0,0.0));
#585=VECTOR('',#584,4.500000000000000);
#586=LINE('',#583,#585);
#587=EDGE_CURVE('',#576,#545,#586,.T.);
#588=ORIENTED_EDGE('',*,*,#587,.T.);
#589=ORIENTED_EDGE('',*,*,#550,.T.);
#590=EDGE_LOOP('',(#574,#582,#588,#589));
#591=FACE_OUTER_BOUND('',#590,.T.);
#592=ADVANCED_FACE('',(#591),#566,.T.);
#593=CARTESIAN_POINT('',(3.750000000000000,-0.750000000000000,0.249999999999999));
#594=DIRECTION('',(1.0,0.0,0.0));
#595=DIRECTION('',(0.0,0.0,-1.0));
#596=AXIS2_PLACEMENT_3D('',#593,#594,#595);
#597=PLANE('',#596);
#598=CARTESIAN_POINT('',(3.750000000000000,-0.750000000000000,-1.110223E-015));
#599=DIRECTION('',(0.0,1.0,0.0));
#600=VECTOR('',#599,1.500000000000000);
#601=LINE('',#598,#600);
#602=EDGE_CURVE('',#568,#466,#601,.T.);
#603=ORIENTED_EDGE('',*,*,#602,.T.);
#604=ORIENTED_EDGE('',*,*,#495,.F.);
#605=CARTESIAN_POINT('',(3.750000000000000,0.750000000000000,0.249999999999999));
#606=DIRECTION('',(0.0,-1.0,0.0));
#607=VECTOR('',#606,1.500000000000000);
#608=LINE('',#605,#607);
#609=EDGE_CURVE('',#484,#576,#608,.T.);
#610=ORIENTED_EDGE('',*,*,#609,.T.);
#611=ORIENTED_EDGE('',*,*,#581,.T.);
#612=EDGE_LOOP('',(#603,#604,#610,#611));
#613=FACE_OUTER_BOUND('',#612,.T.);
#614=ADVANCED_FACE('',(#613),#597,.T.);
#615=CARTESIAN_POINT('',(1.350000000000000,1.350000000000001,0.249999999999999));
#616=DIRECTION('',(0.0,0.0,1.0));
#617=DIRECTION('',(1.0,0.0,0.0));
#618=AXIS2_PLACEMENT_3D('',#615,#616,#617);
#619=PLANE('',#618);
#620=ORIENTED_EDGE('',*,*,#609,.F.);
#621=ORIENTED_EDGE('',*,*,#489,.F.);
#622=ORIENTED_EDGE('',*,*,#525,.F.);
#623=ORIENTED_EDGE('',*,*,#556,.F.);
#624=ORIENTED_EDGE('',*,*,#587,.F.);
#625=EDGE_LOOP('',(#620,#621,#622,#623,#624));
#626=FACE_OUTER_BOUND('',#625,.T.);
#627=ORIENTED_EDGE('',*,*,#335,.T.);
#628=ORIENTED_EDGE('',*,*,#351,.T.);
#629=EDGE_LOOP('',(#627,#628));
#630=FACE_BOUND('',#629,.T.);
#631=ORIENTED_EDGE('',*,*,#293,.T.);
#632=ORIENTED_EDGE('',*,*,#375,.T.);
#633=EDGE_LOOP('',(#631,#632));
#634=FACE_BOUND('',#633,.T.);
#635=ORIENTED_EDGE('',*,*,#251,.T.);
#636=ORIENTED_EDGE('',*,*,#399,.T.);
#637=EDGE_LOOP('',(#635,#636));
#638=FACE_BOUND('',#637,.T.);
#639=ORIENTED_EDGE('',*,*,#209,.T.);
#640=ORIENTED_EDGE('',*,*,#423,.T.);
#641=EDGE_LOOP('',(#639,#640));
#642=FACE_BOUND('',#641,.T.);
#643=ORIENTED_EDGE('',*,*,#167,.T.);
#644=ORIENTED_EDGE('',*,*,#447,.T.);
#645=EDGE_LOOP('',(#643,#644));
#646=FACE_BOUND('',#645,.T.);
#647=ADVANCED_FACE('',(#626,#630,#634,#638,#642,#646),#619,.T.);
#648=CARTESIAN_POINT('',(3.750000000000000,0.750000000000000,-1.498801E-015));
#649=DIRECTION('',(0.0,0.0,1.0));
#650=DIRECTION('',(1.0,0.0,0.0));
#651=AXIS2_PLACEMENT_3D('',#648,#649,#650);
#652=PLANE('',#651);
#653=ORIENTED_EDGE('',*,*,#473,.F.);
#654=ORIENTED_EDGE('',*,*,#602,.F.);
#655=ORIENTED_EDGE('',*,*,#573,.F.);
#656=ORIENTED_EDGE('',*,*,#542,.F.);
#657=ORIENTED_EDGE('',*,*,#511,.F.);
#658=EDGE_LOOP('',(#653,#654,#655,#656,#657));
#659=FACE_OUTER_BOUND('',#658,.T.);
#660=ORIENTED_EDGE('',*,*,#359,.T.);
#661=ORIENTED_EDGE('',*,*,#320,.T.);
#662=EDGE_LOOP('',(#660,#661));
#663=FACE_BOUND('',#662,.T.);
#664=ORIENTED_EDGE('',*,*,#383,.T.);
#665=ORIENTED_EDGE('',*,*,#278,.T.);
#666=EDGE_LOOP('',(#664,#665));
#667=FACE_BOUND('',#666,.T.);
#668=ORIENTED_EDGE('',*,*,#407,.T.);
#669=ORIENTED_EDGE('',*,*,#236,.T.);
#670=EDGE_LOOP('',(#668,#669));
#671=FACE_BOUND('',#670,.T.);
#672=ORIENTED_EDGE('',*,*,#431,.T.);
#673=ORIENTED_EDGE('',*,*,#194,.T.);
#674=EDGE_LOOP('',(#672,#673));
#675=FACE_BOUND('',#674,.T.);
#676=ORIENTED_EDGE('',*,*,#455,.T.);
#677=ORIENTED_EDGE('',*,*,#152,.T.);
#678=EDGE_LOOP('',(#676,#677));
#679=FACE_BOUND('',#678,.T.);
#680=ADVANCED_FACE('',(#659,#663,#667,#671,#675,#679),#652,.F.);
#681=CLOSED_SHELL('',(#171,#213,#255,#297,#339,#363,#387,#411,#435,#459,#499,#530,#561,#592,#614,#647,#680));
#682=MANIFOLD_SOLID_BREP('36',#681);
#683=ADVANCED_BREP_SHAPE_REPRESENTATION('ABSR1',(#682),#33);
#684=SHAPE_REPRESENTATION_RELATIONSHIP('SRRPL1',' ',#683,#127);
ENDSEC;
END-ISO-10303-21;
