ISO-10303-21;
HEADER;
/****************************************************************
 * Generated by software with PDE/Lib inside                    *
 * PDE/Lib Version 3.2.2, created Thu Mar 23, 2000 at 18:38:49  *
 * International Technegroup Inc. (www.iti-oh.com)              *
 ****************************************************************/
FILE_DESCRIPTION((''),'2;1');
FILE_NAME('15JP4505.stp','2006-03-13T15:31:55',('Shawn Mantel'),('Faztek, LLC'),'Mechanical Desktop 2005','Mechanical Desktop 2005',', , ');
FILE_SCHEMA(('CONFIG_CONTROL_DESIGN'));
ENDSEC;
DATA;
#8=(NAMED_UNIT(*)PLANE_ANGLE_UNIT()SI_UNIT($,.RADIAN.));
#9=DIMENSIONAL_EXPONENTS(0.0,0.0,0.0,0.0,0.0,0.0,0.0);
#10=PLANE_ANGLE_MEASURE_WITH_UNIT(PLANE_ANGLE_MEASURE(0.017453292500000),#8);
#14=(CONVERSION_BASED_UNIT('DEGREE',#10)NAMED_UNIT(#9)PLANE_ANGLE_UNIT());
#18=(NAMED_UNIT(*)SI_UNIT($,.STERADIAN.)SOLID_ANGLE_UNIT());
#20=DIMENSIONAL_EXPONENTS(1.0,0.0,0.0,0.0,0.0,0.0,0.0);
#24=(LENGTH_UNIT()NAMED_UNIT(*)SI_UNIT(.MILLI.,.METRE.));
#25=LENGTH_MEASURE_WITH_UNIT(LENGTH_MEASURE(25.399999999999999),#24);
#27=(CONVERSION_BASED_UNIT('INCH',#25)LENGTH_UNIT()NAMED_UNIT(#20));
#28=UNCERTAINTY_MEASURE_WITH_UNIT(LENGTH_MEASURE(0.000001000000000),#27,'DISTANCE_ACCURACY_VALUE','');
#33=(GEOMETRIC_REPRESENTATION_CONTEXT(3)GLOBAL_UNCERTAINTY_ASSIGNED_CONTEXT((#28))GLOBAL_UNIT_ASSIGNED_CONTEXT((#14,#18,#27))REPRESENTATION_CONTEXT('None','None'));
#34=APPLICATION_CONTEXT('CONFIGURATION CONTROLLED 3D DESIGNS OF MECHANICAL PARTS AND ASSEMBLIES');
#35=APPLICATION_PROTOCOL_DEFINITION('INTERNATIONAL STANDARD','config_control_design',1995,#34);
#36=MECHANICAL_CONTEXT('3D Mechanical Parts',#34,'mechanical');
#37=PRODUCT('Product','Product',' ',(#36));
#38=PRODUCT_RELATED_PRODUCT_CATEGORY('detail',$,(#37));
#39=PRODUCT_CATEGORY('part',$);
#40=PRODUCT_CATEGORY_RELATIONSHIP('None','None',#39,#38);
#41=PERSON('1','Design','Joe',$,$,$);
#42=ORGANIZATION($,'None','None');
#43=PERSON_AND_ORGANIZATION(#41,#42);
#44=PERSON_AND_ORGANIZATION_ROLE('design_owner');
#45=CC_DESIGN_PERSON_AND_ORGANIZATION_ASSIGNMENT(#43,#44,(#37));
#46=PRODUCT_DEFINITION_FORMATION_WITH_SPECIFIED_SOURCE('None','None',#37,.NOT_KNOWN.);
#47=PERSON('2','Creator','Joe',$,$,$);
#48=ORGANIZATION($,'None','None');
#49=PERSON_AND_ORGANIZATION(#47,#48);
#50=PERSON_AND_ORGANIZATION_ROLE('creator');
#51=CC_DESIGN_PERSON_AND_ORGANIZATION_ASSIGNMENT(#49,#50,(#46));
#52=PERSON('3','Supplier','Joe',$,$,$);
#53=ORGANIZATION($,'None','None');
#54=PERSON_AND_ORGANIZATION(#52,#53);
#55=PERSON_AND_ORGANIZATION_ROLE('design_supplier');
#56=CC_DESIGN_PERSON_AND_ORGANIZATION_ASSIGNMENT(#54,#55,(#46));
#57=APPROVAL_STATUS('approved');
#58=APPROVAL(#57,'None');
#59=PERSON('4','Approver','Joe',$,$,$);
#60=ORGANIZATION($,'None','None');
#61=PERSON_AND_ORGANIZATION(#59,#60);
#62=APPROVAL_ROLE('approver');
#63=APPROVAL_PERSON_ORGANIZATION(#61,#58,#62);
#64=COORDINATED_UNIVERSAL_TIME_OFFSET(8,$,.BEHIND.);
#65=CALENDAR_DATE(1996,29,5);
#66=LOCAL_TIME(12,0,0.0,#64);
#67=DATE_AND_TIME(#65,#66);
#68=APPROVAL_DATE_TIME(#67,#58);
#69=CC_DESIGN_APPROVAL(#58,(#46));
#70=SECURITY_CLASSIFICATION_LEVEL('unclassified');
#71=SECURITY_CLASSIFICATION('security','None',#70);
#72=CC_DESIGN_SECURITY_CLASSIFICATION(#71,(#46));
#73=APPROVAL_STATUS('approved');
#74=APPROVAL(#73,'None');
#75=PERSON('5','Approver','Joe',$,$,$);
#76=ORGANIZATION($,'None','None');
#77=PERSON_AND_ORGANIZATION(#75,#76);
#78=APPROVAL_ROLE('approver');
#79=APPROVAL_PERSON_ORGANIZATION(#77,#74,#78);
#80=COORDINATED_UNIVERSAL_TIME_OFFSET(8,$,.BEHIND.);
#81=CALENDAR_DATE(1996,29,5);
#82=LOCAL_TIME(12,0,0.0,#80);
#83=DATE_AND_TIME(#81,#82);
#84=APPROVAL_DATE_TIME(#83,#74);
#85=CC_DESIGN_APPROVAL(#74,(#71));
#86=PERSON('6','Classifier','Joe',$,$,$);
#87=ORGANIZATION($,'None','None');
#88=PERSON_AND_ORGANIZATION(#86,#87);
#89=PERSON_AND_ORGANIZATION_ROLE('classification_officer');
#90=CC_DESIGN_PERSON_AND_ORGANIZATION_ASSIGNMENT(#88,#89,(#71));
#91=COORDINATED_UNIVERSAL_TIME_OFFSET(8,$,.BEHIND.);
#92=CALENDAR_DATE(1996,29,5);
#93=LOCAL_TIME(12,0,0.0,#91);
#94=DATE_AND_TIME(#92,#93);
#95=DATE_TIME_ROLE('classification_date');
#96=CC_DESIGN_DATE_AND_TIME_ASSIGNMENT(#94,#95,(#71));
#97=DESIGN_CONTEXT('Design Context',#34,'design');
#98=PRODUCT_DEFINITION('None','None',#46,#97);
#99=PERSON('7','Creator','Joe',$,$,$);
#100=ORGANIZATION($,'None','None');
#101=PERSON_AND_ORGANIZATION(#99,#100);
#102=PERSON_AND_ORGANIZATION_ROLE('creator');
#103=CC_DESIGN_PERSON_AND_ORGANIZATION_ASSIGNMENT(#101,#102,(#98));
#104=COORDINATED_UNIVERSAL_TIME_OFFSET(8,$,.BEHIND.);
#105=CALENDAR_DATE(1996,29,5);
#106=LOCAL_TIME(12,0,0.0,#104);
#107=DATE_AND_TIME(#105,#106);
#108=DATE_TIME_ROLE('creation_date');
#109=CC_DESIGN_DATE_AND_TIME_ASSIGNMENT(#107,#108,(#98));
#110=APPROVAL_STATUS('approved');
#111=APPROVAL(#110,'None');
#112=PERSON('8','Approver','Joe',$,$,$);
#113=ORGANIZATION($,'None','None');
#114=PERSON_AND_ORGANIZATION(#112,#113);
#115=APPROVAL_ROLE('approver');
#116=APPROVAL_PERSON_ORGANIZATION(#114,#111,#115);
#117=COORDINATED_UNIVERSAL_TIME_OFFSET(8,$,.BEHIND.);
#118=CALENDAR_DATE(1996,29,5);
#119=LOCAL_TIME(12,0,0.0,#117);
#120=DATE_AND_TIME(#118,#119);
#121=APPROVAL_DATE_TIME(#120,#111);
#122=CC_DESIGN_APPROVAL(#111,(#98));
#123=CARTESIAN_POINT('NONE',(0.0,0.0,0.0));
#124=DIRECTION('NONE',(0.0,0.0,1.0));
#125=DIRECTION('NONE',(1.0,0.0,0.0));
#126=AXIS2_PLACEMENT_3D('NONE',#123,#124,#125);
#127=SHAPE_REPRESENTATION('SR1',(#126),#33);
#128=PRODUCT_DEFINITION_SHAPE('PDS1','Test Part',#98);
#129=SHAPE_DEFINITION_REPRESENTATION(#128,#127);
#130=CARTESIAN_POINT('',(-8.881784E-016,3.0,0.125000000000001));
#131=DIRECTION('',(-4.707335E-016,2.603983E-016,1.0));
#132=DIRECTION('',(0.0,1.0,0.0));
#133=AXIS2_PLACEMENT_3D('',#130,#131,#132);
#134=CYLINDRICAL_SURFACE('',#133,0.171875000000000);
#135=CARTESIAN_POINT('',(-8.881784E-016,3.171875000000000,0.250000000000001));
#136=VERTEX_POINT('',#135);
#137=CARTESIAN_POINT('',(-8.881784E-016,3.171875000000000,8.604228E-016));
#138=VERTEX_POINT('',#137);
#139=CARTESIAN_POINT('',(-8.881784E-016,3.171875000000000,0.250000000000001));
#140=DIRECTION('',(0.0,0.0,-1.0));
#141=VECTOR('',#140,0.250000000000000);
#142=LINE('',#139,#141);
#143=EDGE_CURVE('',#136,#138,#142,.T.);
#144=ORIENTED_EDGE('',*,*,#143,.F.);
#145=CARTESIAN_POINT('',(-9.680680E-016,2.828125000000000,0.250000000000000));
#146=VERTEX_POINT('',#145);
#147=CARTESIAN_POINT('',(-8.881784E-016,3.0,0.250000000000000));
#148=DIRECTION('',(0.0,0.0,-1.0));
#149=DIRECTION('',(0.0,1.0,0.0));
#150=AXIS2_PLACEMENT_3D('',#147,#148,#149);
#151=CIRCLE('',#150,0.171875000000000);
#152=EDGE_CURVE('',#146,#136,#151,.T.);
#153=ORIENTED_EDGE('',*,*,#152,.F.);
#154=CARTESIAN_POINT('',(-8.503847E-016,2.828125000000000,-6.768890E-016));
#155=VERTEX_POINT('',#154);
#156=CARTESIAN_POINT('',(-8.503847E-016,2.828125000000000,-6.768890E-016));
#157=DIRECTION('',(0.0,0.0,1.0));
#158=VECTOR('',#157,0.250000000000000);
#159=LINE('',#156,#158);
#160=EDGE_CURVE('',#155,#146,#159,.T.);
#161=ORIENTED_EDGE('',*,*,#160,.F.);
#162=CARTESIAN_POINT('',(-8.881784E-016,3.0,-7.216450E-016));
#163=DIRECTION('',(0.0,0.0,1.0));
#164=DIRECTION('',(0.0,1.0,0.0));
#165=AXIS2_PLACEMENT_3D('',#162,#163,#164);
#166=CIRCLE('',#165,0.171875000000000);
#167=EDGE_CURVE('',#138,#155,#166,.T.);
#168=ORIENTED_EDGE('',*,*,#167,.F.);
#169=EDGE_LOOP('',(#144,#153,#161,#168));
#170=FACE_OUTER_BOUND('',#169,.T.);
#171=ADVANCED_FACE('',(#170),#134,.F.);
#172=CARTESIAN_POINT('',(-8.881784E-016,1.500000000000000,0.125000000000001));
#173=DIRECTION('',(-4.707335E-016,2.603983E-016,1.0));
#174=DIRECTION('',(0.0,1.0,0.0));
#175=AXIS2_PLACEMENT_3D('',#172,#173,#174);
#176=CYLINDRICAL_SURFACE('',#175,0.171875000000000);
#177=CARTESIAN_POINT('',(-8.881784E-016,1.671875000000000,0.250000000000001));
#178=VERTEX_POINT('',#177);
#179=CARTESIAN_POINT('',(-8.881784E-016,1.671875000000000,1.249001E-015));
#180=VERTEX_POINT('',#179);
#181=CARTESIAN_POINT('',(-8.881784E-016,1.671875000000000,0.250000000000001));
#182=DIRECTION('',(0.0,0.0,-1.0));
#183=VECTOR('',#182,0.250000000000000);
#184=LINE('',#181,#183);
#185=EDGE_CURVE('',#178,#180,#184,.T.);
#186=ORIENTED_EDGE('',*,*,#185,.F.);
#187=CARTESIAN_POINT('',(-9.680680E-016,1.328125000000000,0.250000000000000));
#188=VERTEX_POINT('',#187);
#189=CARTESIAN_POINT('',(-8.881784E-016,1.500000000000000,0.250000000000000));
#190=DIRECTION('',(0.0,0.0,-1.0));
#191=DIRECTION('',(0.0,1.0,0.0));
#192=AXIS2_PLACEMENT_3D('',#189,#190,#191);
#193=CIRCLE('',#192,0.171875000000000);
#194=EDGE_CURVE('',#188,#178,#193,.T.);
#195=ORIENTED_EDGE('',*,*,#194,.F.);
#196=CARTESIAN_POINT('',(-8.503847E-016,1.328125000000000,-2.883110E-016));
#197=VERTEX_POINT('',#196);
#198=CARTESIAN_POINT('',(-8.503847E-016,1.328125000000000,-2.883110E-016));
#199=DIRECTION('',(0.0,0.0,1.0));
#200=VECTOR('',#199,0.250000000000000);
#201=LINE('',#198,#200);
#202=EDGE_CURVE('',#197,#188,#201,.T.);
#203=ORIENTED_EDGE('',*,*,#202,.F.);
#204=CARTESIAN_POINT('',(-8.881784E-016,1.500000000000000,-3.330669E-016));
#205=DIRECTION('',(0.0,0.0,1.0));
#206=DIRECTION('',(0.0,1.0,0.0));
#207=AXIS2_PLACEMENT_3D('',#204,#205,#206);
#208=CIRCLE('',#207,0.171875000000000);
#209=EDGE_CURVE('',#180,#197,#208,.T.);
#210=ORIENTED_EDGE('',*,*,#209,.F.);
#211=EDGE_LOOP('',(#186,#195,#203,#210));
#212=FACE_OUTER_BOUND('',#211,.T.);
#213=ADVANCED_FACE('',(#212),#176,.F.);
#214=CARTESIAN_POINT('',(0.0,1.110223E-016,0.125000000000002));
#215=DIRECTION('',(-4.707335E-016,2.603983E-016,1.0));
#216=DIRECTION('',(0.0,1.0,0.0));
#217=AXIS2_PLACEMENT_3D('',#214,#215,#216);
#218=CYLINDRICAL_SURFACE('',#217,0.171875000000000);
#219=CARTESIAN_POINT('',(0.0,0.171875000000000,0.250000000000002));
#220=VERTEX_POINT('',#219);
#221=CARTESIAN_POINT('',(0.0,0.171875000000000,1.637579E-015));
#222=VERTEX_POINT('',#221);
#223=CARTESIAN_POINT('',(0.0,0.171875000000000,0.250000000000002));
#224=DIRECTION('',(0.0,0.0,-1.0));
#225=VECTOR('',#224,0.250000000000000);
#226=LINE('',#223,#225);
#227=EDGE_CURVE('',#220,#222,#226,.T.);
#228=ORIENTED_EDGE('',*,*,#227,.F.);
#229=CARTESIAN_POINT('',(-7.988961E-017,-0.171875000000000,0.250000000000000));
#230=VERTEX_POINT('',#229);
#231=CARTESIAN_POINT('',(0.0,1.110223E-016,0.250000000000000));
#232=DIRECTION('',(0.0,0.0,-1.0));
#233=DIRECTION('',(0.0,1.0,0.0));
#234=AXIS2_PLACEMENT_3D('',#231,#232,#233);
#235=CIRCLE('',#234,0.171875000000000);
#236=EDGE_CURVE('',#230,#220,#235,.T.);
#237=ORIENTED_EDGE('',*,*,#236,.F.);
#238=CARTESIAN_POINT('',(3.779376E-017,-0.171875000000000,4.475595E-017));
#239=VERTEX_POINT('',#238);
#240=CARTESIAN_POINT('',(3.779376E-017,-0.171875000000000,4.475595E-017));
#241=DIRECTION('',(0.0,0.0,1.0));
#242=VECTOR('',#241,0.250000000000000);
#243=LINE('',#240,#242);
#244=EDGE_CURVE('',#239,#230,#243,.T.);
#245=ORIENTED_EDGE('',*,*,#244,.F.);
#246=CARTESIAN_POINT('',(0.0,0.0,0.0));
#247=DIRECTION('',(0.0,0.0,1.0));
#248=DIRECTION('',(0.0,1.0,0.0));
#249=AXIS2_PLACEMENT_3D('',#246,#247,#248);
#250=CIRCLE('',#249,0.171875000000000);
#251=EDGE_CURVE('',#222,#239,#250,.T.);
#252=ORIENTED_EDGE('',*,*,#251,.F.);
#253=EDGE_LOOP('',(#228,#237,#245,#252));
#254=FACE_OUTER_BOUND('',#253,.T.);
#255=ADVANCED_FACE('',(#254),#218,.F.);
#256=CARTESIAN_POINT('',(1.500000000000000,4.440892E-016,0.125000000000001));
#257=DIRECTION('',(-4.707335E-016,2.603983E-016,1.0));
#258=DIRECTION('',(0.0,1.0,0.0));
#259=AXIS2_PLACEMENT_3D('',#256,#257,#258);
#260=CYLINDRICAL_SURFACE('',#259,0.171875000000000);
#261=CARTESIAN_POINT('',(1.500000000000000,0.171875000000000,0.250000000000001));
#262=VERTEX_POINT('',#261);
#263=CARTESIAN_POINT('',(1.500000000000000,0.171875000000000,1.221245E-015));
#264=VERTEX_POINT('',#263);
#265=CARTESIAN_POINT('',(1.500000000000000,0.171875000000000,0.250000000000001));
#266=DIRECTION('',(0.0,0.0,-1.0));
#267=VECTOR('',#266,0.250000000000000);
#268=LINE('',#265,#267);
#269=EDGE_CURVE('',#262,#264,#268,.T.);
#270=ORIENTED_EDGE('',*,*,#269,.F.);
#271=CARTESIAN_POINT('',(1.500000000000000,-0.171875000000000,0.250000000000001));
#272=VERTEX_POINT('',#271);
#273=CARTESIAN_POINT('',(1.500000000000000,4.440892E-016,0.250000000000001));
#274=DIRECTION('',(0.0,0.0,-1.0));
#275=DIRECTION('',(0.0,1.0,0.0));
#276=AXIS2_PLACEMENT_3D('',#273,#274,#275);
#277=CIRCLE('',#276,0.171875000000000);
#278=EDGE_CURVE('',#272,#262,#277,.T.);
#279=ORIENTED_EDGE('',*,*,#278,.F.);
#280=CARTESIAN_POINT('',(1.500000000000000,-0.171875000000000,7.664009E-016));
#281=VERTEX_POINT('',#280);
#282=CARTESIAN_POINT('',(1.500000000000000,-0.171875000000000,7.664009E-016));
#283=DIRECTION('',(0.0,0.0,1.0));
#284=VECTOR('',#283,0.250000000000000);
#285=LINE('',#282,#284);
#286=EDGE_CURVE('',#281,#272,#285,.T.);
#287=ORIENTED_EDGE('',*,*,#286,.F.);
#288=CARTESIAN_POINT('',(1.500000000000000,3.330669E-016,7.216450E-016));
#289=DIRECTION('',(0.0,0.0,1.0));
#290=DIRECTION('',(0.0,1.0,0.0));
#291=AXIS2_PLACEMENT_3D('',#288,#289,#290);
#292=CIRCLE('',#291,0.171875000000000);
#293=EDGE_CURVE('',#264,#281,#292,.T.);
#294=ORIENTED_EDGE('',*,*,#293,.F.);
#295=EDGE_LOOP('',(#270,#279,#287,#294));
#296=FACE_OUTER_BOUND('',#295,.T.);
#297=ADVANCED_FACE('',(#296),#260,.F.);
#298=CARTESIAN_POINT('',(1.500000000000000,4.440892E-016,0.125000000000001));
#299=DIRECTION('',(-4.707335E-016,2.603983E-016,1.0));
#300=DIRECTION('',(0.0,1.0,0.0));
#301=AXIS2_PLACEMENT_3D('',#298,#299,#300);
#302=CYLINDRICAL_SURFACE('',#301,0.171875000000000);
#303=ORIENTED_EDGE('',*,*,#269,.T.);
#304=CARTESIAN_POINT('',(1.500000000000000,3.330669E-016,7.216450E-016));
#305=DIRECTION('',(0.0,0.0,1.0));
#306=DIRECTION('',(0.0,1.0,0.0));
#307=AXIS2_PLACEMENT_3D('',#304,#305,#306);
#308=CIRCLE('',#307,0.171875000000000);
#309=EDGE_CURVE('',#281,#264,#308,.T.);
#310=ORIENTED_EDGE('',*,*,#309,.F.);
#311=ORIENTED_EDGE('',*,*,#286,.T.);
#312=CARTESIAN_POINT('',(1.500000000000000,4.440892E-016,0.250000000000001));
#313=DIRECTION('',(0.0,0.0,-1.0));
#314=DIRECTION('',(0.0,1.0,0.0));
#315=AXIS2_PLACEMENT_3D('',#312,#313,#314);
#316=CIRCLE('',#315,0.171875000000000);
#317=EDGE_CURVE('',#262,#272,#316,.T.);
#318=ORIENTED_EDGE('',*,*,#317,.F.);
#319=EDGE_LOOP('',(#303,#310,#311,#318));
#320=FACE_OUTER_BOUND('',#319,.T.);
#321=ADVANCED_FACE('',(#320),#302,.F.);
#322=CARTESIAN_POINT('',(0.0,1.110223E-016,0.125000000000002));
#323=DIRECTION('',(-4.707335E-016,2.603983E-016,1.0));
#324=DIRECTION('',(0.0,1.0,0.0));
#325=AXIS2_PLACEMENT_3D('',#322,#323,#324);
#326=CYLINDRICAL_SURFACE('',#325,0.171875000000000);
#327=ORIENTED_EDGE('',*,*,#227,.T.);
#328=CARTESIAN_POINT('',(0.0,0.0,0.0));
#329=DIRECTION('',(0.0,0.0,1.0));
#330=DIRECTION('',(0.0,1.0,0.0));
#331=AXIS2_PLACEMENT_3D('',#328,#329,#330);
#332=CIRCLE('',#331,0.171875000000000);
#333=EDGE_CURVE('',#239,#222,#332,.T.);
#334=ORIENTED_EDGE('',*,*,#333,.F.);
#335=ORIENTED_EDGE('',*,*,#244,.T.);
#336=CARTESIAN_POINT('',(0.0,1.110223E-016,0.250000000000000));
#337=DIRECTION('',(0.0,0.0,-1.0));
#338=DIRECTION('',(0.0,1.0,0.0));
#339=AXIS2_PLACEMENT_3D('',#336,#337,#338);
#340=CIRCLE('',#339,0.171875000000000);
#341=EDGE_CURVE('',#220,#230,#340,.T.);
#342=ORIENTED_EDGE('',*,*,#341,.F.);
#343=EDGE_LOOP('',(#327,#334,#335,#342));
#344=FACE_OUTER_BOUND('',#343,.T.);
#345=ADVANCED_FACE('',(#344),#326,.F.);
#346=CARTESIAN_POINT('',(-8.881784E-016,1.500000000000000,0.125000000000001));
#347=DIRECTION('',(-4.707335E-016,2.603983E-016,1.0));
#348=DIRECTION('',(0.0,1.0,0.0));
#349=AXIS2_PLACEMENT_3D('',#346,#347,#348);
#350=CYLINDRICAL_SURFACE('',#349,0.171875000000000);
#351=ORIENTED_EDGE('',*,*,#185,.T.);
#352=CARTESIAN_POINT('',(-8.881784E-016,1.500000000000000,-3.330669E-016));
#353=DIRECTION('',(0.0,0.0,1.0));
#354=DIRECTION('',(0.0,1.0,0.0));
#355=AXIS2_PLACEMENT_3D('',#352,#353,#354);
#356=CIRCLE('',#355,0.171875000000000);
#357=EDGE_CURVE('',#197,#180,#356,.T.);
#358=ORIENTED_EDGE('',*,*,#357,.F.);
#359=ORIENTED_EDGE('',*,*,#202,.T.);
#360=CARTESIAN_POINT('',(-8.881784E-016,1.500000000000000,0.250000000000000));
#361=DIRECTION('',(0.0,0.0,-1.0));
#362=DIRECTION('',(0.0,1.0,0.0));
#363=AXIS2_PLACEMENT_3D('',#360,#361,#362);
#364=CIRCLE('',#363,0.171875000000000);
#365=EDGE_CURVE('',#178,#188,#364,.T.);
#366=ORIENTED_EDGE('',*,*,#365,.F.);
#367=EDGE_LOOP('',(#351,#358,#359,#366));
#368=FACE_OUTER_BOUND('',#367,.T.);
#369=ADVANCED_FACE('',(#368),#350,.F.);
#370=CARTESIAN_POINT('',(-8.881784E-016,3.0,0.125000000000001));
#371=DIRECTION('',(-4.707335E-016,2.603983E-016,1.0));
#372=DIRECTION('',(0.0,1.0,0.0));
#373=AXIS2_PLACEMENT_3D('',#370,#371,#372);
#374=CYLINDRICAL_SURFACE('',#373,0.171875000000000);
#375=ORIENTED_EDGE('',*,*,#143,.T.);
#376=CARTESIAN_POINT('',(-8.881784E-016,3.0,-7.216450E-016));
#377=DIRECTION('',(0.0,0.0,1.0));
#378=DIRECTION('',(0.0,1.0,0.0));
#379=AXIS2_PLACEMENT_3D('',#376,#377,#378);
#380=CIRCLE('',#379,0.171875000000000);
#381=EDGE_CURVE('',#155,#138,#380,.T.);
#382=ORIENTED_EDGE('',*,*,#381,.F.);
#383=ORIENTED_EDGE('',*,*,#160,.T.);
#384=CARTESIAN_POINT('',(-8.881784E-016,3.0,0.250000000000000));
#385=DIRECTION('',(0.0,0.0,-1.0));
#386=DIRECTION('',(0.0,1.0,0.0));
#387=AXIS2_PLACEMENT_3D('',#384,#385,#386);
#388=CIRCLE('',#387,0.171875000000000);
#389=EDGE_CURVE('',#136,#146,#388,.T.);
#390=ORIENTED_EDGE('',*,*,#389,.F.);
#391=EDGE_LOOP('',(#375,#382,#383,#390));
#392=FACE_OUTER_BOUND('',#391,.T.);
#393=ADVANCED_FACE('',(#392),#374,.F.);
#394=CARTESIAN_POINT('',(2.249999999999999,0.750000000000001,0.250000000000001));
#395=DIRECTION('',(0.894427190999916,0.447213595499958,-3.698224E-016));
#396=DIRECTION('',(-0.447213595499958,0.894427190999916,-1.062229E-016));
#397=AXIS2_PLACEMENT_3D('',#394,#395,#396);
#398=PLANE('',#397);
#399=CARTESIAN_POINT('',(2.249999999999999,0.750000000000001,8.604228E-016));
#400=VERTEX_POINT('',#399);
#401=CARTESIAN_POINT('',(0.749999999999999,3.749999999999999,4.996004E-016));
#402=VERTEX_POINT('',#401);
#403=CARTESIAN_POINT('',(2.249999999999999,0.750000000000001,8.604228E-016));
#404=DIRECTION('',(-0.447213595499958,0.894427190999916,-1.075765E-016));
#405=VECTOR('',#404,3.354101966249683);
#406=LINE('',#403,#405);
#407=EDGE_CURVE('',#400,#402,#406,.T.);
#408=ORIENTED_EDGE('',*,*,#407,.T.);
#409=CARTESIAN_POINT('',(0.749999999999999,3.749999999999999,0.250000000000000));
#410=VERTEX_POINT('',#409);
#411=CARTESIAN_POINT('',(0.749999999999999,3.749999999999999,0.250000000000000));
#412=DIRECTION('',(0.0,0.0,-1.0));
#413=VECTOR('',#412,0.249999999999999);
#414=LINE('',#411,#413);
#415=EDGE_CURVE('',#410,#402,#414,.T.);
#416=ORIENTED_EDGE('',*,*,#415,.F.);
#417=CARTESIAN_POINT('',(2.249999999999999,0.750000000000001,0.250000000000001));
#418=VERTEX_POINT('',#417);
#419=CARTESIAN_POINT('',(0.749999999999999,3.749999999999999,0.250000000000000));
#420=DIRECTION('',(0.447213595499958,-0.894427190999916,3.475548E-016));
#421=VECTOR('',#420,3.354101966249683);
#422=LINE('',#419,#421);
#423=EDGE_CURVE('',#410,#418,#422,.T.);
#424=ORIENTED_EDGE('',*,*,#423,.T.);
#425=CARTESIAN_POINT('',(2.249999999999999,0.750000000000001,0.250000000000001));
#426=DIRECTION('',(0.0,0.0,-1.0));
#427=VECTOR('',#426,0.250000000000000);
#428=LINE('',#425,#427);
#429=EDGE_CURVE('',#418,#400,#428,.T.);
#430=ORIENTED_EDGE('',*,*,#429,.T.);
#431=EDGE_LOOP('',(#408,#416,#424,#430));
#432=FACE_OUTER_BOUND('',#431,.T.);
#433=ADVANCED_FACE('',(#432),#398,.T.);
#434=CARTESIAN_POINT('',(0.749999999999999,3.749999999999999,0.250000000000000));
#435=DIRECTION('',(0.0,1.0,0.0));
#436=DIRECTION('',(0.0,0.0,1.0));
#437=AXIS2_PLACEMENT_3D('',#434,#435,#436);
#438=PLANE('',#437);
#439=CARTESIAN_POINT('',(-0.750000000000001,3.750000000000001,9.436896E-016));
#440=VERTEX_POINT('',#439);
#441=CARTESIAN_POINT('',(0.749999999999999,3.749999999999999,4.996004E-016));
#442=DIRECTION('',(-1.0,0.0,0.0));
#443=VECTOR('',#442,1.500000000000000);
#444=LINE('',#441,#443);
#445=EDGE_CURVE('',#402,#440,#444,.T.);
#446=ORIENTED_EDGE('',*,*,#445,.T.);
#447=CARTESIAN_POINT('',(-0.750000000000001,3.750000000000001,0.249999999999999));
#448=VERTEX_POINT('',#447);
#449=CARTESIAN_POINT('',(-0.750000000000001,3.750000000000001,0.249999999999999));
#450=DIRECTION('',(0.0,0.0,-1.0));
#451=VECTOR('',#450,0.249999999999998);
#452=LINE('',#449,#451);
#453=EDGE_CURVE('',#448,#440,#452,.T.);
#454=ORIENTED_EDGE('',*,*,#453,.F.);
#455=CARTESIAN_POINT('',(-0.750000000000001,3.750000000000001,0.249999999999999));
#456=DIRECTION('',(1.0,0.0,0.0));
#457=VECTOR('',#456,1.500000000000000);
#458=LINE('',#455,#457);
#459=EDGE_CURVE('',#448,#410,#458,.T.);
#460=ORIENTED_EDGE('',*,*,#459,.T.);
#461=ORIENTED_EDGE('',*,*,#415,.T.);
#462=EDGE_LOOP('',(#446,#454,#460,#461));
#463=FACE_OUTER_BOUND('',#462,.T.);
#464=ADVANCED_FACE('',(#463),#438,.T.);
#465=CARTESIAN_POINT('',(-0.750000000000001,3.750000000000001,0.249999999999999));
#466=DIRECTION('',(-1.0,0.0,0.0));
#467=DIRECTION('',(0.0,-1.0,0.0));
#468=AXIS2_PLACEMENT_3D('',#465,#466,#467);
#469=PLANE('',#468);
#470=CARTESIAN_POINT('',(-0.750000000000001,-0.749999999999999,2.109424E-015));
#471=VERTEX_POINT('',#470);
#472=CARTESIAN_POINT('',(-0.750000000000001,3.750000000000001,9.436896E-016));
#473=DIRECTION('',(0.0,-1.0,0.0));
#474=VECTOR('',#473,4.500000000000000);
#475=LINE('',#472,#474);
#476=EDGE_CURVE('',#440,#471,#475,.T.);
#477=ORIENTED_EDGE('',*,*,#476,.T.);
#478=CARTESIAN_POINT('',(-0.750000000000001,-0.749999999999999,0.250000000000001));
#479=VERTEX_POINT('',#478);
#480=CARTESIAN_POINT('',(-0.750000000000001,-0.749999999999999,0.250000000000001));
#481=DIRECTION('',(0.0,0.0,-1.0));
#482=VECTOR('',#481,0.249999999999998);
#483=LINE('',#480,#482);
#484=EDGE_CURVE('',#479,#471,#483,.T.);
#485=ORIENTED_EDGE('',*,*,#484,.F.);
#486=CARTESIAN_POINT('',(-0.750000000000001,-0.749999999999999,0.250000000000001));
#487=DIRECTION('',(0.0,1.0,0.0));
#488=VECTOR('',#487,4.500000000000000);
#489=LINE('',#486,#488);
#490=EDGE_CURVE('',#479,#448,#489,.T.);
#491=ORIENTED_EDGE('',*,*,#490,.T.);
#492=ORIENTED_EDGE('',*,*,#453,.T.);
#493=EDGE_LOOP('',(#477,#485,#491,#492));
#494=FACE_OUTER_BOUND('',#493,.T.);
#495=ADVANCED_FACE('',(#494),#469,.T.);
#496=CARTESIAN_POINT('',(-0.750000000000001,-0.749999999999999,0.250000000000001));
#497=DIRECTION('',(0.0,-1.0,0.0));
#498=DIRECTION('',(0.0,0.0,-1.0));
#499=AXIS2_PLACEMENT_3D('',#496,#497,#498);
#500=PLANE('',#499);
#501=CARTESIAN_POINT('',(2.249999999999999,-0.749999999999999,1.249001E-015));
#502=VERTEX_POINT('',#501);
#503=CARTESIAN_POINT('',(-0.750000000000001,-0.749999999999999,2.109424E-015));
#504=DIRECTION('',(1.0,0.0,0.0));
#505=VECTOR('',#504,3.0);
#506=LINE('',#503,#505);
#507=EDGE_CURVE('',#471,#502,#506,.T.);
#508=ORIENTED_EDGE('',*,*,#507,.T.);
#509=CARTESIAN_POINT('',(2.249999999999999,-0.749999999999999,0.250000000000001));
#510=VERTEX_POINT('',#509);
#511=CARTESIAN_POINT('',(2.249999999999999,-0.749999999999999,0.250000000000001));
#512=DIRECTION('',(0.0,0.0,-1.0));
#513=VECTOR('',#512,0.250000000000000);
#514=LINE('',#511,#513);
#515=EDGE_CURVE('',#510,#502,#514,.T.);
#516=ORIENTED_EDGE('',*,*,#515,.F.);
#517=CARTESIAN_POINT('',(2.249999999999999,-0.749999999999999,0.250000000000001));
#518=DIRECTION('',(-1.0,0.0,0.0));
#519=VECTOR('',#518,3.0);
#520=LINE('',#517,#519);
#521=EDGE_CURVE('',#510,#479,#520,.T.);
#522=ORIENTED_EDGE('',*,*,#521,.T.);
#523=ORIENTED_EDGE('',*,*,#484,.T.);
#524=EDGE_LOOP('',(#508,#516,#522,#523));
#525=FACE_OUTER_BOUND('',#524,.T.);
#526=ADVANCED_FACE('',(#525),#500,.T.);
#527=CARTESIAN_POINT('',(2.249999999999999,-0.749999999999999,0.250000000000001));
#528=DIRECTION('',(1.0,0.0,0.0));
#529=DIRECTION('',(0.0,1.0,0.0));
#530=AXIS2_PLACEMENT_3D('',#527,#528,#529);
#531=PLANE('',#530);
#532=CARTESIAN_POINT('',(2.249999999999999,-0.749999999999999,1.249001E-015));
#533=DIRECTION('',(0.0,1.0,0.0));
#534=VECTOR('',#533,1.500000000000000);
#535=LINE('',#532,#534);
#536=EDGE_CURVE('',#502,#400,#535,.T.);
#537=ORIENTED_EDGE('',*,*,#536,.T.);
#538=ORIENTED_EDGE('',*,*,#429,.F.);
#539=CARTESIAN_POINT('',(2.249999999999999,0.750000000000001,0.250000000000001));
#540=DIRECTION('',(0.0,-1.0,0.0));
#541=VECTOR('',#540,1.500000000000000);
#542=LINE('',#539,#541);
#543=EDGE_CURVE('',#418,#510,#542,.T.);
#544=ORIENTED_EDGE('',*,*,#543,.T.);
#545=ORIENTED_EDGE('',*,*,#515,.T.);
#546=EDGE_LOOP('',(#537,#538,#544,#545));
#547=FACE_OUTER_BOUND('',#546,.T.);
#548=ADVANCED_FACE('',(#547),#531,.T.);
#549=CARTESIAN_POINT('',(0.749999999999999,1.350000000000001,0.250000000000000));
#550=DIRECTION('',(0.0,0.0,1.0));
#551=DIRECTION('',(0.0,-1.0,0.0));
#552=AXIS2_PLACEMENT_3D('',#549,#550,#551);
#553=PLANE('',#552);
#554=ORIENTED_EDGE('',*,*,#543,.F.);
#555=ORIENTED_EDGE('',*,*,#423,.F.);
#556=ORIENTED_EDGE('',*,*,#459,.F.);
#557=ORIENTED_EDGE('',*,*,#490,.F.);
#558=ORIENTED_EDGE('',*,*,#521,.F.);
#559=EDGE_LOOP('',(#554,#555,#556,#557,#558));
#560=FACE_OUTER_BOUND('',#559,.T.);
#561=ORIENTED_EDGE('',*,*,#317,.T.);
#562=ORIENTED_EDGE('',*,*,#278,.T.);
#563=EDGE_LOOP('',(#561,#562));
#564=FACE_BOUND('',#563,.T.);
#565=ORIENTED_EDGE('',*,*,#341,.T.);
#566=ORIENTED_EDGE('',*,*,#236,.T.);
#567=EDGE_LOOP('',(#565,#566));
#568=FACE_BOUND('',#567,.T.);
#569=ORIENTED_EDGE('',*,*,#365,.T.);
#570=ORIENTED_EDGE('',*,*,#194,.T.);
#571=EDGE_LOOP('',(#569,#570));
#572=FACE_BOUND('',#571,.T.);
#573=ORIENTED_EDGE('',*,*,#389,.T.);
#574=ORIENTED_EDGE('',*,*,#152,.T.);
#575=EDGE_LOOP('',(#573,#574));
#576=FACE_BOUND('',#575,.T.);
#577=ADVANCED_FACE('',(#560,#564,#568,#572,#576),#553,.T.);
#578=CARTESIAN_POINT('',(2.249999999999999,0.750000000000001,8.604228E-016));
#579=DIRECTION('',(0.0,0.0,1.0));
#580=DIRECTION('',(0.0,-1.0,0.0));
#581=AXIS2_PLACEMENT_3D('',#578,#579,#580);
#582=PLANE('',#581);
#583=ORIENTED_EDGE('',*,*,#407,.F.);
#584=ORIENTED_EDGE('',*,*,#536,.F.);
#585=ORIENTED_EDGE('',*,*,#507,.F.);
#586=ORIENTED_EDGE('',*,*,#476,.F.);
#587=ORIENTED_EDGE('',*,*,#445,.F.);
#588=EDGE_LOOP('',(#583,#584,#585,#586,#587));
#589=FACE_OUTER_BOUND('',#588,.T.);
#590=ORIENTED_EDGE('',*,*,#293,.T.);
#591=ORIENTED_EDGE('',*,*,#309,.T.);
#592=EDGE_LOOP('',(#590,#591));
#593=FACE_BOUND('',#592,.T.);
#594=ORIENTED_EDGE('',*,*,#251,.T.);
#595=ORIENTED_EDGE('',*,*,#333,.T.);
#596=EDGE_LOOP('',(#594,#595));
#597=FACE_BOUND('',#596,.T.);
#598=ORIENTED_EDGE('',*,*,#209,.T.);
#599=ORIENTED_EDGE('',*,*,#357,.T.);
#600=EDGE_LOOP('',(#598,#599));
#601=FACE_BOUND('',#600,.T.);
#602=ORIENTED_EDGE('',*,*,#167,.T.);
#603=ORIENTED_EDGE('',*,*,#381,.T.);
#604=EDGE_LOOP('',(#602,#603));
#605=FACE_BOUND('',#604,.T.);
#606=ADVANCED_FACE('',(#589,#593,#597,#601,#605),#582,.F.);
#607=CLOSED_SHELL('',(#171,#213,#255,#297,#321,#345,#369,#393,#433,#464,#495,#526,#548,#577,#606));
#608=MANIFOLD_SOLID_BREP('30',#607);
#609=ADVANCED_BREP_SHAPE_REPRESENTATION('ABSR1',(#608),#33);
#610=SHAPE_REPRESENTATION_RELATIONSHIP('SRRPL1',' ',#609,#127);
ENDSEC;
END-ISO-10303-21;
