ISO-10303-21;
HEADER;
/****************************************************************
 * Generated by software with PDE/Lib inside                    *
 * PDE/Lib Version 3.2.2, created Thu Mar 23, 2000 at 18:38:49  *
 * International Technegroup Inc. (www.iti-oh.com)              *
 ****************************************************************/
FILE_DESCRIPTION((''),'2;1');
FILE_NAME('15JP4501.stp','2006-03-13T15:32:13',('Shawn Mantel'),('Faztek, LLC'),'Mechanical Desktop 2005','Mechanical Desktop 2005',', , ');
FILE_SCHEMA(('CONFIG_CONTROL_DESIGN'));
ENDSEC;
DATA;
#8=(NAMED_UNIT(*)PLANE_ANGLE_UNIT()SI_UNIT($,.RADIAN.));
#9=DIMENSIONAL_EXPONENTS(0.0,0.0,0.0,0.0,0.0,0.0,0.0);
#10=PLANE_ANGLE_MEASURE_WITH_UNIT(PLANE_ANGLE_MEASURE(0.017453292500000),#8);
#14=(CONVERSION_BASED_UNIT('DEGREE',#10)NAMED_UNIT(#9)PLANE_ANGLE_UNIT());
#18=(NAMED_UNIT(*)SI_UNIT($,.STERADIAN.)SOLID_ANGLE_UNIT());
#20=DIMENSIONAL_EXPONENTS(1.0,0.0,0.0,0.0,0.0,0.0,0.0);
#24=(LENGTH_UNIT()NAMED_UNIT(*)SI_UNIT(.MILLI.,.METRE.));
#25=LENGTH_MEASURE_WITH_UNIT(LENGTH_MEASURE(25.399999999999999),#24);
#27=(CONVERSION_BASED_UNIT('INCH',#25)LENGTH_UNIT()NAMED_UNIT(#20));
#28=UNCERTAINTY_MEASURE_WITH_UNIT(LENGTH_MEASURE(0.000001000000000),#27,'DISTANCE_ACCURACY_VALUE','');
#33=(GEOMETRIC_REPRESENTATION_CONTEXT(3)GLOBAL_UNCERTAINTY_ASSIGNED_CONTEXT((#28))GLOBAL_UNIT_ASSIGNED_CONTEXT((#14,#18,#27))REPRESENTATION_CONTEXT('None','None'));
#34=APPLICATION_CONTEXT('CONFIGURATION CONTROLLED 3D DESIGNS OF MECHANICAL PARTS AND ASSEMBLIES');
#35=APPLICATION_PROTOCOL_DEFINITION('INTERNATIONAL STANDARD','config_control_design',1995,#34);
#36=MECHANICAL_CONTEXT('3D Mechanical Parts',#34,'mechanical');
#37=PRODUCT('Product','Product',' ',(#36));
#38=PRODUCT_RELATED_PRODUCT_CATEGORY('detail',$,(#37));
#39=PRODUCT_CATEGORY('part',$);
#40=PRODUCT_CATEGORY_RELATIONSHIP('None','None',#39,#38);
#41=PERSON('1','Design','Joe',$,$,$);
#42=ORGANIZATION($,'None','None');
#43=PERSON_AND_ORGANIZATION(#41,#42);
#44=PERSON_AND_ORGANIZATION_ROLE('design_owner');
#45=CC_DESIGN_PERSON_AND_ORGANIZATION_ASSIGNMENT(#43,#44,(#37));
#46=PRODUCT_DEFINITION_FORMATION_WITH_SPECIFIED_SOURCE('None','None',#37,.NOT_KNOWN.);
#47=PERSON('2','Creator','Joe',$,$,$);
#48=ORGANIZATION($,'None','None');
#49=PERSON_AND_ORGANIZATION(#47,#48);
#50=PERSON_AND_ORGANIZATION_ROLE('creator');
#51=CC_DESIGN_PERSON_AND_ORGANIZATION_ASSIGNMENT(#49,#50,(#46));
#52=PERSON('3','Supplier','Joe',$,$,$);
#53=ORGANIZATION($,'None','None');
#54=PERSON_AND_ORGANIZATION(#52,#53);
#55=PERSON_AND_ORGANIZATION_ROLE('design_supplier');
#56=CC_DESIGN_PERSON_AND_ORGANIZATION_ASSIGNMENT(#54,#55,(#46));
#57=APPROVAL_STATUS('approved');
#58=APPROVAL(#57,'None');
#59=PERSON('4','Approver','Joe',$,$,$);
#60=ORGANIZATION($,'None','None');
#61=PERSON_AND_ORGANIZATION(#59,#60);
#62=APPROVAL_ROLE('approver');
#63=APPROVAL_PERSON_ORGANIZATION(#61,#58,#62);
#64=COORDINATED_UNIVERSAL_TIME_OFFSET(8,$,.BEHIND.);
#65=CALENDAR_DATE(1996,29,5);
#66=LOCAL_TIME(12,0,0.0,#64);
#67=DATE_AND_TIME(#65,#66);
#68=APPROVAL_DATE_TIME(#67,#58);
#69=CC_DESIGN_APPROVAL(#58,(#46));
#70=SECURITY_CLASSIFICATION_LEVEL('unclassified');
#71=SECURITY_CLASSIFICATION('security','None',#70);
#72=CC_DESIGN_SECURITY_CLASSIFICATION(#71,(#46));
#73=APPROVAL_STATUS('approved');
#74=APPROVAL(#73,'None');
#75=PERSON('5','Approver','Joe',$,$,$);
#76=ORGANIZATION($,'None','None');
#77=PERSON_AND_ORGANIZATION(#75,#76);
#78=APPROVAL_ROLE('approver');
#79=APPROVAL_PERSON_ORGANIZATION(#77,#74,#78);
#80=COORDINATED_UNIVERSAL_TIME_OFFSET(8,$,.BEHIND.);
#81=CALENDAR_DATE(1996,29,5);
#82=LOCAL_TIME(12,0,0.0,#80);
#83=DATE_AND_TIME(#81,#82);
#84=APPROVAL_DATE_TIME(#83,#74);
#85=CC_DESIGN_APPROVAL(#74,(#71));
#86=PERSON('6','Classifier','Joe',$,$,$);
#87=ORGANIZATION($,'None','None');
#88=PERSON_AND_ORGANIZATION(#86,#87);
#89=PERSON_AND_ORGANIZATION_ROLE('classification_officer');
#90=CC_DESIGN_PERSON_AND_ORGANIZATION_ASSIGNMENT(#88,#89,(#71));
#91=COORDINATED_UNIVERSAL_TIME_OFFSET(8,$,.BEHIND.);
#92=CALENDAR_DATE(1996,29,5);
#93=LOCAL_TIME(12,0,0.0,#91);
#94=DATE_AND_TIME(#92,#93);
#95=DATE_TIME_ROLE('classification_date');
#96=CC_DESIGN_DATE_AND_TIME_ASSIGNMENT(#94,#95,(#71));
#97=DESIGN_CONTEXT('Design Context',#34,'design');
#98=PRODUCT_DEFINITION('None','None',#46,#97);
#99=PERSON('7','Creator','Joe',$,$,$);
#100=ORGANIZATION($,'None','None');
#101=PERSON_AND_ORGANIZATION(#99,#100);
#102=PERSON_AND_ORGANIZATION_ROLE('creator');
#103=CC_DESIGN_PERSON_AND_ORGANIZATION_ASSIGNMENT(#101,#102,(#98));
#104=COORDINATED_UNIVERSAL_TIME_OFFSET(8,$,.BEHIND.);
#105=CALENDAR_DATE(1996,29,5);
#106=LOCAL_TIME(12,0,0.0,#104);
#107=DATE_AND_TIME(#105,#106);
#108=DATE_TIME_ROLE('creation_date');
#109=CC_DESIGN_DATE_AND_TIME_ASSIGNMENT(#107,#108,(#98));
#110=APPROVAL_STATUS('approved');
#111=APPROVAL(#110,'None');
#112=PERSON('8','Approver','Joe',$,$,$);
#113=ORGANIZATION($,'None','None');
#114=PERSON_AND_ORGANIZATION(#112,#113);
#115=APPROVAL_ROLE('approver');
#116=APPROVAL_PERSON_ORGANIZATION(#114,#111,#115);
#117=COORDINATED_UNIVERSAL_TIME_OFFSET(8,$,.BEHIND.);
#118=CALENDAR_DATE(1996,29,5);
#119=LOCAL_TIME(12,0,0.0,#117);
#120=DATE_AND_TIME(#118,#119);
#121=APPROVAL_DATE_TIME(#120,#111);
#122=CC_DESIGN_APPROVAL(#111,(#98));
#123=CARTESIAN_POINT('NONE',(0.0,0.0,0.0));
#124=DIRECTION('NONE',(0.0,0.0,1.0));
#125=DIRECTION('NONE',(1.0,0.0,0.0));
#126=AXIS2_PLACEMENT_3D('NONE',#123,#124,#125);
#127=SHAPE_REPRESENTATION('SR1',(#126),#33);
#128=PRODUCT_DEFINITION_SHAPE('PDS1','Test Part',#98);
#129=SHAPE_DEFINITION_REPRESENTATION(#128,#127);
#130=CARTESIAN_POINT('',(1.500000000000000,-1.645141E-016,0.124999999999999));
#131=DIRECTION('',(-1.836910E-016,-1.037283E-015,-1.0));
#132=DIRECTION('',(1.0,0.0,0.0));
#133=AXIS2_PLACEMENT_3D('',#130,#131,#132);
#134=CYLINDRICAL_SURFACE('',#133,0.171875000000000);
#135=CARTESIAN_POINT('',(1.671875000000000,-3.071083E-016,-6.956864E-016));
#136=VERTEX_POINT('',#135);
#137=CARTESIAN_POINT('',(1.671875000000000,2.595860E-017,0.249999999999999));
#138=VERTEX_POINT('',#137);
#139=CARTESIAN_POINT('',(1.671875000000000,-3.071083E-016,-6.956864E-016));
#140=DIRECTION('',(0.0,0.0,1.0));
#141=VECTOR('',#140,0.250000000000000);
#142=LINE('',#139,#141);
#143=EDGE_CURVE('',#136,#138,#142,.T.);
#144=ORIENTED_EDGE('',*,*,#143,.F.);
#145=CARTESIAN_POINT('',(1.328125000000000,-2.836506E-016,-2.459839E-016));
#146=VERTEX_POINT('',#145);
#147=CARTESIAN_POINT('',(1.500000000000000,-2.755364E-016,-2.755364E-016));
#148=DIRECTION('',(0.0,0.0,1.0));
#149=DIRECTION('',(1.0,0.0,0.0));
#150=AXIS2_PLACEMENT_3D('',#147,#148,#149);
#151=CIRCLE('',#150,0.171875000000000);
#152=EDGE_CURVE('',#146,#136,#151,.T.);
#153=ORIENTED_EDGE('',*,*,#152,.F.);
#154=CARTESIAN_POINT('',(1.328125000000000,-2.432975E-017,0.250000000000000));
#155=VERTEX_POINT('',#154);
#156=CARTESIAN_POINT('',(1.328125000000000,-2.432975E-017,0.250000000000000));
#157=DIRECTION('',(0.0,0.0,-1.0));
#158=VECTOR('',#157,0.250000000000000);
#159=LINE('',#156,#158);
#160=EDGE_CURVE('',#155,#146,#159,.T.);
#161=ORIENTED_EDGE('',*,*,#160,.F.);
#162=CARTESIAN_POINT('',(1.500000000000000,5.753048E-017,0.250000000000000));
#163=DIRECTION('',(0.0,0.0,-1.0));
#164=DIRECTION('',(1.0,0.0,0.0));
#165=AXIS2_PLACEMENT_3D('',#162,#163,#164);
#166=CIRCLE('',#165,0.171875000000000);
#167=EDGE_CURVE('',#138,#155,#166,.T.);
#168=ORIENTED_EDGE('',*,*,#167,.F.);
#169=EDGE_LOOP('',(#144,#153,#161,#168));
#170=FACE_OUTER_BOUND('',#169,.T.);
#171=ADVANCED_FACE('',(#170),#134,.F.);
#172=CARTESIAN_POINT('',(-3.330669E-016,-2.220446E-016,0.125000000000000));
#173=DIRECTION('',(-1.836910E-016,-1.037283E-015,-1.0));
#174=DIRECTION('',(1.0,0.0,0.0));
#175=AXIS2_PLACEMENT_3D('',#172,#173,#174);
#176=CYLINDRICAL_SURFACE('',#175,0.171875000000000);
#177=CARTESIAN_POINT('',(0.171875000000000,-3.646388E-016,-4.201499E-016));
#178=VERTEX_POINT('',#177);
#179=CARTESIAN_POINT('',(0.171875000000000,-3.157188E-017,0.250000000000000));
#180=VERTEX_POINT('',#179);
#181=CARTESIAN_POINT('',(0.171875000000000,-3.646388E-016,-4.201499E-016));
#182=DIRECTION('',(0.0,0.0,1.0));
#183=VECTOR('',#182,0.250000000000000);
#184=LINE('',#181,#183);
#185=EDGE_CURVE('',#178,#180,#184,.T.);
#186=ORIENTED_EDGE('',*,*,#185,.F.);
#187=CARTESIAN_POINT('',(-0.171875000000000,-3.411811E-016,3.157188E-017));
#188=VERTEX_POINT('',#187);
#189=CARTESIAN_POINT('',(-3.330669E-016,-3.330669E-016,0.0));
#190=DIRECTION('',(0.0,0.0,1.0));
#191=DIRECTION('',(1.0,0.0,0.0));
#192=AXIS2_PLACEMENT_3D('',#189,#190,#191);
#193=CIRCLE('',#192,0.171875000000000);
#194=EDGE_CURVE('',#188,#178,#193,.T.);
#195=ORIENTED_EDGE('',*,*,#194,.F.);
#196=CARTESIAN_POINT('',(-0.171875000000000,-8.186023E-017,0.250000000000000));
#197=VERTEX_POINT('',#196);
#198=CARTESIAN_POINT('',(-0.171875000000000,-8.186023E-017,0.250000000000000));
#199=DIRECTION('',(0.0,0.0,-1.0));
#200=VECTOR('',#199,0.250000000000000);
#201=LINE('',#198,#200);
#202=EDGE_CURVE('',#197,#188,#201,.T.);
#203=ORIENTED_EDGE('',*,*,#202,.F.);
#204=CARTESIAN_POINT('',(-3.330669E-016,0.0,0.250000000000000));
#205=DIRECTION('',(0.0,0.0,-1.0));
#206=DIRECTION('',(1.0,0.0,0.0));
#207=AXIS2_PLACEMENT_3D('',#204,#205,#206);
#208=CIRCLE('',#207,0.171875000000000);
#209=EDGE_CURVE('',#180,#197,#208,.T.);
#210=ORIENTED_EDGE('',*,*,#209,.F.);
#211=EDGE_LOOP('',(#186,#195,#203,#210));
#212=FACE_OUTER_BOUND('',#211,.T.);
#213=ADVANCED_FACE('',(#212),#176,.F.);
#214=CARTESIAN_POINT('',(-3.330669E-016,-2.220446E-016,0.125000000000000));
#215=DIRECTION('',(-1.836910E-016,-1.037283E-015,-1.0));
#216=DIRECTION('',(1.0,0.0,0.0));
#217=AXIS2_PLACEMENT_3D('',#214,#215,#216);
#218=CYLINDRICAL_SURFACE('',#217,0.171875000000000);
#219=ORIENTED_EDGE('',*,*,#185,.T.);
#220=CARTESIAN_POINT('',(-3.330669E-016,0.0,0.250000000000000));
#221=DIRECTION('',(0.0,0.0,-1.0));
#222=DIRECTION('',(1.0,0.0,0.0));
#223=AXIS2_PLACEMENT_3D('',#220,#221,#222);
#224=CIRCLE('',#223,0.171875000000000);
#225=EDGE_CURVE('',#197,#180,#224,.T.);
#226=ORIENTED_EDGE('',*,*,#225,.F.);
#227=ORIENTED_EDGE('',*,*,#202,.T.);
#228=CARTESIAN_POINT('',(-3.330669E-016,-3.330669E-016,0.0));
#229=DIRECTION('',(0.0,0.0,1.0));
#230=DIRECTION('',(1.0,0.0,0.0));
#231=AXIS2_PLACEMENT_3D('',#228,#229,#230);
#232=CIRCLE('',#231,0.171875000000000);
#233=EDGE_CURVE('',#178,#188,#232,.T.);
#234=ORIENTED_EDGE('',*,*,#233,.F.);
#235=EDGE_LOOP('',(#219,#226,#227,#234));
#236=FACE_OUTER_BOUND('',#235,.T.);
#237=ADVANCED_FACE('',(#236),#218,.F.);
#238=CARTESIAN_POINT('',(1.500000000000000,-1.645141E-016,0.124999999999999));
#239=DIRECTION('',(-1.836910E-016,-1.037283E-015,-1.0));
#240=DIRECTION('',(1.0,0.0,0.0));
#241=AXIS2_PLACEMENT_3D('',#238,#239,#240);
#242=CYLINDRICAL_SURFACE('',#241,0.171875000000000);
#243=ORIENTED_EDGE('',*,*,#143,.T.);
#244=CARTESIAN_POINT('',(1.500000000000000,5.753048E-017,0.250000000000000));
#245=DIRECTION('',(0.0,0.0,-1.0));
#246=DIRECTION('',(1.0,0.0,0.0));
#247=AXIS2_PLACEMENT_3D('',#244,#245,#246);
#248=CIRCLE('',#247,0.171875000000000);
#249=EDGE_CURVE('',#155,#138,#248,.T.);
#250=ORIENTED_EDGE('',*,*,#249,.F.);
#251=ORIENTED_EDGE('',*,*,#160,.T.);
#252=CARTESIAN_POINT('',(1.500000000000000,-2.755364E-016,-2.755364E-016));
#253=DIRECTION('',(0.0,0.0,1.0));
#254=DIRECTION('',(1.0,0.0,0.0));
#255=AXIS2_PLACEMENT_3D('',#252,#253,#254);
#256=CIRCLE('',#255,0.171875000000000);
#257=EDGE_CURVE('',#136,#146,#256,.T.);
#258=ORIENTED_EDGE('',*,*,#257,.F.);
#259=EDGE_LOOP('',(#243,#250,#251,#258));
#260=FACE_OUTER_BOUND('',#259,.T.);
#261=ADVANCED_FACE('',(#260),#242,.F.);
#262=CARTESIAN_POINT('',(-0.750000000000000,0.745000000000000,-4.717442E-016));
#263=DIRECTION('',(0.0,1.0,0.0));
#264=DIRECTION('',(1.0,0.0,0.0));
#265=AXIS2_PLACEMENT_3D('',#262,#263,#264);
#266=PLANE('',#265);
#267=CARTESIAN_POINT('',(-0.750000000000000,0.745000000000000,0.250000000000000));
#268=VERTEX_POINT('',#267);
#269=CARTESIAN_POINT('',(2.250000000000001,0.744999999999999,0.249999999999999));
#270=VERTEX_POINT('',#269);
#271=CARTESIAN_POINT('',(-0.750000000000000,0.745000000000000,0.250000000000000));
#272=DIRECTION('',(1.0,0.0,0.0));
#273=VECTOR('',#272,3.000000000000001);
#274=LINE('',#271,#273);
#275=EDGE_CURVE('',#268,#270,#274,.T.);
#276=ORIENTED_EDGE('',*,*,#275,.T.);
#277=CARTESIAN_POINT('',(2.250000000000001,0.744999999999999,-1.022817E-015));
#278=VERTEX_POINT('',#277);
#279=CARTESIAN_POINT('',(2.250000000000001,0.744999999999999,-1.022817E-015));
#280=DIRECTION('',(0.0,0.0,1.0));
#281=VECTOR('',#280,0.250000000000000);
#282=LINE('',#279,#281);
#283=EDGE_CURVE('',#278,#270,#282,.T.);
#284=ORIENTED_EDGE('',*,*,#283,.F.);
#285=CARTESIAN_POINT('',(-0.750000000000000,0.745000000000000,-4.717442E-016));
#286=VERTEX_POINT('',#285);
#287=CARTESIAN_POINT('',(2.250000000000001,0.744999999999999,-1.022817E-015));
#288=DIRECTION('',(-1.0,0.0,0.0));
#289=VECTOR('',#288,3.000000000000001);
#290=LINE('',#287,#289);
#291=EDGE_CURVE('',#278,#286,#290,.T.);
#292=ORIENTED_EDGE('',*,*,#291,.T.);
#293=CARTESIAN_POINT('',(-0.750000000000000,0.745000000000000,-4.717442E-016));
#294=DIRECTION('',(0.0,0.0,1.0));
#295=VECTOR('',#294,0.250000000000000);
#296=LINE('',#293,#295);
#297=EDGE_CURVE('',#286,#268,#296,.T.);
#298=ORIENTED_EDGE('',*,*,#297,.T.);
#299=EDGE_LOOP('',(#276,#284,#292,#298));
#300=FACE_OUTER_BOUND('',#299,.T.);
#301=ADVANCED_FACE('',(#300),#266,.T.);
#302=CARTESIAN_POINT('',(2.250000000000001,0.744999999999999,-1.022817E-015));
#303=DIRECTION('',(1.0,0.0,0.0));
#304=DIRECTION('',(0.0,0.0,-1.0));
#305=AXIS2_PLACEMENT_3D('',#302,#303,#304);
#306=PLANE('',#305);
#307=CARTESIAN_POINT('',(2.250000000000000,-0.745000000000000,0.249999999999999));
#308=VERTEX_POINT('',#307);
#309=CARTESIAN_POINT('',(2.250000000000001,0.744999999999999,0.249999999999999));
#310=DIRECTION('',(0.0,-1.0,0.0));
#311=VECTOR('',#310,1.489999999999999);
#312=LINE('',#309,#311);
#313=EDGE_CURVE('',#270,#308,#312,.T.);
#314=ORIENTED_EDGE('',*,*,#313,.T.);
#315=CARTESIAN_POINT('',(2.250000000000000,-0.745000000000000,1.962078E-016));
#316=VERTEX_POINT('',#315);
#317=CARTESIAN_POINT('',(2.250000000000000,-0.745000000000000,1.962078E-016));
#318=DIRECTION('',(0.0,0.0,1.0));
#319=VECTOR('',#318,0.249999999999999);
#320=LINE('',#317,#319);
#321=EDGE_CURVE('',#316,#308,#320,.T.);
#322=ORIENTED_EDGE('',*,*,#321,.F.);
#323=CARTESIAN_POINT('',(2.250000000000000,-0.745000000000000,1.962078E-016));
#324=DIRECTION('',(0.0,1.0,0.0));
#325=VECTOR('',#324,1.489999999999999);
#326=LINE('',#323,#325);
#327=EDGE_CURVE('',#316,#278,#326,.T.);
#328=ORIENTED_EDGE('',*,*,#327,.T.);
#329=ORIENTED_EDGE('',*,*,#283,.T.);
#330=EDGE_LOOP('',(#314,#322,#328,#329));
#331=FACE_OUTER_BOUND('',#330,.T.);
#332=ADVANCED_FACE('',(#331),#306,.T.);
#333=CARTESIAN_POINT('',(2.250000000000000,-0.745000000000000,1.962078E-016));
#334=DIRECTION('',(0.0,-1.0,0.0));
#335=DIRECTION('',(-1.0,0.0,0.0));
#336=AXIS2_PLACEMENT_3D('',#333,#334,#335);
#337=PLANE('',#336);
#338=CARTESIAN_POINT('',(-0.750000000000000,-0.745000000000000,0.250000000000000));
#339=VERTEX_POINT('',#338);
#340=CARTESIAN_POINT('',(2.250000000000000,-0.745000000000000,0.249999999999999));
#341=DIRECTION('',(-1.0,0.0,0.0));
#342=VECTOR('',#341,3.000000000000000);
#343=LINE('',#340,#342);
#344=EDGE_CURVE('',#308,#339,#343,.T.);
#345=ORIENTED_EDGE('',*,*,#344,.T.);
#346=CARTESIAN_POINT('',(-0.750000000000000,-0.745000000000000,7.472807E-016));
#347=VERTEX_POINT('',#346);
#348=CARTESIAN_POINT('',(-0.750000000000000,-0.745000000000000,7.472807E-016));
#349=DIRECTION('',(0.0,0.0,1.0));
#350=VECTOR('',#349,0.249999999999999);
#351=LINE('',#348,#350);
#352=EDGE_CURVE('',#347,#339,#351,.T.);
#353=ORIENTED_EDGE('',*,*,#352,.F.);
#354=CARTESIAN_POINT('',(-0.750000000000000,-0.745000000000000,7.472807E-016));
#355=DIRECTION('',(1.0,0.0,0.0));
#356=VECTOR('',#355,3.000000000000000);
#357=LINE('',#354,#356);
#358=EDGE_CURVE('',#347,#316,#357,.T.);
#359=ORIENTED_EDGE('',*,*,#358,.T.);
#360=ORIENTED_EDGE('',*,*,#321,.T.);
#361=EDGE_LOOP('',(#345,#353,#359,#360));
#362=FACE_OUTER_BOUND('',#361,.T.);
#363=ADVANCED_FACE('',(#362),#337,.T.);
#364=CARTESIAN_POINT('',(-0.750000000000000,-0.745000000000000,7.472807E-016));
#365=DIRECTION('',(-1.0,0.0,0.0));
#366=DIRECTION('',(0.0,0.0,1.0));
#367=AXIS2_PLACEMENT_3D('',#364,#365,#366);
#368=PLANE('',#367);
#369=CARTESIAN_POINT('',(-0.750000000000000,-0.745000000000000,0.250000000000000));
#370=DIRECTION('',(0.0,1.0,0.0));
#371=VECTOR('',#370,1.490000000000000);
#372=LINE('',#369,#371);
#373=EDGE_CURVE('',#339,#268,#372,.T.);
#374=ORIENTED_EDGE('',*,*,#373,.T.);
#375=ORIENTED_EDGE('',*,*,#297,.F.);
#376=CARTESIAN_POINT('',(-0.750000000000000,0.745000000000000,-4.717442E-016));
#377=DIRECTION('',(0.0,-1.0,0.0));
#378=VECTOR('',#377,1.490000000000000);
#379=LINE('',#376,#378);
#380=EDGE_CURVE('',#286,#347,#379,.T.);
#381=ORIENTED_EDGE('',*,*,#380,.T.);
#382=ORIENTED_EDGE('',*,*,#352,.T.);
#383=EDGE_LOOP('',(#374,#375,#381,#382));
#384=FACE_OUTER_BOUND('',#383,.T.);
#385=ADVANCED_FACE('',(#384),#368,.T.);
#386=CARTESIAN_POINT('',(0.750000000000000,-2.487905E-016,-1.377682E-016));
#387=DIRECTION('',(0.0,0.0,-1.0));
#388=DIRECTION('',(-1.0,0.0,0.0));
#389=AXIS2_PLACEMENT_3D('',#386,#387,#388);
#390=PLANE('',#389);
#391=ORIENTED_EDGE('',*,*,#380,.F.);
#392=ORIENTED_EDGE('',*,*,#291,.F.);
#393=ORIENTED_EDGE('',*,*,#327,.F.);
#394=ORIENTED_EDGE('',*,*,#358,.F.);
#395=EDGE_LOOP('',(#391,#392,#393,#394));
#396=FACE_OUTER_BOUND('',#395,.T.);
#397=ORIENTED_EDGE('',*,*,#233,.T.);
#398=ORIENTED_EDGE('',*,*,#194,.T.);
#399=EDGE_LOOP('',(#397,#398));
#400=FACE_BOUND('',#399,.T.);
#401=ORIENTED_EDGE('',*,*,#257,.T.);
#402=ORIENTED_EDGE('',*,*,#152,.T.);
#403=EDGE_LOOP('',(#401,#402));
#404=FACE_BOUND('',#403,.T.);
#405=ADVANCED_FACE('',(#396,#400,#404),#390,.T.);
#406=CARTESIAN_POINT('',(-0.750000000000000,0.745000000000000,0.250000000000000));
#407=DIRECTION('',(0.0,0.0,-1.0));
#408=DIRECTION('',(-1.0,0.0,0.0));
#409=AXIS2_PLACEMENT_3D('',#406,#407,#408);
#410=PLANE('',#409);
#411=ORIENTED_EDGE('',*,*,#275,.F.);
#412=ORIENTED_EDGE('',*,*,#373,.F.);
#413=ORIENTED_EDGE('',*,*,#344,.F.);
#414=ORIENTED_EDGE('',*,*,#313,.F.);
#415=EDGE_LOOP('',(#411,#412,#413,#414));
#416=FACE_OUTER_BOUND('',#415,.T.);
#417=ORIENTED_EDGE('',*,*,#209,.T.);
#418=ORIENTED_EDGE('',*,*,#225,.T.);
#419=EDGE_LOOP('',(#417,#418));
#420=FACE_BOUND('',#419,.T.);
#421=ORIENTED_EDGE('',*,*,#167,.T.);
#422=ORIENTED_EDGE('',*,*,#249,.T.);
#423=EDGE_LOOP('',(#421,#422));
#424=FACE_BOUND('',#423,.T.);
#425=ADVANCED_FACE('',(#416,#420,#424),#410,.F.);
#426=CLOSED_SHELL('',(#171,#213,#237,#261,#301,#332,#363,#385,#405,#425));
#427=MANIFOLD_SOLID_BREP('30',#426);
#428=ADVANCED_BREP_SHAPE_REPRESENTATION('ABSR1',(#427),#33);
#429=SHAPE_REPRESENTATION_RELATIONSHIP('SRRPL1',' ',#428,#127);
ENDSEC;
END-ISO-10303-21;
