ISO-10303-21;
HEADER;
/****************************************************************
 * Generated by software with PDElib inside                    *
 * PDElib Version v51a, created Fri 09/10/2010                  *
 * ITI Transcendata (http://www.transcendata.com/)              *
 ****************************************************************/
FILE_DESCRIPTION((''),'2;1');
FILE_NAME('15CB4801.stp','2015-07-20T13:27:34',(''),(''),'Mechanical Desktop 2011','Mechanical Desktop 2011',', , ');
FILE_SCHEMA(('CONFIG_CONTROL_DESIGN'));
ENDSEC;
DATA;
#10=(NAMED_UNIT(*)PLANE_ANGLE_UNIT()SI_UNIT($,.RADIAN.));
#11=DIMENSIONAL_EXPONENTS(0.0,0.0,0.0,0.0,0.0,0.0,0.0);
#12=PLANE_ANGLE_MEASURE_WITH_UNIT(PLANE_ANGLE_MEASURE(0.0174532925),#10);
#16=(CONVERSION_BASED_UNIT('DEGREE',#12)NAMED_UNIT(#11)PLANE_ANGLE_UNIT());
#20=(NAMED_UNIT(*)SI_UNIT($,.STERADIAN.)SOLID_ANGLE_UNIT());
#24=(LENGTH_UNIT()NAMED_UNIT(*)SI_UNIT(.MILLI.,.METRE.));
#26=UNCERTAINTY_MEASURE_WITH_UNIT(LENGTH_MEASURE(0.000001),#24,'DISTANCE_ACCURACY_VALUE','');
#28=(GEOMETRIC_REPRESENTATION_CONTEXT(3)GLOBAL_UNCERTAINTY_ASSIGNED_CONTEXT((#26))GLOBAL_UNIT_ASSIGNED_CONTEXT((#16,#20,#24))REPRESENTATION_CONTEXT('','3D'));
#29=APPLICATION_CONTEXT('CONFIGURATION CONTROLLED 3D DESIGNS OF MECHANICAL PARTS AND ASSEMBLIES');
#30=APPLICATION_PROTOCOL_DEFINITION('INTERNATIONAL STANDARD','config_control_design',1995,#29);
#31=MECHANICAL_CONTEXT('3D Mechanical Parts',#29,'mechanical');
#32=PRODUCT('Product','Product',' ',(#31));
#33=PRODUCT_RELATED_PRODUCT_CATEGORY('detail',$,(#32));
#34=PRODUCT_CATEGORY('part',$);
#35=PRODUCT_CATEGORY_RELATIONSHIP('None','None',#34,#33);
#36=PERSON('1','Design','Joe',$,$,$);
#37=ORGANIZATION($,'None','None');
#38=PERSON_AND_ORGANIZATION(#36,#37);
#39=PERSON_AND_ORGANIZATION_ROLE('design_owner');
#40=CC_DESIGN_PERSON_AND_ORGANIZATION_ASSIGNMENT(#38,#39,(#32));
#41=PRODUCT_DEFINITION_FORMATION_WITH_SPECIFIED_SOURCE('None','None',#32,.BOUGHT.);
#42=PERSON('2','Creator','Joe',$,$,$);
#43=ORGANIZATION($,'None','None');
#44=PERSON_AND_ORGANIZATION(#42,#43);
#45=PERSON_AND_ORGANIZATION_ROLE('creator');
#46=CC_DESIGN_PERSON_AND_ORGANIZATION_ASSIGNMENT(#44,#45,(#41));
#47=PERSON('3','Supplier','Joe',$,$,$);
#48=ORGANIZATION($,'None','None');
#49=PERSON_AND_ORGANIZATION(#47,#48);
#50=PERSON_AND_ORGANIZATION_ROLE('design_supplier');
#51=CC_DESIGN_PERSON_AND_ORGANIZATION_ASSIGNMENT(#49,#50,(#41));
#52=APPROVAL_STATUS('approved');
#53=APPROVAL(#52,'None');
#54=PERSON('4','Approver','Joe',$,$,$);
#55=ORGANIZATION($,'None','None');
#56=PERSON_AND_ORGANIZATION(#54,#55);
#57=APPROVAL_ROLE('approver');
#58=APPROVAL_PERSON_ORGANIZATION(#56,#53,#57);
#59=COORDINATED_UNIVERSAL_TIME_OFFSET(8,$,.EXACT.);
#60=CALENDAR_DATE(1996,29,5);
#61=LOCAL_TIME(12,0,0.0,#59);
#62=DATE_AND_TIME(#60,#61);
#63=APPROVAL_DATE_TIME(#62,#53);
#64=CC_DESIGN_APPROVAL(#53,(#41));
#65=SECURITY_CLASSIFICATION_LEVEL('unclassified');
#66=SECURITY_CLASSIFICATION('security','None',#65);
#67=CC_DESIGN_SECURITY_CLASSIFICATION(#66,(#41));
#68=APPROVAL_STATUS('approved');
#69=APPROVAL(#68,'None');
#70=PERSON('5','Approver','Joe',$,$,$);
#71=ORGANIZATION($,'None','None');
#72=PERSON_AND_ORGANIZATION(#70,#71);
#73=APPROVAL_ROLE('approver');
#74=APPROVAL_PERSON_ORGANIZATION(#72,#69,#73);
#75=COORDINATED_UNIVERSAL_TIME_OFFSET(8,$,.EXACT.);
#76=CALENDAR_DATE(1996,29,5);
#77=LOCAL_TIME(12,0,0.0,#75);
#78=DATE_AND_TIME(#76,#77);
#79=APPROVAL_DATE_TIME(#78,#69);
#80=CC_DESIGN_APPROVAL(#69,(#66));
#81=PERSON('6','Classifier','Joe',$,$,$);
#82=ORGANIZATION($,'None','None');
#83=PERSON_AND_ORGANIZATION(#81,#82);
#84=PERSON_AND_ORGANIZATION_ROLE('classification_officer');
#85=CC_DESIGN_PERSON_AND_ORGANIZATION_ASSIGNMENT(#83,#84,(#66));
#86=COORDINATED_UNIVERSAL_TIME_OFFSET(8,$,.EXACT.);
#87=CALENDAR_DATE(1996,29,5);
#88=LOCAL_TIME(12,0,0.0,#86);
#89=DATE_AND_TIME(#87,#88);
#90=DATE_TIME_ROLE('classification_date');
#91=CC_DESIGN_DATE_AND_TIME_ASSIGNMENT(#89,#90,(#66));
#92=DESIGN_CONTEXT('Design Context',#29,'design');
#93=PRODUCT_DEFINITION('None','None',#41,#92);
#94=PERSON('7','Creator','Joe',$,$,$);
#95=ORGANIZATION($,'None','None');
#96=PERSON_AND_ORGANIZATION(#94,#95);
#97=PERSON_AND_ORGANIZATION_ROLE('creator');
#98=CC_DESIGN_PERSON_AND_ORGANIZATION_ASSIGNMENT(#96,#97,(#93));
#99=COORDINATED_UNIVERSAL_TIME_OFFSET(8,$,.EXACT.);
#100=CALENDAR_DATE(1996,29,5);
#101=LOCAL_TIME(12,0,0.0,#99);
#102=DATE_AND_TIME(#100,#101);
#103=DATE_TIME_ROLE('creation_date');
#104=CC_DESIGN_DATE_AND_TIME_ASSIGNMENT(#102,#103,(#93));
#105=APPROVAL_STATUS('approved');
#106=APPROVAL(#105,'None');
#107=PERSON('8','Approver','Joe',$,$,$);
#108=ORGANIZATION($,'None','None');
#109=PERSON_AND_ORGANIZATION(#107,#108);
#110=APPROVAL_ROLE('approver');
#111=APPROVAL_PERSON_ORGANIZATION(#109,#106,#110);
#112=COORDINATED_UNIVERSAL_TIME_OFFSET(8,$,.EXACT.);
#113=CALENDAR_DATE(1996,29,5);
#114=LOCAL_TIME(12,0,0.0,#112);
#115=DATE_AND_TIME(#113,#114);
#116=APPROVAL_DATE_TIME(#115,#106);
#117=CC_DESIGN_APPROVAL(#106,(#93));
#118=CARTESIAN_POINT('NONE',(0.0,0.0,0.0));
#119=DIRECTION('NONE',(0.0,0.0,1.0));
#120=DIRECTION('NONE',(1.0,0.0,0.0));
#121=AXIS2_PLACEMENT_3D('NONE',#118,#119,#120);
#122=SHAPE_REPRESENTATION('SR1',(#121),#28);
#123=PRODUCT_DEFINITION_SHAPE('PDS1','Test Part',#93);
#124=SHAPE_DEFINITION_REPRESENTATION(#123,#122);
#125=CARTESIAN_POINT('',(2.220446E-016,-1.377682E-016,0.75));
#126=DIRECTION('',(-3.445052E-016,-1.0,-1.836910E-016));
#127=DIRECTION('',(0.0,0.0,-1.0));
#128=AXIS2_PLACEMENT_3D('',#125,#126,#127);
#129=CYLINDRICAL_SURFACE('',#128,0.171875);
#130=CARTESIAN_POINT('',(2.220446E-016,-1.061963E-016,0.578125));
#131=VERTEX_POINT('',#130);
#132=CARTESIAN_POINT('',(8.723042E-017,-0.25,0.578125));
#133=VERTEX_POINT('',#132);
#134=CARTESIAN_POINT('',(1.733567E-016,-1.061963E-016,0.578125));
#135=DIRECTION('',(0.0,-1.0,0.0));
#136=VECTOR('',#135,0.25);
#137=LINE('',#134,#136);
#138=EDGE_CURVE('',#131,#133,#137,.T.);
#139=ORIENTED_EDGE('',*,*,#138,.F.);
#140=CARTESIAN_POINT('',(2.496839E-016,-5.831779E-017,0.921875));
#141=VERTEX_POINT('',#140);
#142=CARTESIAN_POINT('',(2.220446E-016,-2.674591E-017,0.75));
#143=DIRECTION('',(0.0,-1.0,0.0));
#144=DIRECTION('',(0.0,0.0,-1.0));
#145=AXIS2_PLACEMENT_3D('',#142,#143,#144);
#146=CIRCLE('',#145,0.171875);
#147=EDGE_CURVE('',#141,#131,#146,.T.);
#148=ORIENTED_EDGE('',*,*,#147,.F.);
#149=CARTESIAN_POINT('',(-1.110223E-015,-0.25,0.921875));
#150=VERTEX_POINT('',#149);
#151=CARTESIAN_POINT('',(2.496839E-016,-5.831779E-017,0.921875));
#152=DIRECTION('',(0.0,-1.0,0.0));
#153=VECTOR('',#152,0.25);
#154=LINE('',#151,#153);
#155=EDGE_CURVE('',#141,#150,#154,.T.);
#156=ORIENTED_EDGE('',*,*,#155,.T.);
#157=CARTESIAN_POINT('',(2.220446E-016,-0.25,0.75));
#158=DIRECTION('',(0.0,1.0,0.0));
#159=DIRECTION('',(0.0,0.0,-1.0));
#160=AXIS2_PLACEMENT_3D('',#157,#158,#159);
#161=CIRCLE('',#160,0.171875);
#162=EDGE_CURVE('',#133,#150,#161,.T.);
#163=ORIENTED_EDGE('',*,*,#162,.F.);
#164=EDGE_LOOP('',(#139,#148,#156,#163));
#165=FACE_OUTER_BOUND('',#164,.T.);
#166=ADVANCED_FACE('',(#165),#129,.F.);
#167=CARTESIAN_POINT('',(0.0,-0.75,0.5));
#168=DIRECTION('',(-2.832749E-016,1.836910E-016,-1.0));
#169=DIRECTION('',(1.0,0.0,0.0));
#170=AXIS2_PLACEMENT_3D('',#167,#168,#169);
#171=CYLINDRICAL_SURFACE('',#170,0.171875);
#172=CARTESIAN_POINT('',(0.171875,-0.75,0.25));
#173=VERTEX_POINT('',#172);
#174=CARTESIAN_POINT('',(0.171875,-0.75,-1.759321E-016));
#175=VERTEX_POINT('',#174);
#176=CARTESIAN_POINT('',(0.171875,-0.75,0.25));
#177=DIRECTION('',(0.0,0.0,-1.0));
#178=VECTOR('',#177,0.25);
#179=LINE('',#176,#178);
#180=EDGE_CURVE('',#173,#175,#179,.T.);
#181=ORIENTED_EDGE('',*,*,#180,.F.);
#182=CARTESIAN_POINT('',(-0.171875,-0.750000000000001,0.25));
#183=VERTEX_POINT('',#182);
#184=CARTESIAN_POINT('',(-2.220446E-016,-0.75,0.25));
#185=DIRECTION('',(0.0,0.0,-1.0));
#186=DIRECTION('',(1.0,0.0,0.0));
#187=AXIS2_PLACEMENT_3D('',#184,#185,#186);
#188=CIRCLE('',#187,0.171875);
#189=EDGE_CURVE('',#183,#173,#188,.T.);
#190=ORIENTED_EDGE('',*,*,#189,.F.);
#191=CARTESIAN_POINT('',(-0.171875,-0.75,-5.551115E-017));
#192=VERTEX_POINT('',#191);
#193=CARTESIAN_POINT('',(-0.171875,-0.75,0.25));
#194=DIRECTION('',(0.0,0.0,-1.0));
#195=VECTOR('',#194,0.25);
#196=LINE('',#193,#195);
#197=EDGE_CURVE('',#183,#192,#196,.T.);
#198=ORIENTED_EDGE('',*,*,#197,.T.);
#199=CARTESIAN_POINT('',(-2.220446E-016,-0.75,-1.377682E-016));
#200=DIRECTION('',(0.0,0.0,1.0));
#201=DIRECTION('',(1.0,0.0,0.0));
#202=AXIS2_PLACEMENT_3D('',#199,#200,#201);
#203=CIRCLE('',#202,0.171875);
#204=EDGE_CURVE('',#175,#192,#203,.T.);
#205=ORIENTED_EDGE('',*,*,#204,.F.);
#206=EDGE_LOOP('',(#181,#190,#198,#205));
#207=FACE_OUTER_BOUND('',#206,.T.);
#208=ADVANCED_FACE('',(#207),#171,.F.);
#209=CARTESIAN_POINT('',(0.0,-0.75,0.5));
#210=DIRECTION('',(-2.832749E-016,1.836910E-016,-1.0));
#211=DIRECTION('',(1.0,0.0,0.0));
#212=AXIS2_PLACEMENT_3D('',#209,#210,#211);
#213=CYLINDRICAL_SURFACE('',#212,0.171875);
#214=ORIENTED_EDGE('',*,*,#180,.T.);
#215=CARTESIAN_POINT('',(-2.220446E-016,-0.75,-1.377682E-016));
#216=DIRECTION('',(0.0,0.0,1.0));
#217=DIRECTION('',(1.0,0.0,0.0));
#218=AXIS2_PLACEMENT_3D('',#215,#216,#217);
#219=CIRCLE('',#218,0.171875);
#220=EDGE_CURVE('',#192,#175,#219,.T.);
#221=ORIENTED_EDGE('',*,*,#220,.F.);
#222=ORIENTED_EDGE('',*,*,#197,.F.);
#223=CARTESIAN_POINT('',(-2.220446E-016,-0.75,0.25));
#224=DIRECTION('',(0.0,0.0,-1.0));
#225=DIRECTION('',(1.0,0.0,0.0));
#226=AXIS2_PLACEMENT_3D('',#223,#224,#225);
#227=CIRCLE('',#226,0.171875);
#228=EDGE_CURVE('',#173,#183,#227,.T.);
#229=ORIENTED_EDGE('',*,*,#228,.F.);
#230=EDGE_LOOP('',(#214,#221,#222,#229));
#231=FACE_OUTER_BOUND('',#230,.T.);
#232=ADVANCED_FACE('',(#231),#213,.F.);
#233=CARTESIAN_POINT('',(2.220446E-016,-1.377682E-016,0.75));
#234=DIRECTION('',(-3.445052E-016,-1.0,-1.836910E-016));
#235=DIRECTION('',(0.0,0.0,-1.0));
#236=AXIS2_PLACEMENT_3D('',#233,#234,#235);
#237=CYLINDRICAL_SURFACE('',#236,0.171875);
#238=ORIENTED_EDGE('',*,*,#138,.T.);
#239=CARTESIAN_POINT('',(2.220446E-016,-0.25,0.75));
#240=DIRECTION('',(0.0,1.0,0.0));
#241=DIRECTION('',(0.0,0.0,-1.0));
#242=AXIS2_PLACEMENT_3D('',#239,#240,#241);
#243=CIRCLE('',#242,0.171875);
#244=EDGE_CURVE('',#150,#133,#243,.T.);
#245=ORIENTED_EDGE('',*,*,#244,.F.);
#246=ORIENTED_EDGE('',*,*,#155,.F.);
#247=CARTESIAN_POINT('',(2.220446E-016,-2.674591E-017,0.75));
#248=DIRECTION('',(0.0,-1.0,0.0));
#249=DIRECTION('',(0.0,0.0,-1.0));
#250=AXIS2_PLACEMENT_3D('',#247,#248,#249);
#251=CIRCLE('',#250,0.171875);
#252=EDGE_CURVE('',#131,#141,#251,.T.);
#253=ORIENTED_EDGE('',*,*,#252,.F.);
#254=EDGE_LOOP('',(#238,#245,#246,#253));
#255=FACE_OUTER_BOUND('',#254,.T.);
#256=ADVANCED_FACE('',(#255),#237,.F.);
#257=CARTESIAN_POINT('',(0.65625,-1.5,-4.212532E-016));
#258=DIRECTION('',(0.0,0.0,-1.0));
#259=DIRECTION('',(0.0,1.0,0.0));
#260=AXIS2_PLACEMENT_3D('',#257,#258,#259);
#261=PLANE('',#260);
#262=CARTESIAN_POINT('',(-0.65625,-1.5,-1.298197E-016));
#263=VERTEX_POINT('',#262);
#264=CARTESIAN_POINT('',(-0.65625,1.150593E-016,1.457168E-016));
#265=VERTEX_POINT('',#264);
#266=CARTESIAN_POINT('',(-0.65625,-1.5,-1.298197E-016));
#267=DIRECTION('',(0.0,1.0,0.0));
#268=VECTOR('',#267,1.5);
#269=LINE('',#266,#268);
#270=EDGE_CURVE('',#263,#265,#269,.T.);
#271=ORIENTED_EDGE('',*,*,#270,.T.);
#272=CARTESIAN_POINT('',(0.65625,-1.150593E-016,-1.457168E-016));
#273=VERTEX_POINT('',#272);
#274=CARTESIAN_POINT('',(0.65625,-1.150593E-016,-1.457168E-016));
#275=DIRECTION('',(-1.0,0.0,0.0));
#276=VECTOR('',#275,1.3125);
#277=LINE('',#274,#276);
#278=EDGE_CURVE('',#273,#265,#277,.T.);
#279=ORIENTED_EDGE('',*,*,#278,.F.);
#280=CARTESIAN_POINT('',(0.65625,-1.5,-4.212532E-016));
#281=VERTEX_POINT('',#280);
#282=CARTESIAN_POINT('',(0.65625,-1.150593E-016,-1.457168E-016));
#283=DIRECTION('',(0.0,-1.0,0.0));
#284=VECTOR('',#283,1.5);
#285=LINE('',#282,#284);
#286=EDGE_CURVE('',#273,#281,#285,.T.);
#287=ORIENTED_EDGE('',*,*,#286,.T.);
#288=CARTESIAN_POINT('',(0.65625,-1.5,-4.212532E-016));
#289=DIRECTION('',(-1.0,0.0,0.0));
#290=VECTOR('',#289,1.3125);
#291=LINE('',#288,#290);
#292=EDGE_CURVE('',#281,#263,#291,.T.);
#293=ORIENTED_EDGE('',*,*,#292,.T.);
#294=EDGE_LOOP('',(#271,#279,#287,#293));
#295=FACE_OUTER_BOUND('',#294,.T.);
#296=ORIENTED_EDGE('',*,*,#204,.T.);
#297=ORIENTED_EDGE('',*,*,#220,.T.);
#298=EDGE_LOOP('',(#296,#297));
#299=FACE_BOUND('',#298,.T.);
#300=ADVANCED_FACE('',(#295,#299),#261,.T.);
#301=CARTESIAN_POINT('',(0.65625,-1.150593E-016,-1.457168E-016));
#302=DIRECTION('',(0.0,1.0,0.0));
#303=DIRECTION('',(0.0,0.0,1.0));
#304=AXIS2_PLACEMENT_3D('',#301,#302,#303);
#305=PLANE('',#304);
#306=CARTESIAN_POINT('',(-0.65625,-1.604772E-016,1.5));
#307=VERTEX_POINT('',#306);
#308=CARTESIAN_POINT('',(-0.65625,1.150593E-016,2.220446E-016));
#309=DIRECTION('',(0.0,0.0,1.0));
#310=VECTOR('',#309,1.5);
#311=LINE('',#308,#310);
#312=EDGE_CURVE('',#265,#307,#311,.T.);
#313=ORIENTED_EDGE('',*,*,#312,.T.);
#314=CARTESIAN_POINT('',(0.65625,-3.905957E-016,1.5));
#315=VERTEX_POINT('',#314);
#316=CARTESIAN_POINT('',(0.65625,-3.905957E-016,1.5));
#317=DIRECTION('',(-1.0,0.0,0.0));
#318=VECTOR('',#317,1.3125);
#319=LINE('',#316,#318);
#320=EDGE_CURVE('',#315,#307,#319,.T.);
#321=ORIENTED_EDGE('',*,*,#320,.F.);
#322=CARTESIAN_POINT('',(0.65625,-3.905957E-016,1.5));
#323=DIRECTION('',(0.0,0.0,-1.0));
#324=VECTOR('',#323,1.5);
#325=LINE('',#322,#324);
#326=EDGE_CURVE('',#315,#273,#325,.T.);
#327=ORIENTED_EDGE('',*,*,#326,.T.);
#328=ORIENTED_EDGE('',*,*,#278,.T.);
#329=EDGE_LOOP('',(#313,#321,#327,#328));
#330=FACE_OUTER_BOUND('',#329,.T.);
#331=ORIENTED_EDGE('',*,*,#252,.T.);
#332=ORIENTED_EDGE('',*,*,#147,.T.);
#333=EDGE_LOOP('',(#331,#332));
#334=FACE_BOUND('',#333,.T.);
#335=ADVANCED_FACE('',(#330,#334),#305,.T.);
#336=CARTESIAN_POINT('',(0.65625,-3.585507E-016,1.25));
#337=DIRECTION('',(-1.0,1.753284E-016,2.832749E-016));
#338=DIRECTION('',(7.632972E-017,-0.707106781186548,0.707106781186547));
#339=AXIS2_PLACEMENT_3D('',#336,#337,#338);
#340=CYLINDRICAL_SURFACE('',#339,0.25);
#341=CARTESIAN_POINT('',(-0.65625,-0.25,1.25));
#342=VERTEX_POINT('',#341);
#343=CARTESIAN_POINT('',(-0.65625,-1.284322E-016,1.25));
#344=DIRECTION('',(1.0,8.040714E-017,-8.040714E-017));
#345=DIRECTION('',(1.137129E-016,-0.707106781186548,0.707106781186547));
#346=AXIS2_PLACEMENT_3D('',#343,#344,#345);
#347=CIRCLE('',#346,0.25);
#348=EDGE_CURVE('',#307,#342,#347,.T.);
#349=ORIENTED_EDGE('',*,*,#348,.T.);
#350=CARTESIAN_POINT('',(0.65625,-0.25,1.25));
#351=VERTEX_POINT('',#350);
#352=CARTESIAN_POINT('',(0.65625,-0.25,1.25));
#353=DIRECTION('',(-1.0,0.0,0.0));
#354=VECTOR('',#353,1.3125);
#355=LINE('',#352,#354);
#356=EDGE_CURVE('',#351,#342,#355,.T.);
#357=ORIENTED_EDGE('',*,*,#356,.F.);
#358=CARTESIAN_POINT('',(0.65625,-3.585507E-016,1.25));
#359=DIRECTION('',(-1.0,-8.040714E-017,8.040714E-017));
#360=DIRECTION('',(1.137129E-016,-0.707106781186548,0.707106781186547));
#361=AXIS2_PLACEMENT_3D('',#358,#359,#360);
#362=CIRCLE('',#361,0.25);
#363=EDGE_CURVE('',#351,#315,#362,.T.);
#364=ORIENTED_EDGE('',*,*,#363,.T.);
#365=ORIENTED_EDGE('',*,*,#320,.T.);
#366=EDGE_LOOP('',(#349,#357,#364,#365));
#367=FACE_OUTER_BOUND('',#366,.T.);
#368=ADVANCED_FACE('',(#367),#340,.T.);
#369=CARTESIAN_POINT('',(0.65625,-0.25,1.25));
#370=DIRECTION('',(0.0,-1.0,0.0));
#371=DIRECTION('',(0.0,0.0,-1.0));
#372=AXIS2_PLACEMENT_3D('',#369,#370,#371);
#373=PLANE('',#372);
#374=CARTESIAN_POINT('',(-0.65625,-0.25,0.562));
#375=VERTEX_POINT('',#374);
#376=CARTESIAN_POINT('',(-0.65625,-0.25,1.25));
#377=DIRECTION('',(0.0,0.0,-1.0));
#378=VECTOR('',#377,0.688);
#379=LINE('',#376,#378);
#380=EDGE_CURVE('',#342,#375,#379,.T.);
#381=ORIENTED_EDGE('',*,*,#380,.T.);
#382=CARTESIAN_POINT('',(0.65625,-0.25,0.562));
#383=VERTEX_POINT('',#382);
#384=CARTESIAN_POINT('',(0.65625,-0.25,0.562));
#385=DIRECTION('',(-1.0,0.0,0.0));
#386=VECTOR('',#385,1.3125);
#387=LINE('',#384,#386);
#388=EDGE_CURVE('',#383,#375,#387,.T.);
#389=ORIENTED_EDGE('',*,*,#388,.F.);
#390=CARTESIAN_POINT('',(0.65625,-0.25,0.562));
#391=DIRECTION('',(0.0,0.0,1.0));
#392=VECTOR('',#391,0.688);
#393=LINE('',#390,#392);
#394=EDGE_CURVE('',#383,#351,#393,.T.);
#395=ORIENTED_EDGE('',*,*,#394,.T.);
#396=ORIENTED_EDGE('',*,*,#356,.T.);
#397=EDGE_LOOP('',(#381,#389,#395,#396));
#398=FACE_OUTER_BOUND('',#397,.T.);
#399=ORIENTED_EDGE('',*,*,#244,.T.);
#400=ORIENTED_EDGE('',*,*,#162,.T.);
#401=EDGE_LOOP('',(#399,#400));
#402=FACE_BOUND('',#401,.T.);
#403=ADVANCED_FACE('',(#398,#402),#373,.T.);
#404=CARTESIAN_POINT('',(0.65625,-0.562,0.561999999999999));
#405=DIRECTION('',(-1.0,1.753284E-016,2.832749E-016));
#406=DIRECTION('',(-7.632972E-017,0.707106781186548,-0.707106781186547));
#407=AXIS2_PLACEMENT_3D('',#404,#405,#406);
#408=CYLINDRICAL_SURFACE('',#407,0.312);
#409=CARTESIAN_POINT('',(-0.65625,-0.562,0.25));
#410=VERTEX_POINT('',#409);
#411=CARTESIAN_POINT('',(-0.65625,-0.562,0.562));
#412=DIRECTION('',(-1.0,-8.040714E-017,8.040714E-017));
#413=DIRECTION('',(-1.137129E-016,0.707106781186548,-0.707106781186547));
#414=AXIS2_PLACEMENT_3D('',#411,#412,#413);
#415=CIRCLE('',#414,0.312);
#416=EDGE_CURVE('',#375,#410,#415,.T.);
#417=ORIENTED_EDGE('',*,*,#416,.T.);
#418=CARTESIAN_POINT('',(0.65625,-0.562,0.25));
#419=VERTEX_POINT('',#418);
#420=CARTESIAN_POINT('',(0.65625,-0.562,0.25));
#421=DIRECTION('',(-1.0,0.0,0.0));
#422=VECTOR('',#421,1.3125);
#423=LINE('',#420,#422);
#424=EDGE_CURVE('',#419,#410,#423,.T.);
#425=ORIENTED_EDGE('',*,*,#424,.F.);
#426=CARTESIAN_POINT('',(0.65625,-0.562,0.561999999999999));
#427=DIRECTION('',(1.0,8.040714E-017,-8.040714E-017));
#428=DIRECTION('',(-1.137129E-016,0.707106781186548,-0.707106781186547));
#429=AXIS2_PLACEMENT_3D('',#426,#427,#428);
#430=CIRCLE('',#429,0.312);
#431=EDGE_CURVE('',#419,#383,#430,.T.);
#432=ORIENTED_EDGE('',*,*,#431,.T.);
#433=ORIENTED_EDGE('',*,*,#388,.T.);
#434=EDGE_LOOP('',(#417,#425,#432,#433));
#435=FACE_OUTER_BOUND('',#434,.T.);
#436=ADVANCED_FACE('',(#435),#408,.F.);
#437=CARTESIAN_POINT('',(0.65625,-0.562,0.25));
#438=DIRECTION('',(0.0,0.0,1.0));
#439=DIRECTION('',(0.0,-1.0,0.0));
#440=AXIS2_PLACEMENT_3D('',#437,#438,#439);
#441=PLANE('',#440);
#442=CARTESIAN_POINT('',(-0.65625,-1.25,0.25));
#443=VERTEX_POINT('',#442);
#444=CARTESIAN_POINT('',(-0.65625,-0.562,0.25));
#445=DIRECTION('',(0.0,-1.0,0.0));
#446=VECTOR('',#445,0.688);
#447=LINE('',#444,#446);
#448=EDGE_CURVE('',#410,#443,#447,.T.);
#449=ORIENTED_EDGE('',*,*,#448,.T.);
#450=CARTESIAN_POINT('',(0.656249999999999,-1.25,0.25));
#451=VERTEX_POINT('',#450);
#452=CARTESIAN_POINT('',(0.656249999999999,-1.25,0.25));
#453=DIRECTION('',(-1.0,0.0,0.0));
#454=VECTOR('',#453,1.3125);
#455=LINE('',#452,#454);
#456=EDGE_CURVE('',#451,#443,#455,.T.);
#457=ORIENTED_EDGE('',*,*,#456,.F.);
#458=CARTESIAN_POINT('',(0.656249999999999,-1.25,0.25));
#459=DIRECTION('',(0.0,1.0,0.0));
#460=VECTOR('',#459,0.688);
#461=LINE('',#458,#460);
#462=EDGE_CURVE('',#451,#419,#461,.T.);
#463=ORIENTED_EDGE('',*,*,#462,.T.);
#464=ORIENTED_EDGE('',*,*,#424,.T.);
#465=EDGE_LOOP('',(#449,#457,#463,#464));
#466=FACE_OUTER_BOUND('',#465,.T.);
#467=ORIENTED_EDGE('',*,*,#189,.T.);
#468=ORIENTED_EDGE('',*,*,#228,.T.);
#469=EDGE_LOOP('',(#467,#468));
#470=FACE_BOUND('',#469,.T.);
#471=ADVANCED_FACE('',(#466,#470),#441,.T.);
#472=CARTESIAN_POINT('',(0.656249999999999,-1.25,-3.753305E-016));
#473=DIRECTION('',(-1.0,1.753284E-016,2.832749E-016));
#474=DIRECTION('',(7.632972E-017,-0.707106781186548,0.707106781186547));
#475=AXIS2_PLACEMENT_3D('',#472,#473,#474);
#476=CYLINDRICAL_SURFACE('',#475,0.25);
#477=CARTESIAN_POINT('',(-0.65625,-1.25,-8.389692E-017));
#478=DIRECTION('',(1.0,8.040714E-017,-8.040714E-017));
#479=DIRECTION('',(1.137129E-016,-0.707106781186548,0.707106781186547));
#480=AXIS2_PLACEMENT_3D('',#477,#478,#479);
#481=CIRCLE('',#480,0.25);
#482=EDGE_CURVE('',#443,#263,#481,.T.);
#483=ORIENTED_EDGE('',*,*,#482,.T.);
#484=ORIENTED_EDGE('',*,*,#292,.F.);
#485=CARTESIAN_POINT('',(0.656249999999999,-1.25,-3.753305E-016));
#486=DIRECTION('',(-1.0,-8.040714E-017,8.040714E-017));
#487=DIRECTION('',(1.137129E-016,-0.707106781186548,0.707106781186547));
#488=AXIS2_PLACEMENT_3D('',#485,#486,#487);
#489=CIRCLE('',#488,0.25);
#490=EDGE_CURVE('',#281,#451,#489,.T.);
#491=ORIENTED_EDGE('',*,*,#490,.T.);
#492=ORIENTED_EDGE('',*,*,#456,.T.);
#493=EDGE_LOOP('',(#483,#484,#491,#492));
#494=FACE_OUTER_BOUND('',#493,.T.);
#495=ADVANCED_FACE('',(#494),#476,.T.);
#496=CARTESIAN_POINT('',(0.65625,-0.575693607486307,0.575693607486307));
#497=DIRECTION('',(-1.0,0.0,0.0));
#498=DIRECTION('',(0.0,1.0,0.0));
#499=AXIS2_PLACEMENT_3D('',#496,#497,#498);
#500=PLANE('',#499);
#501=ORIENTED_EDGE('',*,*,#490,.F.);
#502=ORIENTED_EDGE('',*,*,#286,.F.);
#503=ORIENTED_EDGE('',*,*,#326,.F.);
#504=ORIENTED_EDGE('',*,*,#363,.F.);
#505=ORIENTED_EDGE('',*,*,#394,.F.);
#506=ORIENTED_EDGE('',*,*,#431,.F.);
#507=ORIENTED_EDGE('',*,*,#462,.F.);
#508=EDGE_LOOP('',(#501,#502,#503,#504,#505,#506,#507));
#509=FACE_OUTER_BOUND('',#508,.T.);
#510=ADVANCED_FACE('',(#509),#500,.F.);
#511=CARTESIAN_POINT('',(-0.65625,-1.5,-1.298197E-016));
#512=DIRECTION('',(-1.0,0.0,0.0));
#513=DIRECTION('',(0.0,1.0,0.0));
#514=AXIS2_PLACEMENT_3D('',#511,#512,#513);
#515=PLANE('',#514);
#516=ORIENTED_EDGE('',*,*,#270,.F.);
#517=ORIENTED_EDGE('',*,*,#482,.F.);
#518=ORIENTED_EDGE('',*,*,#448,.F.);
#519=ORIENTED_EDGE('',*,*,#416,.F.);
#520=ORIENTED_EDGE('',*,*,#380,.F.);
#521=ORIENTED_EDGE('',*,*,#348,.F.);
#522=ORIENTED_EDGE('',*,*,#312,.F.);
#523=EDGE_LOOP('',(#516,#517,#518,#519,#520,#521,#522));
#524=FACE_OUTER_BOUND('',#523,.T.);
#525=ADVANCED_FACE('',(#524),#515,.T.);
#526=CLOSED_SHELL('',(#166,#208,#232,#256,#300,#335,#368,#403,#436,#471,#495,#510,#525));
#527=MANIFOLD_SOLID_BREP('2F',#526);
#528=ADVANCED_BREP_SHAPE_REPRESENTATION('ABSR1',(#527),#28);
#529=SHAPE_REPRESENTATION_RELATIONSHIP('SRRPL1','',#528,#122);
ENDSEC;
END-ISO-10303-21;
