ISO-10303-21;
HEADER;
/****************************************************************
 * Generated by software with PDElib inside                    *
 * PDElib Version v51a, created Fri 09/10/2010                  *
 * ITI Transcendata (http://www.transcendata.com/)              *
 ****************************************************************/
FILE_DESCRIPTION((''),'2;1');
FILE_NAME('15BP2580.stp','2015-07-20T13:15:30',(''),(''),'Mechanical Desktop 2011','Mechanical Desktop 2011',', , ');
FILE_SCHEMA(('CONFIG_CONTROL_DESIGN'));
ENDSEC;
DATA;
#10=(NAMED_UNIT(*)PLANE_ANGLE_UNIT()SI_UNIT($,.RADIAN.));
#11=DIMENSIONAL_EXPONENTS(0.0,0.0,0.0,0.0,0.0,0.0,0.0);
#12=PLANE_ANGLE_MEASURE_WITH_UNIT(PLANE_ANGLE_MEASURE(0.0174532925),#10);
#16=(CONVERSION_BASED_UNIT('DEGREE',#12)NAMED_UNIT(#11)PLANE_ANGLE_UNIT());
#20=(NAMED_UNIT(*)SI_UNIT($,.STERADIAN.)SOLID_ANGLE_UNIT());
#24=(LENGTH_UNIT()NAMED_UNIT(*)SI_UNIT(.MILLI.,.METRE.));
#26=UNCERTAINTY_MEASURE_WITH_UNIT(LENGTH_MEASURE(0.000001),#24,'DISTANCE_ACCURACY_VALUE','');
#28=(GEOMETRIC_REPRESENTATION_CONTEXT(3)GLOBAL_UNCERTAINTY_ASSIGNED_CONTEXT((#26))GLOBAL_UNIT_ASSIGNED_CONTEXT((#16,#20,#24))REPRESENTATION_CONTEXT('','3D'));
#29=APPLICATION_CONTEXT('CONFIGURATION CONTROLLED 3D DESIGNS OF MECHANICAL PARTS AND ASSEMBLIES');
#30=APPLICATION_PROTOCOL_DEFINITION('INTERNATIONAL STANDARD','config_control_design',1995,#29);
#31=MECHANICAL_CONTEXT('3D Mechanical Parts',#29,'mechanical');
#32=PRODUCT('Product','Product',' ',(#31));
#33=PRODUCT_RELATED_PRODUCT_CATEGORY('detail',$,(#32));
#34=PRODUCT_CATEGORY('part',$);
#35=PRODUCT_CATEGORY_RELATIONSHIP('None','None',#34,#33);
#36=PERSON('1','Design','Joe',$,$,$);
#37=ORGANIZATION($,'None','None');
#38=PERSON_AND_ORGANIZATION(#36,#37);
#39=PERSON_AND_ORGANIZATION_ROLE('design_owner');
#40=CC_DESIGN_PERSON_AND_ORGANIZATION_ASSIGNMENT(#38,#39,(#32));
#41=PRODUCT_DEFINITION_FORMATION_WITH_SPECIFIED_SOURCE('None','None',#32,.BOUGHT.);
#42=PERSON('2','Creator','Joe',$,$,$);
#43=ORGANIZATION($,'None','None');
#44=PERSON_AND_ORGANIZATION(#42,#43);
#45=PERSON_AND_ORGANIZATION_ROLE('creator');
#46=CC_DESIGN_PERSON_AND_ORGANIZATION_ASSIGNMENT(#44,#45,(#41));
#47=PERSON('3','Supplier','Joe',$,$,$);
#48=ORGANIZATION($,'None','None');
#49=PERSON_AND_ORGANIZATION(#47,#48);
#50=PERSON_AND_ORGANIZATION_ROLE('design_supplier');
#51=CC_DESIGN_PERSON_AND_ORGANIZATION_ASSIGNMENT(#49,#50,(#41));
#52=APPROVAL_STATUS('approved');
#53=APPROVAL(#52,'None');
#54=PERSON('4','Approver','Joe',$,$,$);
#55=ORGANIZATION($,'None','None');
#56=PERSON_AND_ORGANIZATION(#54,#55);
#57=APPROVAL_ROLE('approver');
#58=APPROVAL_PERSON_ORGANIZATION(#56,#53,#57);
#59=COORDINATED_UNIVERSAL_TIME_OFFSET(8,$,.EXACT.);
#60=CALENDAR_DATE(1996,29,5);
#61=LOCAL_TIME(12,0,0.0,#59);
#62=DATE_AND_TIME(#60,#61);
#63=APPROVAL_DATE_TIME(#62,#53);
#64=CC_DESIGN_APPROVAL(#53,(#41));
#65=SECURITY_CLASSIFICATION_LEVEL('unclassified');
#66=SECURITY_CLASSIFICATION('security','None',#65);
#67=CC_DESIGN_SECURITY_CLASSIFICATION(#66,(#41));
#68=APPROVAL_STATUS('approved');
#69=APPROVAL(#68,'None');
#70=PERSON('5','Approver','Joe',$,$,$);
#71=ORGANIZATION($,'None','None');
#72=PERSON_AND_ORGANIZATION(#70,#71);
#73=APPROVAL_ROLE('approver');
#74=APPROVAL_PERSON_ORGANIZATION(#72,#69,#73);
#75=COORDINATED_UNIVERSAL_TIME_OFFSET(8,$,.EXACT.);
#76=CALENDAR_DATE(1996,29,5);
#77=LOCAL_TIME(12,0,0.0,#75);
#78=DATE_AND_TIME(#76,#77);
#79=APPROVAL_DATE_TIME(#78,#69);
#80=CC_DESIGN_APPROVAL(#69,(#66));
#81=PERSON('6','Classifier','Joe',$,$,$);
#82=ORGANIZATION($,'None','None');
#83=PERSON_AND_ORGANIZATION(#81,#82);
#84=PERSON_AND_ORGANIZATION_ROLE('classification_officer');
#85=CC_DESIGN_PERSON_AND_ORGANIZATION_ASSIGNMENT(#83,#84,(#66));
#86=COORDINATED_UNIVERSAL_TIME_OFFSET(8,$,.EXACT.);
#87=CALENDAR_DATE(1996,29,5);
#88=LOCAL_TIME(12,0,0.0,#86);
#89=DATE_AND_TIME(#87,#88);
#90=DATE_TIME_ROLE('classification_date');
#91=CC_DESIGN_DATE_AND_TIME_ASSIGNMENT(#89,#90,(#66));
#92=DESIGN_CONTEXT('Design Context',#29,'design');
#93=PRODUCT_DEFINITION('None','None',#41,#92);
#94=PERSON('7','Creator','Joe',$,$,$);
#95=ORGANIZATION($,'None','None');
#96=PERSON_AND_ORGANIZATION(#94,#95);
#97=PERSON_AND_ORGANIZATION_ROLE('creator');
#98=CC_DESIGN_PERSON_AND_ORGANIZATION_ASSIGNMENT(#96,#97,(#93));
#99=COORDINATED_UNIVERSAL_TIME_OFFSET(8,$,.EXACT.);
#100=CALENDAR_DATE(1996,29,5);
#101=LOCAL_TIME(12,0,0.0,#99);
#102=DATE_AND_TIME(#100,#101);
#103=DATE_TIME_ROLE('creation_date');
#104=CC_DESIGN_DATE_AND_TIME_ASSIGNMENT(#102,#103,(#93));
#105=APPROVAL_STATUS('approved');
#106=APPROVAL(#105,'None');
#107=PERSON('8','Approver','Joe',$,$,$);
#108=ORGANIZATION($,'None','None');
#109=PERSON_AND_ORGANIZATION(#107,#108);
#110=APPROVAL_ROLE('approver');
#111=APPROVAL_PERSON_ORGANIZATION(#109,#106,#110);
#112=COORDINATED_UNIVERSAL_TIME_OFFSET(8,$,.EXACT.);
#113=CALENDAR_DATE(1996,29,5);
#114=LOCAL_TIME(12,0,0.0,#112);
#115=DATE_AND_TIME(#113,#114);
#116=APPROVAL_DATE_TIME(#115,#106);
#117=CC_DESIGN_APPROVAL(#106,(#93));
#118=CARTESIAN_POINT('NONE',(0.0,0.0,0.0));
#119=DIRECTION('NONE',(0.0,0.0,1.0));
#120=DIRECTION('NONE',(1.0,0.0,0.0));
#121=AXIS2_PLACEMENT_3D('NONE',#118,#119,#120);
#122=SHAPE_REPRESENTATION('SR1',(#121),#28);
#123=PRODUCT_DEFINITION_SHAPE('PDS1','Test Part',#93);
#124=SHAPE_DEFINITION_REPRESENTATION(#123,#122);
#125=CARTESIAN_POINT('',(0.75,1.5,7.771561E-016));
#126=DIRECTION('',(-1.224606E-016,-4.440892E-016,1.0));
#127=DIRECTION('',(0.0,1.0,0.0));
#128=AXIS2_PLACEMENT_3D('',#125,#126,#127);
#129=CYLINDRICAL_SURFACE('',#128,0.25);
#130=CARTESIAN_POINT('',(0.75,1.75,8.881784E-016));
#131=VERTEX_POINT('',#130);
#132=CARTESIAN_POINT('',(0.75,1.75,0.750000000000001));
#133=VERTEX_POINT('',#132);
#134=CARTESIAN_POINT('',(0.75,1.75,8.881784E-016));
#135=DIRECTION('',(0.0,0.0,1.0));
#136=VECTOR('',#135,0.75);
#137=LINE('',#134,#136);
#138=EDGE_CURVE('',#131,#133,#137,.T.);
#139=ORIENTED_EDGE('',*,*,#138,.F.);
#140=CARTESIAN_POINT('',(0.75,1.25,6.661338E-016));
#141=VERTEX_POINT('',#140);
#142=CARTESIAN_POINT('',(0.75,1.5,7.771561E-016));
#143=DIRECTION('',(0.0,0.0,1.0));
#144=DIRECTION('',(0.0,1.0,0.0));
#145=AXIS2_PLACEMENT_3D('',#142,#143,#144);
#146=CIRCLE('',#145,0.25);
#147=EDGE_CURVE('',#141,#131,#146,.T.);
#148=ORIENTED_EDGE('',*,*,#147,.F.);
#149=CARTESIAN_POINT('',(0.75,1.25,0.750000000000001));
#150=VERTEX_POINT('',#149);
#151=CARTESIAN_POINT('',(0.75,1.25,6.661338E-016));
#152=DIRECTION('',(0.0,0.0,1.0));
#153=VECTOR('',#152,0.75);
#154=LINE('',#151,#153);
#155=EDGE_CURVE('',#141,#150,#154,.T.);
#156=ORIENTED_EDGE('',*,*,#155,.T.);
#157=CARTESIAN_POINT('',(0.75,1.5,0.750000000000001));
#158=DIRECTION('',(0.0,0.0,-1.0));
#159=DIRECTION('',(0.0,1.0,0.0));
#160=AXIS2_PLACEMENT_3D('',#157,#158,#159);
#161=CIRCLE('',#160,0.25);
#162=EDGE_CURVE('',#133,#150,#161,.T.);
#163=ORIENTED_EDGE('',*,*,#162,.F.);
#164=EDGE_LOOP('',(#139,#148,#156,#163));
#165=FACE_OUTER_BOUND('',#164,.T.);
#166=ADVANCED_FACE('',(#165),#129,.F.);
#167=CARTESIAN_POINT('',(0.75,2.25,1.110223E-015));
#168=DIRECTION('',(-1.224606E-016,-4.440892E-016,1.0));
#169=DIRECTION('',(0.0,1.0,0.0));
#170=AXIS2_PLACEMENT_3D('',#167,#168,#169);
#171=CYLINDRICAL_SURFACE('',#170,0.265);
#172=CARTESIAN_POINT('',(0.75,2.515,1.221245E-015));
#173=VERTEX_POINT('',#172);
#174=CARTESIAN_POINT('',(0.75,2.515,0.320000000000001));
#175=VERTEX_POINT('',#174);
#176=CARTESIAN_POINT('',(0.75,2.515,1.227907E-015));
#177=DIRECTION('',(0.0,0.0,1.0));
#178=VECTOR('',#177,0.32);
#179=LINE('',#176,#178);
#180=EDGE_CURVE('',#173,#175,#179,.T.);
#181=ORIENTED_EDGE('',*,*,#180,.F.);
#182=CARTESIAN_POINT('',(0.75,1.985,9.925394E-016));
#183=VERTEX_POINT('',#182);
#184=CARTESIAN_POINT('',(0.75,2.25,1.110223E-015));
#185=DIRECTION('',(0.0,0.0,1.0));
#186=DIRECTION('',(0.0,1.0,0.0));
#187=AXIS2_PLACEMENT_3D('',#184,#185,#186);
#188=CIRCLE('',#187,0.265);
#189=EDGE_CURVE('',#183,#173,#188,.T.);
#190=ORIENTED_EDGE('',*,*,#189,.F.);
#191=CARTESIAN_POINT('',(0.75,1.985,0.320000000000001));
#192=VERTEX_POINT('',#191);
#193=CARTESIAN_POINT('',(0.75,1.985,9.925394E-016));
#194=DIRECTION('',(0.0,0.0,1.0));
#195=VECTOR('',#194,0.32);
#196=LINE('',#193,#195);
#197=EDGE_CURVE('',#183,#192,#196,.T.);
#198=ORIENTED_EDGE('',*,*,#197,.T.);
#199=CARTESIAN_POINT('',(0.75,2.25,0.320000000000001));
#200=DIRECTION('',(0.0,0.0,-1.0));
#201=DIRECTION('',(0.0,1.0,0.0));
#202=AXIS2_PLACEMENT_3D('',#199,#200,#201);
#203=CIRCLE('',#202,0.265);
#204=EDGE_CURVE('',#175,#192,#203,.T.);
#205=ORIENTED_EDGE('',*,*,#204,.F.);
#206=EDGE_LOOP('',(#181,#190,#198,#205));
#207=FACE_OUTER_BOUND('',#206,.T.);
#208=ADVANCED_FACE('',(#207),#171,.F.);
#209=CARTESIAN_POINT('',(0.75,2.25,1.110223E-015));
#210=DIRECTION('',(-1.224606E-016,-4.440892E-016,1.0));
#211=DIRECTION('',(0.0,1.0,0.0));
#212=AXIS2_PLACEMENT_3D('',#209,#210,#211);
#213=CYLINDRICAL_SURFACE('',#212,0.171);
#214=CARTESIAN_POINT('',(0.75,2.421,0.320000000000001));
#215=VERTEX_POINT('',#214);
#216=CARTESIAN_POINT('',(0.75,2.421,0.750000000000001));
#217=VERTEX_POINT('',#216);
#218=CARTESIAN_POINT('',(0.75,2.421,0.320000000000001));
#219=DIRECTION('',(0.0,0.0,1.0));
#220=VECTOR('',#219,0.43);
#221=LINE('',#218,#220);
#222=EDGE_CURVE('',#215,#217,#221,.T.);
#223=ORIENTED_EDGE('',*,*,#222,.F.);
#224=CARTESIAN_POINT('',(0.75,2.079,0.320000000000001));
#225=VERTEX_POINT('',#224);
#226=CARTESIAN_POINT('',(0.75,2.25,0.320000000000001));
#227=DIRECTION('',(0.0,0.0,-1.0));
#228=DIRECTION('',(0.0,1.0,0.0));
#229=AXIS2_PLACEMENT_3D('',#226,#227,#228);
#230=CIRCLE('',#229,0.171);
#231=EDGE_CURVE('',#215,#225,#230,.T.);
#232=ORIENTED_EDGE('',*,*,#231,.T.);
#233=CARTESIAN_POINT('',(0.75,2.079,0.750000000000001));
#234=VERTEX_POINT('',#233);
#235=CARTESIAN_POINT('',(0.75,2.079,0.320000000000001));
#236=DIRECTION('',(0.0,0.0,1.0));
#237=VECTOR('',#236,0.43);
#238=LINE('',#235,#237);
#239=EDGE_CURVE('',#225,#234,#238,.T.);
#240=ORIENTED_EDGE('',*,*,#239,.T.);
#241=CARTESIAN_POINT('',(0.75,2.25,0.750000000000001));
#242=DIRECTION('',(0.0,0.0,-1.0));
#243=DIRECTION('',(0.0,1.0,0.0));
#244=AXIS2_PLACEMENT_3D('',#241,#242,#243);
#245=CIRCLE('',#244,0.171);
#246=EDGE_CURVE('',#217,#234,#245,.T.);
#247=ORIENTED_EDGE('',*,*,#246,.F.);
#248=EDGE_LOOP('',(#223,#232,#240,#247));
#249=FACE_OUTER_BOUND('',#248,.T.);
#250=ADVANCED_FACE('',(#249),#213,.F.);
#251=CARTESIAN_POINT('',(0.75,0.75,4.440892E-016));
#252=DIRECTION('',(-1.224606E-016,-4.440892E-016,1.0));
#253=DIRECTION('',(0.0,1.0,0.0));
#254=AXIS2_PLACEMENT_3D('',#251,#252,#253);
#255=CYLINDRICAL_SURFACE('',#254,0.265);
#256=CARTESIAN_POINT('',(0.75,1.015,5.551115E-016));
#257=VERTEX_POINT('',#256);
#258=CARTESIAN_POINT('',(0.75,1.015,0.320000000000001));
#259=VERTEX_POINT('',#258);
#260=CARTESIAN_POINT('',(0.75,1.015,5.617729E-016));
#261=DIRECTION('',(0.0,0.0,1.0));
#262=VECTOR('',#261,0.32);
#263=LINE('',#260,#262);
#264=EDGE_CURVE('',#257,#259,#263,.T.);
#265=ORIENTED_EDGE('',*,*,#264,.F.);
#266=CARTESIAN_POINT('',(0.75,0.485,3.264056E-016));
#267=VERTEX_POINT('',#266);
#268=CARTESIAN_POINT('',(0.75,0.75,4.440892E-016));
#269=DIRECTION('',(0.0,0.0,1.0));
#270=DIRECTION('',(0.0,1.0,0.0));
#271=AXIS2_PLACEMENT_3D('',#268,#269,#270);
#272=CIRCLE('',#271,0.265);
#273=EDGE_CURVE('',#267,#257,#272,.T.);
#274=ORIENTED_EDGE('',*,*,#273,.F.);
#275=CARTESIAN_POINT('',(0.75,0.485,0.32));
#276=VERTEX_POINT('',#275);
#277=CARTESIAN_POINT('',(0.75,0.485,3.264056E-016));
#278=DIRECTION('',(0.0,0.0,1.0));
#279=VECTOR('',#278,0.32);
#280=LINE('',#277,#279);
#281=EDGE_CURVE('',#267,#276,#280,.T.);
#282=ORIENTED_EDGE('',*,*,#281,.T.);
#283=CARTESIAN_POINT('',(0.75,0.75,0.32));
#284=DIRECTION('',(0.0,0.0,-1.0));
#285=DIRECTION('',(0.0,1.0,0.0));
#286=AXIS2_PLACEMENT_3D('',#283,#284,#285);
#287=CIRCLE('',#286,0.265);
#288=EDGE_CURVE('',#259,#276,#287,.T.);
#289=ORIENTED_EDGE('',*,*,#288,.F.);
#290=EDGE_LOOP('',(#265,#274,#282,#289));
#291=FACE_OUTER_BOUND('',#290,.T.);
#292=ADVANCED_FACE('',(#291),#255,.F.);
#293=CARTESIAN_POINT('',(0.75,0.75,4.440892E-016));
#294=DIRECTION('',(-1.224606E-016,-4.440892E-016,1.0));
#295=DIRECTION('',(0.0,1.0,0.0));
#296=AXIS2_PLACEMENT_3D('',#293,#294,#295);
#297=CYLINDRICAL_SURFACE('',#296,0.171);
#298=CARTESIAN_POINT('',(0.75,0.921,0.320000000000001));
#299=VERTEX_POINT('',#298);
#300=CARTESIAN_POINT('',(0.75,0.921,0.750000000000001));
#301=VERTEX_POINT('',#300);
#302=CARTESIAN_POINT('',(0.75,0.921,0.320000000000001));
#303=DIRECTION('',(0.0,0.0,1.0));
#304=VECTOR('',#303,0.43);
#305=LINE('',#302,#304);
#306=EDGE_CURVE('',#299,#301,#305,.T.);
#307=ORIENTED_EDGE('',*,*,#306,.F.);
#308=CARTESIAN_POINT('',(0.75,0.579,0.32));
#309=VERTEX_POINT('',#308);
#310=CARTESIAN_POINT('',(0.75,0.75,0.32));
#311=DIRECTION('',(0.0,0.0,-1.0));
#312=DIRECTION('',(0.0,1.0,0.0));
#313=AXIS2_PLACEMENT_3D('',#310,#311,#312);
#314=CIRCLE('',#313,0.171);
#315=EDGE_CURVE('',#299,#309,#314,.T.);
#316=ORIENTED_EDGE('',*,*,#315,.T.);
#317=CARTESIAN_POINT('',(0.75,0.579,0.75));
#318=VERTEX_POINT('',#317);
#319=CARTESIAN_POINT('',(0.75,0.579,0.32));
#320=DIRECTION('',(0.0,0.0,1.0));
#321=VECTOR('',#320,0.43);
#322=LINE('',#319,#321);
#323=EDGE_CURVE('',#309,#318,#322,.T.);
#324=ORIENTED_EDGE('',*,*,#323,.T.);
#325=CARTESIAN_POINT('',(0.75,0.75,0.75));
#326=DIRECTION('',(0.0,0.0,-1.0));
#327=DIRECTION('',(0.0,1.0,0.0));
#328=AXIS2_PLACEMENT_3D('',#325,#326,#327);
#329=CIRCLE('',#328,0.171);
#330=EDGE_CURVE('',#301,#318,#329,.T.);
#331=ORIENTED_EDGE('',*,*,#330,.F.);
#332=EDGE_LOOP('',(#307,#316,#324,#331));
#333=FACE_OUTER_BOUND('',#332,.T.);
#334=ADVANCED_FACE('',(#333),#297,.F.);
#335=CARTESIAN_POINT('',(0.75,0.75,4.440892E-016));
#336=DIRECTION('',(-1.224606E-016,-4.440892E-016,1.0));
#337=DIRECTION('',(0.0,1.0,0.0));
#338=AXIS2_PLACEMENT_3D('',#335,#336,#337);
#339=CYLINDRICAL_SURFACE('',#338,0.171);
#340=ORIENTED_EDGE('',*,*,#306,.T.);
#341=CARTESIAN_POINT('',(0.75,0.75,0.75));
#342=DIRECTION('',(0.0,0.0,-1.0));
#343=DIRECTION('',(0.0,1.0,0.0));
#344=AXIS2_PLACEMENT_3D('',#341,#342,#343);
#345=CIRCLE('',#344,0.171);
#346=EDGE_CURVE('',#318,#301,#345,.T.);
#347=ORIENTED_EDGE('',*,*,#346,.F.);
#348=ORIENTED_EDGE('',*,*,#323,.F.);
#349=CARTESIAN_POINT('',(0.75,0.75,0.32));
#350=DIRECTION('',(0.0,0.0,-1.0));
#351=DIRECTION('',(0.0,1.0,0.0));
#352=AXIS2_PLACEMENT_3D('',#349,#350,#351);
#353=CIRCLE('',#352,0.171);
#354=EDGE_CURVE('',#309,#299,#353,.T.);
#355=ORIENTED_EDGE('',*,*,#354,.T.);
#356=EDGE_LOOP('',(#340,#347,#348,#355));
#357=FACE_OUTER_BOUND('',#356,.T.);
#358=ADVANCED_FACE('',(#357),#339,.F.);
#359=CARTESIAN_POINT('',(0.75,0.75,4.440892E-016));
#360=DIRECTION('',(-1.224606E-016,-4.440892E-016,1.0));
#361=DIRECTION('',(0.0,1.0,0.0));
#362=AXIS2_PLACEMENT_3D('',#359,#360,#361);
#363=CYLINDRICAL_SURFACE('',#362,0.265);
#364=ORIENTED_EDGE('',*,*,#264,.T.);
#365=CARTESIAN_POINT('',(0.75,0.75,0.32));
#366=DIRECTION('',(0.0,0.0,-1.0));
#367=DIRECTION('',(0.0,1.0,0.0));
#368=AXIS2_PLACEMENT_3D('',#365,#366,#367);
#369=CIRCLE('',#368,0.265);
#370=EDGE_CURVE('',#276,#259,#369,.T.);
#371=ORIENTED_EDGE('',*,*,#370,.F.);
#372=ORIENTED_EDGE('',*,*,#281,.F.);
#373=CARTESIAN_POINT('',(0.75,0.75,4.440892E-016));
#374=DIRECTION('',(0.0,0.0,1.0));
#375=DIRECTION('',(0.0,1.0,0.0));
#376=AXIS2_PLACEMENT_3D('',#373,#374,#375);
#377=CIRCLE('',#376,0.265);
#378=EDGE_CURVE('',#257,#267,#377,.T.);
#379=ORIENTED_EDGE('',*,*,#378,.F.);
#380=EDGE_LOOP('',(#364,#371,#372,#379));
#381=FACE_OUTER_BOUND('',#380,.T.);
#382=ADVANCED_FACE('',(#381),#363,.F.);
#383=CARTESIAN_POINT('',(0.75,0.75,0.32));
#384=DIRECTION('',(0.0,0.0,-1.0));
#385=DIRECTION('',(0.0,1.0,0.0));
#386=AXIS2_PLACEMENT_3D('',#383,#384,#385);
#387=PLANE('',#386);
#388=ORIENTED_EDGE('',*,*,#288,.T.);
#389=ORIENTED_EDGE('',*,*,#370,.T.);
#390=EDGE_LOOP('',(#388,#389));
#391=FACE_OUTER_BOUND('',#390,.T.);
#392=ORIENTED_EDGE('',*,*,#354,.F.);
#393=ORIENTED_EDGE('',*,*,#315,.F.);
#394=EDGE_LOOP('',(#392,#393));
#395=FACE_BOUND('',#394,.T.);
#396=ADVANCED_FACE('',(#391,#395),#387,.T.);
#397=CARTESIAN_POINT('',(0.75,2.25,1.110223E-015));
#398=DIRECTION('',(-1.224606E-016,-4.440892E-016,1.0));
#399=DIRECTION('',(0.0,1.0,0.0));
#400=AXIS2_PLACEMENT_3D('',#397,#398,#399);
#401=CYLINDRICAL_SURFACE('',#400,0.171);
#402=ORIENTED_EDGE('',*,*,#222,.T.);
#403=CARTESIAN_POINT('',(0.75,2.25,0.750000000000001));
#404=DIRECTION('',(0.0,0.0,-1.0));
#405=DIRECTION('',(0.0,1.0,0.0));
#406=AXIS2_PLACEMENT_3D('',#403,#404,#405);
#407=CIRCLE('',#406,0.171);
#408=EDGE_CURVE('',#234,#217,#407,.T.);
#409=ORIENTED_EDGE('',*,*,#408,.F.);
#410=ORIENTED_EDGE('',*,*,#239,.F.);
#411=CARTESIAN_POINT('',(0.75,2.25,0.320000000000001));
#412=DIRECTION('',(0.0,0.0,-1.0));
#413=DIRECTION('',(0.0,1.0,0.0));
#414=AXIS2_PLACEMENT_3D('',#411,#412,#413);
#415=CIRCLE('',#414,0.171);
#416=EDGE_CURVE('',#225,#215,#415,.T.);
#417=ORIENTED_EDGE('',*,*,#416,.T.);
#418=EDGE_LOOP('',(#402,#409,#410,#417));
#419=FACE_OUTER_BOUND('',#418,.T.);
#420=ADVANCED_FACE('',(#419),#401,.F.);
#421=CARTESIAN_POINT('',(0.75,2.25,1.110223E-015));
#422=DIRECTION('',(-1.224606E-016,-4.440892E-016,1.0));
#423=DIRECTION('',(0.0,1.0,0.0));
#424=AXIS2_PLACEMENT_3D('',#421,#422,#423);
#425=CYLINDRICAL_SURFACE('',#424,0.265);
#426=ORIENTED_EDGE('',*,*,#180,.T.);
#427=CARTESIAN_POINT('',(0.75,2.25,0.320000000000001));
#428=DIRECTION('',(0.0,0.0,-1.0));
#429=DIRECTION('',(0.0,1.0,0.0));
#430=AXIS2_PLACEMENT_3D('',#427,#428,#429);
#431=CIRCLE('',#430,0.265);
#432=EDGE_CURVE('',#192,#175,#431,.T.);
#433=ORIENTED_EDGE('',*,*,#432,.F.);
#434=ORIENTED_EDGE('',*,*,#197,.F.);
#435=CARTESIAN_POINT('',(0.75,2.25,1.110223E-015));
#436=DIRECTION('',(0.0,0.0,1.0));
#437=DIRECTION('',(0.0,1.0,0.0));
#438=AXIS2_PLACEMENT_3D('',#435,#436,#437);
#439=CIRCLE('',#438,0.265);
#440=EDGE_CURVE('',#173,#183,#439,.T.);
#441=ORIENTED_EDGE('',*,*,#440,.F.);
#442=EDGE_LOOP('',(#426,#433,#434,#441));
#443=FACE_OUTER_BOUND('',#442,.T.);
#444=ADVANCED_FACE('',(#443),#425,.F.);
#445=CARTESIAN_POINT('',(0.75,2.25,0.320000000000001));
#446=DIRECTION('',(0.0,0.0,-1.0));
#447=DIRECTION('',(0.0,1.0,0.0));
#448=AXIS2_PLACEMENT_3D('',#445,#446,#447);
#449=PLANE('',#448);
#450=ORIENTED_EDGE('',*,*,#204,.T.);
#451=ORIENTED_EDGE('',*,*,#432,.T.);
#452=EDGE_LOOP('',(#450,#451));
#453=FACE_OUTER_BOUND('',#452,.T.);
#454=ORIENTED_EDGE('',*,*,#416,.F.);
#455=ORIENTED_EDGE('',*,*,#231,.F.);
#456=EDGE_LOOP('',(#454,#455));
#457=FACE_BOUND('',#456,.T.);
#458=ADVANCED_FACE('',(#453,#457),#449,.T.);
#459=CARTESIAN_POINT('',(0.75,1.5,7.771561E-016));
#460=DIRECTION('',(-1.224606E-016,-4.440892E-016,1.0));
#461=DIRECTION('',(0.0,1.0,0.0));
#462=AXIS2_PLACEMENT_3D('',#459,#460,#461);
#463=CYLINDRICAL_SURFACE('',#462,0.25);
#464=ORIENTED_EDGE('',*,*,#138,.T.);
#465=CARTESIAN_POINT('',(0.75,1.5,0.750000000000001));
#466=DIRECTION('',(0.0,0.0,-1.0));
#467=DIRECTION('',(0.0,1.0,0.0));
#468=AXIS2_PLACEMENT_3D('',#465,#466,#467);
#469=CIRCLE('',#468,0.25);
#470=EDGE_CURVE('',#150,#133,#469,.T.);
#471=ORIENTED_EDGE('',*,*,#470,.F.);
#472=ORIENTED_EDGE('',*,*,#155,.F.);
#473=CARTESIAN_POINT('',(0.75,1.5,7.771561E-016));
#474=DIRECTION('',(0.0,0.0,1.0));
#475=DIRECTION('',(0.0,1.0,0.0));
#476=AXIS2_PLACEMENT_3D('',#473,#474,#475);
#477=CIRCLE('',#476,0.25);
#478=EDGE_CURVE('',#131,#141,#477,.T.);
#479=ORIENTED_EDGE('',*,*,#478,.F.);
#480=EDGE_LOOP('',(#464,#471,#472,#479));
#481=FACE_OUTER_BOUND('',#480,.T.);
#482=ADVANCED_FACE('',(#481),#463,.F.);
#483=CARTESIAN_POINT('',(0.0,0.0,0.75));
#484=DIRECTION('',(0.0,-1.0,0.0));
#485=DIRECTION('',(0.0,0.0,-1.0));
#486=AXIS2_PLACEMENT_3D('',#483,#484,#485);
#487=PLANE('',#486);
#488=CARTESIAN_POINT('',(0.0,0.0,0.0));
#489=VERTEX_POINT('',#488);
#490=CARTESIAN_POINT('',(1.5,0.0,2.220446E-016));
#491=VERTEX_POINT('',#490);
#492=CARTESIAN_POINT('',(0.0,9.184548E-017,3.835365E-017));
#493=DIRECTION('',(1.0,0.0,0.0));
#494=VECTOR('',#493,1.5);
#495=LINE('',#492,#494);
#496=EDGE_CURVE('',#489,#491,#495,.T.);
#497=ORIENTED_EDGE('',*,*,#496,.T.);
#498=CARTESIAN_POINT('',(1.5,0.0,0.75));
#499=VERTEX_POINT('',#498);
#500=CARTESIAN_POINT('',(1.5,0.0,0.75));
#501=DIRECTION('',(0.0,0.0,-1.0));
#502=VECTOR('',#501,0.75);
#503=LINE('',#500,#502);
#504=EDGE_CURVE('',#499,#491,#503,.T.);
#505=ORIENTED_EDGE('',*,*,#504,.F.);
#506=CARTESIAN_POINT('',(0.0,0.0,0.75));
#507=VERTEX_POINT('',#506);
#508=CARTESIAN_POINT('',(1.5,0.0,0.75));
#509=DIRECTION('',(-1.0,0.0,0.0));
#510=VECTOR('',#509,1.5);
#511=LINE('',#508,#510);
#512=EDGE_CURVE('',#499,#507,#511,.T.);
#513=ORIENTED_EDGE('',*,*,#512,.T.);
#514=CARTESIAN_POINT('',(0.0,0.0,0.75));
#515=DIRECTION('',(0.0,0.0,-1.0));
#516=VECTOR('',#515,0.75);
#517=LINE('',#514,#516);
#518=EDGE_CURVE('',#507,#489,#517,.T.);
#519=ORIENTED_EDGE('',*,*,#518,.T.);
#520=EDGE_LOOP('',(#497,#505,#513,#519));
#521=FACE_OUTER_BOUND('',#520,.T.);
#522=ADVANCED_FACE('',(#521),#487,.T.);
#523=CARTESIAN_POINT('',(1.5,0.0,0.75));
#524=DIRECTION('',(1.0,0.0,0.0));
#525=DIRECTION('',(0.0,0.0,-1.0));
#526=AXIS2_PLACEMENT_3D('',#523,#524,#525);
#527=PLANE('',#526);
#528=CARTESIAN_POINT('',(1.5,3.0,1.554312E-015));
#529=VERTEX_POINT('',#528);
#530=CARTESIAN_POINT('',(1.5,0.0,2.220446E-016));
#531=DIRECTION('',(0.0,1.0,0.0));
#532=VECTOR('',#531,3.0);
#533=LINE('',#530,#532);
#534=EDGE_CURVE('',#491,#529,#533,.T.);
#535=ORIENTED_EDGE('',*,*,#534,.T.);
#536=CARTESIAN_POINT('',(1.5,3.0,0.750000000000002));
#537=VERTEX_POINT('',#536);
#538=CARTESIAN_POINT('',(1.5,3.0,0.750000000000002));
#539=DIRECTION('',(0.0,0.0,-1.0));
#540=VECTOR('',#539,0.75);
#541=LINE('',#538,#540);
#542=EDGE_CURVE('',#537,#529,#541,.T.);
#543=ORIENTED_EDGE('',*,*,#542,.F.);
#544=CARTESIAN_POINT('',(1.5,3.0,0.750000000000002));
#545=DIRECTION('',(0.0,-1.0,0.0));
#546=VECTOR('',#545,3.0);
#547=LINE('',#544,#546);
#548=EDGE_CURVE('',#537,#499,#547,.T.);
#549=ORIENTED_EDGE('',*,*,#548,.T.);
#550=ORIENTED_EDGE('',*,*,#504,.T.);
#551=EDGE_LOOP('',(#535,#543,#549,#550));
#552=FACE_OUTER_BOUND('',#551,.T.);
#553=ADVANCED_FACE('',(#552),#527,.T.);
#554=CARTESIAN_POINT('',(1.5,3.0,0.750000000000002));
#555=DIRECTION('',(0.0,1.0,0.0));
#556=DIRECTION('',(0.0,0.0,1.0));
#557=AXIS2_PLACEMENT_3D('',#554,#555,#556);
#558=PLANE('',#557);
#559=CARTESIAN_POINT('',(0.0,3.0,1.332268E-015));
#560=VERTEX_POINT('',#559);
#561=CARTESIAN_POINT('',(1.5,3.0,1.515959E-015));
#562=DIRECTION('',(-1.0,0.0,0.0));
#563=VECTOR('',#562,1.5);
#564=LINE('',#561,#563);
#565=EDGE_CURVE('',#529,#560,#564,.T.);
#566=ORIENTED_EDGE('',*,*,#565,.T.);
#567=CARTESIAN_POINT('',(0.0,3.0,0.750000000000001));
#568=VERTEX_POINT('',#567);
#569=CARTESIAN_POINT('',(0.0,3.0,0.750000000000001));
#570=DIRECTION('',(0.0,0.0,-1.0));
#571=VECTOR('',#570,0.75);
#572=LINE('',#569,#571);
#573=EDGE_CURVE('',#568,#560,#572,.T.);
#574=ORIENTED_EDGE('',*,*,#573,.F.);
#575=CARTESIAN_POINT('',(0.0,3.0,0.750000000000001));
#576=DIRECTION('',(1.0,0.0,0.0));
#577=VECTOR('',#576,1.5);
#578=LINE('',#575,#577);
#579=EDGE_CURVE('',#568,#537,#578,.T.);
#580=ORIENTED_EDGE('',*,*,#579,.T.);
#581=ORIENTED_EDGE('',*,*,#542,.T.);
#582=EDGE_LOOP('',(#566,#574,#580,#581));
#583=FACE_OUTER_BOUND('',#582,.T.);
#584=ADVANCED_FACE('',(#583),#558,.T.);
#585=CARTESIAN_POINT('',(0.0,3.0,0.750000000000001));
#586=DIRECTION('',(-1.0,0.0,0.0));
#587=DIRECTION('',(0.0,0.0,1.0));
#588=AXIS2_PLACEMENT_3D('',#585,#586,#587);
#589=PLANE('',#588);
#590=CARTESIAN_POINT('',(1.836910E-016,3.0,1.332268E-015));
#591=DIRECTION('',(0.0,-1.0,0.0));
#592=VECTOR('',#591,3.0);
#593=LINE('',#590,#592);
#594=EDGE_CURVE('',#560,#489,#593,.T.);
#595=ORIENTED_EDGE('',*,*,#594,.T.);
#596=ORIENTED_EDGE('',*,*,#518,.F.);
#597=CARTESIAN_POINT('',(0.0,0.0,0.75));
#598=DIRECTION('',(0.0,1.0,0.0));
#599=VECTOR('',#598,3.0);
#600=LINE('',#597,#599);
#601=EDGE_CURVE('',#507,#568,#600,.T.);
#602=ORIENTED_EDGE('',*,*,#601,.T.);
#603=ORIENTED_EDGE('',*,*,#573,.T.);
#604=EDGE_LOOP('',(#595,#596,#602,#603));
#605=FACE_OUTER_BOUND('',#604,.T.);
#606=ADVANCED_FACE('',(#605),#589,.T.);
#607=CARTESIAN_POINT('',(0.75,1.5,7.771561E-016));
#608=DIRECTION('',(0.0,0.0,-1.0));
#609=DIRECTION('',(0.0,1.0,0.0));
#610=AXIS2_PLACEMENT_3D('',#607,#608,#609);
#611=PLANE('',#610);
#612=ORIENTED_EDGE('',*,*,#496,.F.);
#613=ORIENTED_EDGE('',*,*,#594,.F.);
#614=ORIENTED_EDGE('',*,*,#565,.F.);
#615=ORIENTED_EDGE('',*,*,#534,.F.);
#616=EDGE_LOOP('',(#612,#613,#614,#615));
#617=FACE_OUTER_BOUND('',#616,.T.);
#618=ORIENTED_EDGE('',*,*,#378,.T.);
#619=ORIENTED_EDGE('',*,*,#273,.T.);
#620=EDGE_LOOP('',(#618,#619));
#621=FACE_BOUND('',#620,.T.);
#622=ORIENTED_EDGE('',*,*,#440,.T.);
#623=ORIENTED_EDGE('',*,*,#189,.T.);
#624=EDGE_LOOP('',(#622,#623));
#625=FACE_BOUND('',#624,.T.);
#626=ORIENTED_EDGE('',*,*,#478,.T.);
#627=ORIENTED_EDGE('',*,*,#147,.T.);
#628=EDGE_LOOP('',(#626,#627));
#629=FACE_BOUND('',#628,.T.);
#630=ADVANCED_FACE('',(#617,#621,#625,#629),#611,.T.);
#631=CARTESIAN_POINT('',(0.75,1.5,0.750000000000001));
#632=DIRECTION('',(0.0,0.0,-1.0));
#633=DIRECTION('',(0.0,1.0,0.0));
#634=AXIS2_PLACEMENT_3D('',#631,#632,#633);
#635=PLANE('',#634);
#636=ORIENTED_EDGE('',*,*,#601,.F.);
#637=ORIENTED_EDGE('',*,*,#512,.F.);
#638=ORIENTED_EDGE('',*,*,#548,.F.);
#639=ORIENTED_EDGE('',*,*,#579,.F.);
#640=EDGE_LOOP('',(#636,#637,#638,#639));
#641=FACE_OUTER_BOUND('',#640,.T.);
#642=ORIENTED_EDGE('',*,*,#330,.T.);
#643=ORIENTED_EDGE('',*,*,#346,.T.);
#644=EDGE_LOOP('',(#642,#643));
#645=FACE_BOUND('',#644,.T.);
#646=ORIENTED_EDGE('',*,*,#246,.T.);
#647=ORIENTED_EDGE('',*,*,#408,.T.);
#648=EDGE_LOOP('',(#646,#647));
#649=FACE_BOUND('',#648,.T.);
#650=ORIENTED_EDGE('',*,*,#162,.T.);
#651=ORIENTED_EDGE('',*,*,#470,.T.);
#652=EDGE_LOOP('',(#650,#651));
#653=FACE_BOUND('',#652,.T.);
#654=ADVANCED_FACE('',(#641,#645,#649,#653),#635,.F.);
#655=CLOSED_SHELL('',(#166,#208,#250,#292,#334,#358,#382,#396,#420,#444,#458,#482,#522,#553,#584,#606,#630,#654));
#656=MANIFOLD_SOLID_BREP('2B',#655);
#657=ADVANCED_BREP_SHAPE_REPRESENTATION('ABSR1',(#656),#28);
#658=SHAPE_REPRESENTATION_RELATIONSHIP('SRRPL1','',#657,#122);
ENDSEC;
END-ISO-10303-21;
