ISO-10303-21;
HEADER;
/****************************************************************
 * Generated by software with PDElib inside                    *
 * PDElib Version v51a, created Fri 09/10/2010                  *
 * ITI Transcendata (http://www.transcendata.com/)              *
 ****************************************************************/
FILE_DESCRIPTION((''),'2;1');
FILE_NAME('15BP2550.stp','2015-07-20T11:16:19',(''),(''),'Mechanical Desktop 2011','Mechanical Desktop 2011',', , ');
FILE_SCHEMA(('CONFIG_CONTROL_DESIGN'));
ENDSEC;
DATA;
#10=(NAMED_UNIT(*)PLANE_ANGLE_UNIT()SI_UNIT($,.RADIAN.));
#11=DIMENSIONAL_EXPONENTS(0.0,0.0,0.0,0.0,0.0,0.0,0.0);
#12=PLANE_ANGLE_MEASURE_WITH_UNIT(PLANE_ANGLE_MEASURE(0.0174532925),#10);
#16=(CONVERSION_BASED_UNIT('DEGREE',#12)NAMED_UNIT(#11)PLANE_ANGLE_UNIT());
#20=(NAMED_UNIT(*)SI_UNIT($,.STERADIAN.)SOLID_ANGLE_UNIT());
#24=(LENGTH_UNIT()NAMED_UNIT(*)SI_UNIT(.MILLI.,.METRE.));
#26=UNCERTAINTY_MEASURE_WITH_UNIT(LENGTH_MEASURE(0.000001),#24,'DISTANCE_ACCURACY_VALUE','');
#28=(GEOMETRIC_REPRESENTATION_CONTEXT(3)GLOBAL_UNCERTAINTY_ASSIGNED_CONTEXT((#26))GLOBAL_UNIT_ASSIGNED_CONTEXT((#16,#20,#24))REPRESENTATION_CONTEXT('','3D'));
#29=APPLICATION_CONTEXT('CONFIGURATION CONTROLLED 3D DESIGNS OF MECHANICAL PARTS AND ASSEMBLIES');
#30=APPLICATION_PROTOCOL_DEFINITION('INTERNATIONAL STANDARD','config_control_design',1995,#29);
#31=MECHANICAL_CONTEXT('3D Mechanical Parts',#29,'mechanical');
#32=PRODUCT('Product','Product',' ',(#31));
#33=PRODUCT_RELATED_PRODUCT_CATEGORY('detail',$,(#32));
#34=PRODUCT_CATEGORY('part',$);
#35=PRODUCT_CATEGORY_RELATIONSHIP('None','None',#34,#33);
#36=PERSON('1','Design','Joe',$,$,$);
#37=ORGANIZATION($,'None','None');
#38=PERSON_AND_ORGANIZATION(#36,#37);
#39=PERSON_AND_ORGANIZATION_ROLE('design_owner');
#40=CC_DESIGN_PERSON_AND_ORGANIZATION_ASSIGNMENT(#38,#39,(#32));
#41=PRODUCT_DEFINITION_FORMATION_WITH_SPECIFIED_SOURCE('None','None',#32,.BOUGHT.);
#42=PERSON('2','Creator','Joe',$,$,$);
#43=ORGANIZATION($,'None','None');
#44=PERSON_AND_ORGANIZATION(#42,#43);
#45=PERSON_AND_ORGANIZATION_ROLE('creator');
#46=CC_DESIGN_PERSON_AND_ORGANIZATION_ASSIGNMENT(#44,#45,(#41));
#47=PERSON('3','Supplier','Joe',$,$,$);
#48=ORGANIZATION($,'None','None');
#49=PERSON_AND_ORGANIZATION(#47,#48);
#50=PERSON_AND_ORGANIZATION_ROLE('design_supplier');
#51=CC_DESIGN_PERSON_AND_ORGANIZATION_ASSIGNMENT(#49,#50,(#41));
#52=APPROVAL_STATUS('approved');
#53=APPROVAL(#52,'None');
#54=PERSON('4','Approver','Joe',$,$,$);
#55=ORGANIZATION($,'None','None');
#56=PERSON_AND_ORGANIZATION(#54,#55);
#57=APPROVAL_ROLE('approver');
#58=APPROVAL_PERSON_ORGANIZATION(#56,#53,#57);
#59=COORDINATED_UNIVERSAL_TIME_OFFSET(8,$,.EXACT.);
#60=CALENDAR_DATE(1996,29,5);
#61=LOCAL_TIME(12,0,0.0,#59);
#62=DATE_AND_TIME(#60,#61);
#63=APPROVAL_DATE_TIME(#62,#53);
#64=CC_DESIGN_APPROVAL(#53,(#41));
#65=SECURITY_CLASSIFICATION_LEVEL('unclassified');
#66=SECURITY_CLASSIFICATION('security','None',#65);
#67=CC_DESIGN_SECURITY_CLASSIFICATION(#66,(#41));
#68=APPROVAL_STATUS('approved');
#69=APPROVAL(#68,'None');
#70=PERSON('5','Approver','Joe',$,$,$);
#71=ORGANIZATION($,'None','None');
#72=PERSON_AND_ORGANIZATION(#70,#71);
#73=APPROVAL_ROLE('approver');
#74=APPROVAL_PERSON_ORGANIZATION(#72,#69,#73);
#75=COORDINATED_UNIVERSAL_TIME_OFFSET(8,$,.EXACT.);
#76=CALENDAR_DATE(1996,29,5);
#77=LOCAL_TIME(12,0,0.0,#75);
#78=DATE_AND_TIME(#76,#77);
#79=APPROVAL_DATE_TIME(#78,#69);
#80=CC_DESIGN_APPROVAL(#69,(#66));
#81=PERSON('6','Classifier','Joe',$,$,$);
#82=ORGANIZATION($,'None','None');
#83=PERSON_AND_ORGANIZATION(#81,#82);
#84=PERSON_AND_ORGANIZATION_ROLE('classification_officer');
#85=CC_DESIGN_PERSON_AND_ORGANIZATION_ASSIGNMENT(#83,#84,(#66));
#86=COORDINATED_UNIVERSAL_TIME_OFFSET(8,$,.EXACT.);
#87=CALENDAR_DATE(1996,29,5);
#88=LOCAL_TIME(12,0,0.0,#86);
#89=DATE_AND_TIME(#87,#88);
#90=DATE_TIME_ROLE('classification_date');
#91=CC_DESIGN_DATE_AND_TIME_ASSIGNMENT(#89,#90,(#66));
#92=DESIGN_CONTEXT('Design Context',#29,'design');
#93=PRODUCT_DEFINITION('None','None',#41,#92);
#94=PERSON('7','Creator','Joe',$,$,$);
#95=ORGANIZATION($,'None','None');
#96=PERSON_AND_ORGANIZATION(#94,#95);
#97=PERSON_AND_ORGANIZATION_ROLE('creator');
#98=CC_DESIGN_PERSON_AND_ORGANIZATION_ASSIGNMENT(#96,#97,(#93));
#99=COORDINATED_UNIVERSAL_TIME_OFFSET(8,$,.EXACT.);
#100=CALENDAR_DATE(1996,29,5);
#101=LOCAL_TIME(12,0,0.0,#99);
#102=DATE_AND_TIME(#100,#101);
#103=DATE_TIME_ROLE('creation_date');
#104=CC_DESIGN_DATE_AND_TIME_ASSIGNMENT(#102,#103,(#93));
#105=APPROVAL_STATUS('approved');
#106=APPROVAL(#105,'None');
#107=PERSON('8','Approver','Joe',$,$,$);
#108=ORGANIZATION($,'None','None');
#109=PERSON_AND_ORGANIZATION(#107,#108);
#110=APPROVAL_ROLE('approver');
#111=APPROVAL_PERSON_ORGANIZATION(#109,#106,#110);
#112=COORDINATED_UNIVERSAL_TIME_OFFSET(8,$,.EXACT.);
#113=CALENDAR_DATE(1996,29,5);
#114=LOCAL_TIME(12,0,0.0,#112);
#115=DATE_AND_TIME(#113,#114);
#116=APPROVAL_DATE_TIME(#115,#106);
#117=CC_DESIGN_APPROVAL(#106,(#93));
#118=CARTESIAN_POINT('NONE',(0.0,0.0,0.0));
#119=DIRECTION('NONE',(0.0,0.0,1.0));
#120=DIRECTION('NONE',(1.0,0.0,0.0));
#121=AXIS2_PLACEMENT_3D('NONE',#118,#119,#120);
#122=SHAPE_REPRESENTATION('SR1',(#121),#28);
#123=PRODUCT_DEFINITION_SHAPE('PDS1','Test Part',#93);
#124=SHAPE_DEFINITION_REPRESENTATION(#123,#122);
#125=CARTESIAN_POINT('',(0.75,0.75,0.32));
#126=DIRECTION('',(1.224606E-016,4.440892E-016,1.0));
#127=DIRECTION('',(1.0,0.0,0.0));
#128=AXIS2_PLACEMENT_3D('',#125,#126,#127);
#129=CYLINDRICAL_SURFACE('',#128,0.171);
#130=CARTESIAN_POINT('',(0.921,0.75,0.32));
#131=VERTEX_POINT('',#130);
#132=CARTESIAN_POINT('',(0.921,0.75,0.75));
#133=VERTEX_POINT('',#132);
#134=CARTESIAN_POINT('',(0.921,0.75,0.32));
#135=DIRECTION('',(0.0,0.0,1.0));
#136=VECTOR('',#135,0.43);
#137=LINE('',#134,#136);
#138=EDGE_CURVE('',#131,#133,#137,.T.);
#139=ORIENTED_EDGE('',*,*,#138,.F.);
#140=CARTESIAN_POINT('',(0.579,0.75,0.32));
#141=VERTEX_POINT('',#140);
#142=CARTESIAN_POINT('',(0.75,0.75,0.32));
#143=DIRECTION('',(0.0,0.0,-1.0));
#144=DIRECTION('',(1.0,0.0,0.0));
#145=AXIS2_PLACEMENT_3D('',#142,#143,#144);
#146=CIRCLE('',#145,0.171);
#147=EDGE_CURVE('',#131,#141,#146,.T.);
#148=ORIENTED_EDGE('',*,*,#147,.T.);
#149=CARTESIAN_POINT('',(0.579,0.75,0.75));
#150=VERTEX_POINT('',#149);
#151=CARTESIAN_POINT('',(0.579,0.75,0.32));
#152=DIRECTION('',(0.0,0.0,1.0));
#153=VECTOR('',#152,0.43);
#154=LINE('',#151,#153);
#155=EDGE_CURVE('',#141,#150,#154,.T.);
#156=ORIENTED_EDGE('',*,*,#155,.T.);
#157=CARTESIAN_POINT('',(0.75,0.75,0.75));
#158=DIRECTION('',(0.0,0.0,-1.0));
#159=DIRECTION('',(1.0,0.0,0.0));
#160=AXIS2_PLACEMENT_3D('',#157,#158,#159);
#161=CIRCLE('',#160,0.171);
#162=EDGE_CURVE('',#133,#150,#161,.T.);
#163=ORIENTED_EDGE('',*,*,#162,.F.);
#164=EDGE_LOOP('',(#139,#148,#156,#163));
#165=FACE_OUTER_BOUND('',#164,.T.);
#166=ADVANCED_FACE('',(#165),#129,.F.);
#167=CARTESIAN_POINT('',(0.75,0.75,-4.440892E-016));
#168=DIRECTION('',(1.224606E-016,4.440892E-016,1.0));
#169=DIRECTION('',(1.0,0.0,0.0));
#170=AXIS2_PLACEMENT_3D('',#167,#168,#169);
#171=CYLINDRICAL_SURFACE('',#170,0.265);
#172=CARTESIAN_POINT('',(1.015,0.75,-4.440892E-016));
#173=VERTEX_POINT('',#172);
#174=CARTESIAN_POINT('',(1.015,0.75,0.32));
#175=VERTEX_POINT('',#174);
#176=CARTESIAN_POINT('',(1.015,0.75,-4.440892E-016));
#177=DIRECTION('',(0.0,0.0,1.0));
#178=VECTOR('',#177,0.32);
#179=LINE('',#176,#178);
#180=EDGE_CURVE('',#173,#175,#179,.T.);
#181=ORIENTED_EDGE('',*,*,#180,.F.);
#182=CARTESIAN_POINT('',(0.485,0.75,-4.116371E-016));
#183=VERTEX_POINT('',#182);
#184=CARTESIAN_POINT('',(0.75,0.75,-4.440892E-016));
#185=DIRECTION('',(0.0,0.0,1.0));
#186=DIRECTION('',(1.0,0.0,0.0));
#187=AXIS2_PLACEMENT_3D('',#184,#185,#186);
#188=CIRCLE('',#187,0.265);
#189=EDGE_CURVE('',#183,#173,#188,.T.);
#190=ORIENTED_EDGE('',*,*,#189,.F.);
#191=CARTESIAN_POINT('',(0.485,0.75,0.32));
#192=VERTEX_POINT('',#191);
#193=CARTESIAN_POINT('',(0.485,0.75,-4.116371E-016));
#194=DIRECTION('',(0.0,0.0,1.0));
#195=VECTOR('',#194,0.32);
#196=LINE('',#193,#195);
#197=EDGE_CURVE('',#183,#192,#196,.T.);
#198=ORIENTED_EDGE('',*,*,#197,.T.);
#199=CARTESIAN_POINT('',(0.75,0.75,0.32));
#200=DIRECTION('',(0.0,0.0,-1.0));
#201=DIRECTION('',(1.0,0.0,0.0));
#202=AXIS2_PLACEMENT_3D('',#199,#200,#201);
#203=CIRCLE('',#202,0.265);
#204=EDGE_CURVE('',#175,#192,#203,.T.);
#205=ORIENTED_EDGE('',*,*,#204,.F.);
#206=EDGE_LOOP('',(#181,#190,#198,#205));
#207=FACE_OUTER_BOUND('',#206,.T.);
#208=ADVANCED_FACE('',(#207),#171,.F.);
#209=CARTESIAN_POINT('',(0.75,2.25,0.319999999999999));
#210=DIRECTION('',(1.224606E-016,4.440892E-016,1.0));
#211=DIRECTION('',(1.0,0.0,0.0));
#212=AXIS2_PLACEMENT_3D('',#209,#210,#211);
#213=CYLINDRICAL_SURFACE('',#212,0.171);
#214=CARTESIAN_POINT('',(0.921,2.25,0.319999999999999));
#215=VERTEX_POINT('',#214);
#216=CARTESIAN_POINT('',(0.921,2.25,0.749999999999999));
#217=VERTEX_POINT('',#216);
#218=CARTESIAN_POINT('',(0.921,2.25,0.319999999999999));
#219=DIRECTION('',(0.0,0.0,1.0));
#220=VECTOR('',#219,0.43);
#221=LINE('',#218,#220);
#222=EDGE_CURVE('',#215,#217,#221,.T.);
#223=ORIENTED_EDGE('',*,*,#222,.F.);
#224=CARTESIAN_POINT('',(0.579,2.25,0.319999999999999));
#225=VERTEX_POINT('',#224);
#226=CARTESIAN_POINT('',(0.75,2.25,0.319999999999999));
#227=DIRECTION('',(0.0,0.0,-1.0));
#228=DIRECTION('',(1.0,0.0,0.0));
#229=AXIS2_PLACEMENT_3D('',#226,#227,#228);
#230=CIRCLE('',#229,0.171);
#231=EDGE_CURVE('',#215,#225,#230,.T.);
#232=ORIENTED_EDGE('',*,*,#231,.T.);
#233=CARTESIAN_POINT('',(0.579,2.25,0.749999999999999));
#234=VERTEX_POINT('',#233);
#235=CARTESIAN_POINT('',(0.579,2.25,0.319999999999999));
#236=DIRECTION('',(0.0,0.0,1.0));
#237=VECTOR('',#236,0.43);
#238=LINE('',#235,#237);
#239=EDGE_CURVE('',#225,#234,#238,.T.);
#240=ORIENTED_EDGE('',*,*,#239,.T.);
#241=CARTESIAN_POINT('',(0.75,2.25,0.749999999999999));
#242=DIRECTION('',(0.0,0.0,-1.0));
#243=DIRECTION('',(1.0,0.0,0.0));
#244=AXIS2_PLACEMENT_3D('',#241,#242,#243);
#245=CIRCLE('',#244,0.171);
#246=EDGE_CURVE('',#217,#234,#245,.T.);
#247=ORIENTED_EDGE('',*,*,#246,.F.);
#248=EDGE_LOOP('',(#223,#232,#240,#247));
#249=FACE_OUTER_BOUND('',#248,.T.);
#250=ADVANCED_FACE('',(#249),#213,.F.);
#251=CARTESIAN_POINT('',(0.75,2.25,-1.110223E-015));
#252=DIRECTION('',(1.224606E-016,4.440892E-016,1.0));
#253=DIRECTION('',(1.0,0.0,0.0));
#254=AXIS2_PLACEMENT_3D('',#251,#252,#253);
#255=CYLINDRICAL_SURFACE('',#254,0.265);
#256=CARTESIAN_POINT('',(1.015,2.25,-1.110223E-015));
#257=VERTEX_POINT('',#256);
#258=CARTESIAN_POINT('',(1.015,2.25,0.319999999999999));
#259=VERTEX_POINT('',#258);
#260=CARTESIAN_POINT('',(1.015,2.25,-1.110223E-015));
#261=DIRECTION('',(0.0,0.0,1.0));
#262=VECTOR('',#261,0.32);
#263=LINE('',#260,#262);
#264=EDGE_CURVE('',#257,#259,#263,.T.);
#265=ORIENTED_EDGE('',*,*,#264,.F.);
#266=CARTESIAN_POINT('',(0.485,2.25,-1.077771E-015));
#267=VERTEX_POINT('',#266);
#268=CARTESIAN_POINT('',(0.75,2.25,-1.110223E-015));
#269=DIRECTION('',(0.0,0.0,1.0));
#270=DIRECTION('',(1.0,0.0,0.0));
#271=AXIS2_PLACEMENT_3D('',#268,#269,#270);
#272=CIRCLE('',#271,0.265);
#273=EDGE_CURVE('',#267,#257,#272,.T.);
#274=ORIENTED_EDGE('',*,*,#273,.F.);
#275=CARTESIAN_POINT('',(0.485,2.25,0.319999999999999));
#276=VERTEX_POINT('',#275);
#277=CARTESIAN_POINT('',(0.485,2.25,-1.077771E-015));
#278=DIRECTION('',(0.0,0.0,1.0));
#279=VECTOR('',#278,0.32);
#280=LINE('',#277,#279);
#281=EDGE_CURVE('',#267,#276,#280,.T.);
#282=ORIENTED_EDGE('',*,*,#281,.T.);
#283=CARTESIAN_POINT('',(0.75,2.25,0.319999999999999));
#284=DIRECTION('',(0.0,0.0,-1.0));
#285=DIRECTION('',(1.0,0.0,0.0));
#286=AXIS2_PLACEMENT_3D('',#283,#284,#285);
#287=CIRCLE('',#286,0.265);
#288=EDGE_CURVE('',#259,#276,#287,.T.);
#289=ORIENTED_EDGE('',*,*,#288,.F.);
#290=EDGE_LOOP('',(#265,#274,#282,#289));
#291=FACE_OUTER_BOUND('',#290,.T.);
#292=ADVANCED_FACE('',(#291),#255,.F.);
#293=CARTESIAN_POINT('',(0.75,1.5,-7.771561E-016));
#294=DIRECTION('',(1.224606E-016,4.440892E-016,1.0));
#295=DIRECTION('',(1.0,0.0,0.0));
#296=AXIS2_PLACEMENT_3D('',#293,#294,#295);
#297=CYLINDRICAL_SURFACE('',#296,0.25);
#298=CARTESIAN_POINT('',(1.0,1.5,-7.771561E-016));
#299=VERTEX_POINT('',#298);
#300=CARTESIAN_POINT('',(1.0,1.5,0.749999999999999));
#301=VERTEX_POINT('',#300);
#302=CARTESIAN_POINT('',(1.0,1.5,-7.771561E-016));
#303=DIRECTION('',(0.0,0.0,1.0));
#304=VECTOR('',#303,0.75);
#305=LINE('',#302,#304);
#306=EDGE_CURVE('',#299,#301,#305,.T.);
#307=ORIENTED_EDGE('',*,*,#306,.F.);
#308=CARTESIAN_POINT('',(0.5,1.5,-7.465410E-016));
#309=VERTEX_POINT('',#308);
#310=CARTESIAN_POINT('',(0.75,1.5,-7.771561E-016));
#311=DIRECTION('',(0.0,0.0,1.0));
#312=DIRECTION('',(1.0,0.0,0.0));
#313=AXIS2_PLACEMENT_3D('',#310,#311,#312);
#314=CIRCLE('',#313,0.25);
#315=EDGE_CURVE('',#309,#299,#314,.T.);
#316=ORIENTED_EDGE('',*,*,#315,.F.);
#317=CARTESIAN_POINT('',(0.5,1.5,0.749999999999999));
#318=VERTEX_POINT('',#317);
#319=CARTESIAN_POINT('',(0.5,1.5,-7.465410E-016));
#320=DIRECTION('',(0.0,0.0,1.0));
#321=VECTOR('',#320,0.75);
#322=LINE('',#319,#321);
#323=EDGE_CURVE('',#309,#318,#322,.T.);
#324=ORIENTED_EDGE('',*,*,#323,.T.);
#325=CARTESIAN_POINT('',(0.75,1.5,0.749999999999999));
#326=DIRECTION('',(0.0,0.0,-1.0));
#327=DIRECTION('',(1.0,0.0,0.0));
#328=AXIS2_PLACEMENT_3D('',#325,#326,#327);
#329=CIRCLE('',#328,0.25);
#330=EDGE_CURVE('',#301,#318,#329,.T.);
#331=ORIENTED_EDGE('',*,*,#330,.F.);
#332=EDGE_LOOP('',(#307,#316,#324,#331));
#333=FACE_OUTER_BOUND('',#332,.T.);
#334=ADVANCED_FACE('',(#333),#297,.F.);
#335=CARTESIAN_POINT('',(0.75,4.0,-1.887379E-015));
#336=DIRECTION('',(1.224606E-016,4.440892E-016,1.0));
#337=DIRECTION('',(1.0,0.0,0.0));
#338=AXIS2_PLACEMENT_3D('',#335,#336,#337);
#339=CYLINDRICAL_SURFACE('',#338,0.265);
#340=CARTESIAN_POINT('',(1.015,4.0,-1.887379E-015));
#341=VERTEX_POINT('',#340);
#342=CARTESIAN_POINT('',(1.015,4.0,0.749999999999998));
#343=VERTEX_POINT('',#342);
#344=CARTESIAN_POINT('',(1.015,4.0,-1.887379E-015));
#345=DIRECTION('',(0.0,0.0,1.0));
#346=VECTOR('',#345,0.75);
#347=LINE('',#344,#346);
#348=EDGE_CURVE('',#341,#343,#347,.T.);
#349=ORIENTED_EDGE('',*,*,#348,.F.);
#350=CARTESIAN_POINT('',(0.485,4.0,-1.854927E-015));
#351=VERTEX_POINT('',#350);
#352=CARTESIAN_POINT('',(0.75,4.0,-1.887379E-015));
#353=DIRECTION('',(0.0,0.0,1.0));
#354=DIRECTION('',(1.0,0.0,0.0));
#355=AXIS2_PLACEMENT_3D('',#352,#353,#354);
#356=CIRCLE('',#355,0.265);
#357=EDGE_CURVE('',#351,#341,#356,.T.);
#358=ORIENTED_EDGE('',*,*,#357,.F.);
#359=CARTESIAN_POINT('',(0.485,4.0,0.749999999999998));
#360=VERTEX_POINT('',#359);
#361=CARTESIAN_POINT('',(0.485,4.0,-1.854927E-015));
#362=DIRECTION('',(0.0,0.0,1.0));
#363=VECTOR('',#362,0.75);
#364=LINE('',#361,#363);
#365=EDGE_CURVE('',#351,#360,#364,.T.);
#366=ORIENTED_EDGE('',*,*,#365,.T.);
#367=CARTESIAN_POINT('',(0.75,4.0,0.749999999999998));
#368=DIRECTION('',(0.0,0.0,-1.0));
#369=DIRECTION('',(1.0,0.0,0.0));
#370=AXIS2_PLACEMENT_3D('',#367,#368,#369);
#371=CIRCLE('',#370,0.265);
#372=EDGE_CURVE('',#343,#360,#371,.T.);
#373=ORIENTED_EDGE('',*,*,#372,.F.);
#374=EDGE_LOOP('',(#349,#358,#366,#373));
#375=FACE_OUTER_BOUND('',#374,.T.);
#376=ADVANCED_FACE('',(#375),#339,.F.);
#377=CARTESIAN_POINT('',(0.75,4.0,-1.887379E-015));
#378=DIRECTION('',(1.224606E-016,4.440892E-016,1.0));
#379=DIRECTION('',(1.0,0.0,0.0));
#380=AXIS2_PLACEMENT_3D('',#377,#378,#379);
#381=CYLINDRICAL_SURFACE('',#380,0.265);
#382=ORIENTED_EDGE('',*,*,#348,.T.);
#383=CARTESIAN_POINT('',(0.75,4.0,0.749999999999998));
#384=DIRECTION('',(0.0,0.0,-1.0));
#385=DIRECTION('',(1.0,0.0,0.0));
#386=AXIS2_PLACEMENT_3D('',#383,#384,#385);
#387=CIRCLE('',#386,0.265);
#388=EDGE_CURVE('',#360,#343,#387,.T.);
#389=ORIENTED_EDGE('',*,*,#388,.F.);
#390=ORIENTED_EDGE('',*,*,#365,.F.);
#391=CARTESIAN_POINT('',(0.75,4.0,-1.887379E-015));
#392=DIRECTION('',(0.0,0.0,1.0));
#393=DIRECTION('',(1.0,0.0,0.0));
#394=AXIS2_PLACEMENT_3D('',#391,#392,#393);
#395=CIRCLE('',#394,0.265);
#396=EDGE_CURVE('',#341,#351,#395,.T.);
#397=ORIENTED_EDGE('',*,*,#396,.F.);
#398=EDGE_LOOP('',(#382,#389,#390,#397));
#399=FACE_OUTER_BOUND('',#398,.T.);
#400=ADVANCED_FACE('',(#399),#381,.F.);
#401=CARTESIAN_POINT('',(0.75,1.5,-7.771561E-016));
#402=DIRECTION('',(1.224606E-016,4.440892E-016,1.0));
#403=DIRECTION('',(1.0,0.0,0.0));
#404=AXIS2_PLACEMENT_3D('',#401,#402,#403);
#405=CYLINDRICAL_SURFACE('',#404,0.25);
#406=ORIENTED_EDGE('',*,*,#306,.T.);
#407=CARTESIAN_POINT('',(0.75,1.5,0.749999999999999));
#408=DIRECTION('',(0.0,0.0,-1.0));
#409=DIRECTION('',(1.0,0.0,0.0));
#410=AXIS2_PLACEMENT_3D('',#407,#408,#409);
#411=CIRCLE('',#410,0.25);
#412=EDGE_CURVE('',#318,#301,#411,.T.);
#413=ORIENTED_EDGE('',*,*,#412,.F.);
#414=ORIENTED_EDGE('',*,*,#323,.F.);
#415=CARTESIAN_POINT('',(0.75,1.5,-7.771561E-016));
#416=DIRECTION('',(0.0,0.0,1.0));
#417=DIRECTION('',(1.0,0.0,0.0));
#418=AXIS2_PLACEMENT_3D('',#415,#416,#417);
#419=CIRCLE('',#418,0.25);
#420=EDGE_CURVE('',#299,#309,#419,.T.);
#421=ORIENTED_EDGE('',*,*,#420,.F.);
#422=EDGE_LOOP('',(#406,#413,#414,#421));
#423=FACE_OUTER_BOUND('',#422,.T.);
#424=ADVANCED_FACE('',(#423),#405,.F.);
#425=CARTESIAN_POINT('',(1.015,2.25,0.319999999999999));
#426=DIRECTION('',(0.0,0.0,-1.0));
#427=DIRECTION('',(1.0,0.0,0.0));
#428=AXIS2_PLACEMENT_3D('',#425,#426,#427);
#429=PLANE('',#428);
#430=ORIENTED_EDGE('',*,*,#288,.T.);
#431=CARTESIAN_POINT('',(0.75,2.25,0.319999999999999));
#432=DIRECTION('',(0.0,0.0,-1.0));
#433=DIRECTION('',(1.0,0.0,0.0));
#434=AXIS2_PLACEMENT_3D('',#431,#432,#433);
#435=CIRCLE('',#434,0.265);
#436=EDGE_CURVE('',#276,#259,#435,.T.);
#437=ORIENTED_EDGE('',*,*,#436,.T.);
#438=EDGE_LOOP('',(#430,#437));
#439=FACE_OUTER_BOUND('',#438,.T.);
#440=ORIENTED_EDGE('',*,*,#231,.F.);
#441=CARTESIAN_POINT('',(0.75,2.25,0.319999999999999));
#442=DIRECTION('',(0.0,0.0,-1.0));
#443=DIRECTION('',(1.0,0.0,0.0));
#444=AXIS2_PLACEMENT_3D('',#441,#442,#443);
#445=CIRCLE('',#444,0.171);
#446=EDGE_CURVE('',#225,#215,#445,.T.);
#447=ORIENTED_EDGE('',*,*,#446,.F.);
#448=EDGE_LOOP('',(#440,#447));
#449=FACE_BOUND('',#448,.T.);
#450=ADVANCED_FACE('',(#439,#449),#429,.T.);
#451=CARTESIAN_POINT('',(0.75,2.25,-1.110223E-015));
#452=DIRECTION('',(1.224606E-016,4.440892E-016,1.0));
#453=DIRECTION('',(1.0,0.0,0.0));
#454=AXIS2_PLACEMENT_3D('',#451,#452,#453);
#455=CYLINDRICAL_SURFACE('',#454,0.265);
#456=ORIENTED_EDGE('',*,*,#264,.T.);
#457=ORIENTED_EDGE('',*,*,#436,.F.);
#458=ORIENTED_EDGE('',*,*,#281,.F.);
#459=CARTESIAN_POINT('',(0.75,2.25,-1.110223E-015));
#460=DIRECTION('',(0.0,0.0,1.0));
#461=DIRECTION('',(1.0,0.0,0.0));
#462=AXIS2_PLACEMENT_3D('',#459,#460,#461);
#463=CIRCLE('',#462,0.265);
#464=EDGE_CURVE('',#257,#267,#463,.T.);
#465=ORIENTED_EDGE('',*,*,#464,.F.);
#466=EDGE_LOOP('',(#456,#457,#458,#465));
#467=FACE_OUTER_BOUND('',#466,.T.);
#468=ADVANCED_FACE('',(#467),#455,.F.);
#469=CARTESIAN_POINT('',(0.75,2.25,0.319999999999999));
#470=DIRECTION('',(1.224606E-016,4.440892E-016,1.0));
#471=DIRECTION('',(1.0,0.0,0.0));
#472=AXIS2_PLACEMENT_3D('',#469,#470,#471);
#473=CYLINDRICAL_SURFACE('',#472,0.171);
#474=ORIENTED_EDGE('',*,*,#222,.T.);
#475=CARTESIAN_POINT('',(0.75,2.25,0.749999999999999));
#476=DIRECTION('',(0.0,0.0,-1.0));
#477=DIRECTION('',(1.0,0.0,0.0));
#478=AXIS2_PLACEMENT_3D('',#475,#476,#477);
#479=CIRCLE('',#478,0.171);
#480=EDGE_CURVE('',#234,#217,#479,.T.);
#481=ORIENTED_EDGE('',*,*,#480,.F.);
#482=ORIENTED_EDGE('',*,*,#239,.F.);
#483=ORIENTED_EDGE('',*,*,#446,.T.);
#484=EDGE_LOOP('',(#474,#481,#482,#483));
#485=FACE_OUTER_BOUND('',#484,.T.);
#486=ADVANCED_FACE('',(#485),#473,.F.);
#487=CARTESIAN_POINT('',(1.015,0.75,0.32));
#488=DIRECTION('',(0.0,0.0,-1.0));
#489=DIRECTION('',(1.0,0.0,0.0));
#490=AXIS2_PLACEMENT_3D('',#487,#488,#489);
#491=PLANE('',#490);
#492=ORIENTED_EDGE('',*,*,#204,.T.);
#493=CARTESIAN_POINT('',(0.75,0.75,0.32));
#494=DIRECTION('',(0.0,0.0,-1.0));
#495=DIRECTION('',(1.0,0.0,0.0));
#496=AXIS2_PLACEMENT_3D('',#493,#494,#495);
#497=CIRCLE('',#496,0.265);
#498=EDGE_CURVE('',#192,#175,#497,.T.);
#499=ORIENTED_EDGE('',*,*,#498,.T.);
#500=EDGE_LOOP('',(#492,#499));
#501=FACE_OUTER_BOUND('',#500,.T.);
#502=ORIENTED_EDGE('',*,*,#147,.F.);
#503=CARTESIAN_POINT('',(0.75,0.75,0.32));
#504=DIRECTION('',(0.0,0.0,-1.0));
#505=DIRECTION('',(1.0,0.0,0.0));
#506=AXIS2_PLACEMENT_3D('',#503,#504,#505);
#507=CIRCLE('',#506,0.171);
#508=EDGE_CURVE('',#141,#131,#507,.T.);
#509=ORIENTED_EDGE('',*,*,#508,.F.);
#510=EDGE_LOOP('',(#502,#509));
#511=FACE_BOUND('',#510,.T.);
#512=ADVANCED_FACE('',(#501,#511),#491,.T.);
#513=CARTESIAN_POINT('',(0.75,0.75,-4.440892E-016));
#514=DIRECTION('',(1.224606E-016,4.440892E-016,1.0));
#515=DIRECTION('',(1.0,0.0,0.0));
#516=AXIS2_PLACEMENT_3D('',#513,#514,#515);
#517=CYLINDRICAL_SURFACE('',#516,0.265);
#518=ORIENTED_EDGE('',*,*,#180,.T.);
#519=ORIENTED_EDGE('',*,*,#498,.F.);
#520=ORIENTED_EDGE('',*,*,#197,.F.);
#521=CARTESIAN_POINT('',(0.75,0.75,-4.440892E-016));
#522=DIRECTION('',(0.0,0.0,1.0));
#523=DIRECTION('',(1.0,0.0,0.0));
#524=AXIS2_PLACEMENT_3D('',#521,#522,#523);
#525=CIRCLE('',#524,0.265);
#526=EDGE_CURVE('',#173,#183,#525,.T.);
#527=ORIENTED_EDGE('',*,*,#526,.F.);
#528=EDGE_LOOP('',(#518,#519,#520,#527));
#529=FACE_OUTER_BOUND('',#528,.T.);
#530=ADVANCED_FACE('',(#529),#517,.F.);
#531=CARTESIAN_POINT('',(0.75,0.75,0.32));
#532=DIRECTION('',(1.224606E-016,4.440892E-016,1.0));
#533=DIRECTION('',(1.0,0.0,0.0));
#534=AXIS2_PLACEMENT_3D('',#531,#532,#533);
#535=CYLINDRICAL_SURFACE('',#534,0.171);
#536=ORIENTED_EDGE('',*,*,#138,.T.);
#537=CARTESIAN_POINT('',(0.75,0.75,0.75));
#538=DIRECTION('',(0.0,0.0,-1.0));
#539=DIRECTION('',(1.0,0.0,0.0));
#540=AXIS2_PLACEMENT_3D('',#537,#538,#539);
#541=CIRCLE('',#540,0.171);
#542=EDGE_CURVE('',#150,#133,#541,.T.);
#543=ORIENTED_EDGE('',*,*,#542,.F.);
#544=ORIENTED_EDGE('',*,*,#155,.F.);
#545=ORIENTED_EDGE('',*,*,#508,.T.);
#546=EDGE_LOOP('',(#536,#543,#544,#545));
#547=FACE_OUTER_BOUND('',#546,.T.);
#548=ADVANCED_FACE('',(#547),#535,.F.);
#549=CARTESIAN_POINT('',(-4.440892E-016,4.5,0.749999999999998));
#550=DIRECTION('',(-1.0,0.0,0.0));
#551=DIRECTION('',(0.0,0.0,-1.0));
#552=AXIS2_PLACEMENT_3D('',#549,#550,#551);
#553=PLANE('',#552);
#554=CARTESIAN_POINT('',(-6.661338E-016,4.5,-1.998401E-015));
#555=VERTEX_POINT('',#554);
#556=CARTESIAN_POINT('',(0.0,0.0,0.0));
#557=VERTEX_POINT('',#556);
#558=CARTESIAN_POINT('',(-5.510729E-016,4.5,-1.998401E-015));
#559=DIRECTION('',(0.0,-1.0,0.0));
#560=VECTOR('',#559,4.5);
#561=LINE('',#558,#560);
#562=EDGE_CURVE('',#555,#557,#561,.T.);
#563=ORIENTED_EDGE('',*,*,#562,.T.);
#564=CARTESIAN_POINT('',(0.0,3.330669E-016,0.75));
#565=VERTEX_POINT('',#564);
#566=CARTESIAN_POINT('',(0.0,3.330669E-016,0.75));
#567=DIRECTION('',(0.0,0.0,-1.0));
#568=VECTOR('',#567,0.75);
#569=LINE('',#566,#568);
#570=EDGE_CURVE('',#565,#557,#569,.T.);
#571=ORIENTED_EDGE('',*,*,#570,.F.);
#572=CARTESIAN_POINT('',(-4.440892E-016,4.5,0.749999999999998));
#573=VERTEX_POINT('',#572);
#574=CARTESIAN_POINT('',(0.0,3.330669E-016,0.75));
#575=DIRECTION('',(0.0,1.0,0.0));
#576=VECTOR('',#575,4.5);
#577=LINE('',#574,#576);
#578=EDGE_CURVE('',#565,#573,#577,.T.);
#579=ORIENTED_EDGE('',*,*,#578,.T.);
#580=CARTESIAN_POINT('',(-4.440892E-016,4.5,0.749999999999998));
#581=DIRECTION('',(0.0,0.0,-1.0));
#582=VECTOR('',#581,0.75);
#583=LINE('',#580,#582);
#584=EDGE_CURVE('',#573,#555,#583,.T.);
#585=ORIENTED_EDGE('',*,*,#584,.T.);
#586=EDGE_LOOP('',(#563,#571,#579,#585));
#587=FACE_OUTER_BOUND('',#586,.T.);
#588=ADVANCED_FACE('',(#587),#553,.T.);
#589=CARTESIAN_POINT('',(0.0,3.330669E-016,0.75));
#590=DIRECTION('',(0.0,-1.0,0.0));
#591=DIRECTION('',(0.0,0.0,-1.0));
#592=AXIS2_PLACEMENT_3D('',#589,#590,#591);
#593=PLANE('',#592);
#594=CARTESIAN_POINT('',(1.5,0.0,-2.220446E-016));
#595=VERTEX_POINT('',#594);
#596=CARTESIAN_POINT('',(0.0,-1.836910E-016,-3.835365E-017));
#597=DIRECTION('',(1.0,0.0,0.0));
#598=VECTOR('',#597,1.5);
#599=LINE('',#596,#598);
#600=EDGE_CURVE('',#557,#595,#599,.T.);
#601=ORIENTED_EDGE('',*,*,#600,.T.);
#602=CARTESIAN_POINT('',(1.5,3.330669E-016,0.75));
#603=VERTEX_POINT('',#602);
#604=CARTESIAN_POINT('',(1.5,3.330669E-016,0.75));
#605=DIRECTION('',(0.0,0.0,-1.0));
#606=VECTOR('',#605,0.75);
#607=LINE('',#604,#606);
#608=EDGE_CURVE('',#603,#595,#607,.T.);
#609=ORIENTED_EDGE('',*,*,#608,.F.);
#610=CARTESIAN_POINT('',(1.5,3.330669E-016,0.75));
#611=DIRECTION('',(-1.0,0.0,0.0));
#612=VECTOR('',#611,1.5);
#613=LINE('',#610,#612);
#614=EDGE_CURVE('',#603,#565,#613,.T.);
#615=ORIENTED_EDGE('',*,*,#614,.T.);
#616=ORIENTED_EDGE('',*,*,#570,.T.);
#617=EDGE_LOOP('',(#601,#609,#615,#616));
#618=FACE_OUTER_BOUND('',#617,.T.);
#619=ADVANCED_FACE('',(#618),#593,.T.);
#620=CARTESIAN_POINT('',(1.5,3.330669E-016,0.75));
#621=DIRECTION('',(1.0,0.0,0.0));
#622=DIRECTION('',(0.0,0.0,1.0));
#623=AXIS2_PLACEMENT_3D('',#620,#621,#622);
#624=PLANE('',#623);
#625=CARTESIAN_POINT('',(1.5,4.5,-2.220446E-015));
#626=VERTEX_POINT('',#625);
#627=CARTESIAN_POINT('',(1.5,0.0,-2.220446E-016));
#628=DIRECTION('',(0.0,1.0,0.0));
#629=VECTOR('',#628,4.5);
#630=LINE('',#627,#629);
#631=EDGE_CURVE('',#595,#626,#630,.T.);
#632=ORIENTED_EDGE('',*,*,#631,.T.);
#633=CARTESIAN_POINT('',(1.5,4.5,0.749999999999998));
#634=VERTEX_POINT('',#633);
#635=CARTESIAN_POINT('',(1.5,4.5,0.749999999999998));
#636=DIRECTION('',(0.0,0.0,-1.0));
#637=VECTOR('',#636,0.75);
#638=LINE('',#635,#637);
#639=EDGE_CURVE('',#634,#626,#638,.T.);
#640=ORIENTED_EDGE('',*,*,#639,.F.);
#641=CARTESIAN_POINT('',(1.5,4.5,0.749999999999998));
#642=DIRECTION('',(0.0,-1.0,0.0));
#643=VECTOR('',#642,4.5);
#644=LINE('',#641,#643);
#645=EDGE_CURVE('',#634,#603,#644,.T.);
#646=ORIENTED_EDGE('',*,*,#645,.T.);
#647=ORIENTED_EDGE('',*,*,#608,.T.);
#648=EDGE_LOOP('',(#632,#640,#646,#647));
#649=FACE_OUTER_BOUND('',#648,.T.);
#650=ADVANCED_FACE('',(#649),#624,.T.);
#651=CARTESIAN_POINT('',(1.5,4.5,0.749999999999998));
#652=DIRECTION('',(0.0,1.0,0.0));
#653=DIRECTION('',(0.0,0.0,1.0));
#654=AXIS2_PLACEMENT_3D('',#651,#652,#653);
#655=PLANE('',#654);
#656=CARTESIAN_POINT('',(1.5,4.5,-2.182092E-015));
#657=DIRECTION('',(-1.0,0.0,0.0));
#658=VECTOR('',#657,1.5);
#659=LINE('',#656,#658);
#660=EDGE_CURVE('',#626,#555,#659,.T.);
#661=ORIENTED_EDGE('',*,*,#660,.T.);
#662=ORIENTED_EDGE('',*,*,#584,.F.);
#663=CARTESIAN_POINT('',(-4.440892E-016,4.5,0.749999999999998));
#664=DIRECTION('',(1.0,0.0,0.0));
#665=VECTOR('',#664,1.5);
#666=LINE('',#663,#665);
#667=EDGE_CURVE('',#573,#634,#666,.T.);
#668=ORIENTED_EDGE('',*,*,#667,.T.);
#669=ORIENTED_EDGE('',*,*,#639,.T.);
#670=EDGE_LOOP('',(#661,#662,#668,#669));
#671=FACE_OUTER_BOUND('',#670,.T.);
#672=ADVANCED_FACE('',(#671),#655,.T.);
#673=CARTESIAN_POINT('',(0.75,2.25,0.749999999999999));
#674=DIRECTION('',(0.0,0.0,1.0));
#675=DIRECTION('',(-1.0,0.0,0.0));
#676=AXIS2_PLACEMENT_3D('',#673,#674,#675);
#677=PLANE('',#676);
#678=ORIENTED_EDGE('',*,*,#667,.F.);
#679=ORIENTED_EDGE('',*,*,#578,.F.);
#680=ORIENTED_EDGE('',*,*,#614,.F.);
#681=ORIENTED_EDGE('',*,*,#645,.F.);
#682=EDGE_LOOP('',(#678,#679,#680,#681));
#683=FACE_OUTER_BOUND('',#682,.T.);
#684=ORIENTED_EDGE('',*,*,#372,.T.);
#685=ORIENTED_EDGE('',*,*,#388,.T.);
#686=EDGE_LOOP('',(#684,#685));
#687=FACE_BOUND('',#686,.T.);
#688=ORIENTED_EDGE('',*,*,#330,.T.);
#689=ORIENTED_EDGE('',*,*,#412,.T.);
#690=EDGE_LOOP('',(#688,#689));
#691=FACE_BOUND('',#690,.T.);
#692=ORIENTED_EDGE('',*,*,#246,.T.);
#693=ORIENTED_EDGE('',*,*,#480,.T.);
#694=EDGE_LOOP('',(#692,#693));
#695=FACE_BOUND('',#694,.T.);
#696=ORIENTED_EDGE('',*,*,#162,.T.);
#697=ORIENTED_EDGE('',*,*,#542,.T.);
#698=EDGE_LOOP('',(#696,#697));
#699=FACE_BOUND('',#698,.T.);
#700=ADVANCED_FACE('',(#683,#687,#691,#695,#699),#677,.T.);
#701=CARTESIAN_POINT('',(-6.661338E-016,4.5,-1.998401E-015));
#702=DIRECTION('',(0.0,0.0,1.0));
#703=DIRECTION('',(-1.0,0.0,0.0));
#704=AXIS2_PLACEMENT_3D('',#701,#702,#703);
#705=PLANE('',#704);
#706=ORIENTED_EDGE('',*,*,#562,.F.);
#707=ORIENTED_EDGE('',*,*,#660,.F.);
#708=ORIENTED_EDGE('',*,*,#631,.F.);
#709=ORIENTED_EDGE('',*,*,#600,.F.);
#710=EDGE_LOOP('',(#706,#707,#708,#709));
#711=FACE_OUTER_BOUND('',#710,.T.);
#712=ORIENTED_EDGE('',*,*,#396,.T.);
#713=ORIENTED_EDGE('',*,*,#357,.T.);
#714=EDGE_LOOP('',(#712,#713));
#715=FACE_BOUND('',#714,.T.);
#716=ORIENTED_EDGE('',*,*,#420,.T.);
#717=ORIENTED_EDGE('',*,*,#315,.T.);
#718=EDGE_LOOP('',(#716,#717));
#719=FACE_BOUND('',#718,.T.);
#720=ORIENTED_EDGE('',*,*,#464,.T.);
#721=ORIENTED_EDGE('',*,*,#273,.T.);
#722=EDGE_LOOP('',(#720,#721));
#723=FACE_BOUND('',#722,.T.);
#724=ORIENTED_EDGE('',*,*,#526,.T.);
#725=ORIENTED_EDGE('',*,*,#189,.T.);
#726=EDGE_LOOP('',(#724,#725));
#727=FACE_BOUND('',#726,.T.);
#728=ADVANCED_FACE('',(#711,#715,#719,#723,#727),#705,.F.);
#729=CLOSED_SHELL('',(#166,#208,#250,#292,#334,#376,#400,#424,#450,#468,#486,#512,#530,#548,#588,#619,#650,#672,#700,#728));
#730=MANIFOLD_SOLID_BREP('2B',#729);
#731=ADVANCED_BREP_SHAPE_REPRESENTATION('ABSR1',(#730),#28);
#732=SHAPE_REPRESENTATION_RELATIONSHIP('SRRPL1','',#731,#122);
ENDSEC;
END-ISO-10303-21;
