ISO-10303-21;
HEADER;
/****************************************************************
 * Generated by software with PDElib inside                    *
 * PDElib Version v51a, created Fri 09/10/2010                  *
 * ITI Transcendata (http://www.transcendata.com/)              *
 ****************************************************************/
FILE_DESCRIPTION((''),'2;1');
FILE_NAME('15AC8760.stp','2015-07-20T11:03:14',(''),(''),'Mechanical Desktop 2011','Mechanical Desktop 2011',', , ');
FILE_SCHEMA(('AUTOMOTIVE_DESIGN { 1 2 10303 214 1 1 1 1 }'));
ENDSEC;
DATA;
#10=(NAMED_UNIT(*)PLANE_ANGLE_UNIT()SI_UNIT($,.RADIAN.));
#11=DIMENSIONAL_EXPONENTS(0.0,0.0,0.0,0.0,0.0,0.0,0.0);
#12=PLANE_ANGLE_MEASURE_WITH_UNIT(PLANE_ANGLE_MEASURE(0.0174532925),#10);
#16=(CONVERSION_BASED_UNIT('DEGREE',#12)NAMED_UNIT(#11)PLANE_ANGLE_UNIT());
#20=(NAMED_UNIT(*)SI_UNIT($,.STERADIAN.)SOLID_ANGLE_UNIT());
#24=(LENGTH_UNIT()NAMED_UNIT(*)SI_UNIT(.CENTI.,.METRE.));
#25=DIMENSIONAL_EXPONENTS(1.0,0.0,0.0,0.0,0.0,0.0,0.0);
#26=LENGTH_MEASURE_WITH_UNIT(LENGTH_MEASURE(2.54),#24);
#30=(CONVERSION_BASED_UNIT('INCH',#26)LENGTH_UNIT()NAMED_UNIT(#25));
#32=UNCERTAINTY_MEASURE_WITH_UNIT(LENGTH_MEASURE(0.000001),#30,'DISTANCE_ACCURACY_VALUE','');
#34=(GEOMETRIC_REPRESENTATION_CONTEXT(3)GLOBAL_UNCERTAINTY_ASSIGNED_CONTEXT((#32))GLOBAL_UNIT_ASSIGNED_CONTEXT((#16,#20,#30))REPRESENTATION_CONTEXT('','3D'));
#35=APPLICATION_CONTEXT('automotive design');
#36=APPLICATION_PROTOCOL_DEFINITION('INTERNATIONAL_STANDARD','automotive_design',1998,#35);
#37=PRODUCT_CONTEXT('3D Mechanical Parts',#35,'mechanical');
#38=PRODUCT('Product','Product','',(#37));
#39=PRODUCT_RELATED_PRODUCT_CATEGORY('part',$,(#38));
#40=PRODUCT_CATEGORY('part',$);
#41=PERSON('1','Design','Joe',$,$,$);
#42=ORGANIZATION($,'None','None');
#43=PERSON_AND_ORGANIZATION(#41,#42);
#44=PERSON_AND_ORGANIZATION_ROLE('design_owner');
#45=APPLIED_PERSON_AND_ORGANIZATION_ASSIGNMENT(#43,#44,(#38));
#46=PRODUCT_DEFINITION_FORMATION_WITH_SPECIFIED_SOURCE('None','',#38,.BOUGHT.);
#47=PERSON('2','Creator','Joe',$,$,$);
#48=ORGANIZATION($,'None','None');
#49=PERSON_AND_ORGANIZATION(#47,#48);
#50=PERSON_AND_ORGANIZATION_ROLE('creator');
#51=APPLIED_PERSON_AND_ORGANIZATION_ASSIGNMENT(#49,#50,(#46));
#52=PERSON('3','Supplier','Joe',$,$,$);
#53=ORGANIZATION($,'None','None');
#54=PERSON_AND_ORGANIZATION(#52,#53);
#55=PERSON_AND_ORGANIZATION_ROLE('design_supplier');
#56=APPLIED_PERSON_AND_ORGANIZATION_ASSIGNMENT(#54,#55,(#46));
#57=PRODUCT_DEFINITION_CONTEXT('part definition',#35,'design');
#58=PRODUCT_DEFINITION('None','',#46,#57);
#59=PERSON('4','Creator','Joe',$,$,$);
#60=ORGANIZATION($,'None','None');
#61=PERSON_AND_ORGANIZATION(#59,#60);
#62=PERSON_AND_ORGANIZATION_ROLE('creator');
#63=APPLIED_PERSON_AND_ORGANIZATION_ASSIGNMENT(#61,#62,(#58));
#64=CARTESIAN_POINT('NONE',(0.0,0.0,0.0));
#65=DIRECTION('NONE',(0.0,0.0,1.0));
#66=DIRECTION('NONE',(1.0,0.0,0.0));
#67=AXIS2_PLACEMENT_3D('NONE',#64,#65,#66);
#68=SHAPE_REPRESENTATION('SR1',(#67),#34);
#69=PRODUCT_DEFINITION_SHAPE('PDS1','Test Part',#58);
#70=SHAPE_DEFINITION_REPRESENTATION(#69,#68);
#71=CARTESIAN_POINT('',(-1.500003,0.124999749999999,-1.146997705999991));
#72=DIRECTION('',(0.0,-1.0,2.220450E-016));
#73=DIRECTION('',(1.0,0.0,0.0));
#74=AXIS2_PLACEMENT_3D('',#71,#72,#73);
#75=CYLINDRICAL_SURFACE('',#74,0.2499995);
#76=CARTESIAN_POINT('',(-1.2500035,0.124999749999999,-1.146997705999991));
#77=VERTEX_POINT('',#76);
#78=CARTESIAN_POINT('',(-1.2500035,-0.124999750000001,-1.146997705999991));
#79=VERTEX_POINT('',#78);
#80=CARTESIAN_POINT('',(-1.2500035,0.124999749999999,-1.146997705999991));
#81=DIRECTION('',(0.0,-1.0,0.0));
#82=VECTOR('',#81,0.249999499999999);
#83=LINE('',#80,#82);
#84=EDGE_CURVE('',#77,#79,#83,.T.);
#85=ORIENTED_EDGE('',*,*,#84,.F.);
#86=CARTESIAN_POINT('',(-1.7500025,0.124999749999999,-1.146997705999991));
#87=VERTEX_POINT('',#86);
#88=CARTESIAN_POINT('',(-1.500003,0.124999749999999,-1.146997705999991));
#89=DIRECTION('',(0.0,-1.0,0.0));
#90=DIRECTION('',(1.0,0.0,0.0));
#91=AXIS2_PLACEMENT_3D('',#88,#89,#90);
#92=CIRCLE('',#91,0.2499995);
#93=EDGE_CURVE('',#87,#77,#92,.T.);
#94=ORIENTED_EDGE('',*,*,#93,.F.);
#95=CARTESIAN_POINT('',(-1.7500025,-0.12499975,-1.146997705999991));
#96=VERTEX_POINT('',#95);
#97=CARTESIAN_POINT('',(-1.7500025,0.124999749999999,-1.146997705999991));
#98=DIRECTION('',(0.0,-1.0,0.0));
#99=VECTOR('',#98,0.249999499999999);
#100=LINE('',#97,#99);
#101=EDGE_CURVE('',#87,#96,#100,.T.);
#102=ORIENTED_EDGE('',*,*,#101,.T.);
#103=CARTESIAN_POINT('',(-1.500003,-0.12499975,-1.146997705999991));
#104=DIRECTION('',(0.0,1.0,0.0));
#105=DIRECTION('',(1.0,0.0,0.0));
#106=AXIS2_PLACEMENT_3D('',#103,#104,#105);
#107=CIRCLE('',#106,0.2499995);
#108=EDGE_CURVE('',#79,#96,#107,.T.);
#109=ORIENTED_EDGE('',*,*,#108,.F.);
#110=EDGE_LOOP('',(#85,#94,#102,#109));
#111=FACE_OUTER_BOUND('',#110,.T.);
#112=ADVANCED_FACE('',(#111),#75,.F.);
#113=CARTESIAN_POINT('',(-4.440892E-016,0.312500000000001,0.03125));
#114=DIRECTION('',(0.707106781186548,0.0,0.707106781186548));
#115=DIRECTION('',(0.0,1.0,0.0));
#116=AXIS2_PLACEMENT_3D('',#113,#114,#115);
#117=PLANE('',#116);
#118=CARTESIAN_POINT('',(-0.21875,0.093750000000001,0.25));
#119=VERTEX_POINT('',#118);
#120=CARTESIAN_POINT('',(-0.21875,-0.093749999999999,0.25));
#121=VERTEX_POINT('',#120);
#122=CARTESIAN_POINT('',(-0.21875,0.093750000000001,0.25));
#123=DIRECTION('',(0.0,-1.0,0.0));
#124=VECTOR('',#123,0.1875);
#125=LINE('',#122,#124);
#126=EDGE_CURVE('',#119,#121,#125,.T.);
#127=ORIENTED_EDGE('',*,*,#126,.T.);
#128=CARTESIAN_POINT('',(-4.440892E-016,-0.312499999999999,0.03125));
#129=VERTEX_POINT('',#128);
#130=CARTESIAN_POINT('',(-5.828671E-016,-0.312499999999999,0.03125));
#131=DIRECTION('',(-0.577350269189626,0.577350269189626,0.577350269189626));
#132=VECTOR('',#131,0.378886114155692);
#133=LINE('',#130,#132);
#134=EDGE_CURVE('',#129,#121,#133,.T.);
#135=ORIENTED_EDGE('',*,*,#134,.F.);
#136=CARTESIAN_POINT('',(-4.440892E-016,0.312500000000001,0.03125));
#137=VERTEX_POINT('',#136);
#138=CARTESIAN_POINT('',(-4.440892E-016,0.312500000000001,0.03125));
#139=DIRECTION('',(0.0,-1.0,0.0));
#140=VECTOR('',#139,0.625);
#141=LINE('',#138,#140);
#142=EDGE_CURVE('',#137,#129,#141,.T.);
#143=ORIENTED_EDGE('',*,*,#142,.F.);
#144=CARTESIAN_POINT('',(-6.106227E-016,0.312500000000001,0.03125));
#145=DIRECTION('',(-0.577350269189626,-0.577350269189626,0.577350269189626));
#146=VECTOR('',#145,0.378886114155692);
#147=LINE('',#144,#146);
#148=EDGE_CURVE('',#137,#119,#147,.T.);
#149=ORIENTED_EDGE('',*,*,#148,.T.);
#150=EDGE_LOOP('',(#127,#135,#143,#149));
#151=FACE_OUTER_BOUND('',#150,.T.);
#152=ADVANCED_FACE('',(#151),#117,.T.);
#153=CARTESIAN_POINT('',(-4.440892E-016,-0.312499999999999,0.03125));
#154=DIRECTION('',(4.448595E-016,-0.707106781186548,0.707106781186548));
#155=DIRECTION('',(1.0,0.0,0.0));
#156=AXIS2_PLACEMENT_3D('',#153,#154,#155);
#157=PLANE('',#156);
#158=CARTESIAN_POINT('',(-2.781250000000001,-0.093750000000001,0.25));
#159=VERTEX_POINT('',#158);
#160=CARTESIAN_POINT('',(-0.21875,-0.093749999999999,0.25));
#161=DIRECTION('',(-1.0,0.0,0.0));
#162=VECTOR('',#161,2.5625);
#163=LINE('',#160,#162);
#164=EDGE_CURVE('',#121,#159,#163,.T.);
#165=ORIENTED_EDGE('',*,*,#164,.T.);
#166=CARTESIAN_POINT('',(-3.000000000000001,-0.312500000000001,0.03125));
#167=VERTEX_POINT('',#166);
#168=CARTESIAN_POINT('',(-3.000000000000001,-0.312500000000001,0.03125));
#169=DIRECTION('',(0.577350269189626,0.577350269189626,0.577350269189626));
#170=VECTOR('',#169,0.378886114155692);
#171=LINE('',#168,#170);
#172=EDGE_CURVE('',#167,#159,#171,.T.);
#173=ORIENTED_EDGE('',*,*,#172,.F.);
#174=CARTESIAN_POINT('',(-4.440892E-016,-0.312499999999999,0.03125));
#175=DIRECTION('',(-1.0,0.0,0.0));
#176=VECTOR('',#175,3.0);
#177=LINE('',#174,#176);
#178=EDGE_CURVE('',#129,#167,#177,.T.);
#179=ORIENTED_EDGE('',*,*,#178,.F.);
#180=ORIENTED_EDGE('',*,*,#134,.T.);
#181=EDGE_LOOP('',(#165,#173,#179,#180));
#182=FACE_OUTER_BOUND('',#181,.T.);
#183=ADVANCED_FACE('',(#182),#157,.T.);
#184=CARTESIAN_POINT('',(-3.000000000000001,-0.312500000000001,0.03125));
#185=DIRECTION('',(-0.707106781186547,1.004859E-015,0.707106781186548));
#186=DIRECTION('',(0.0,-1.0,0.0));
#187=AXIS2_PLACEMENT_3D('',#184,#185,#186);
#188=PLANE('',#187);
#189=CARTESIAN_POINT('',(-2.78125,0.093750000000001,0.25));
#190=VERTEX_POINT('',#189);
#191=CARTESIAN_POINT('',(-2.78125,-0.093750000000001,0.25));
#192=DIRECTION('',(0.0,1.0,0.0));
#193=VECTOR('',#192,0.187500000000002);
#194=LINE('',#191,#193);
#195=EDGE_CURVE('',#159,#190,#194,.T.);
#196=ORIENTED_EDGE('',*,*,#195,.T.);
#197=CARTESIAN_POINT('',(-3.0,0.312500000000001,0.03125));
#198=VERTEX_POINT('',#197);
#199=CARTESIAN_POINT('',(-3.0,0.312500000000001,0.03125));
#200=DIRECTION('',(0.577350269189626,-0.577350269189626,0.577350269189626));
#201=VECTOR('',#200,0.378886114155692);
#202=LINE('',#199,#201);
#203=EDGE_CURVE('',#198,#190,#202,.T.);
#204=ORIENTED_EDGE('',*,*,#203,.F.);
#205=CARTESIAN_POINT('',(-3.000000000000001,-0.312500000000001,0.03125));
#206=DIRECTION('',(0.0,1.0,0.0));
#207=VECTOR('',#206,0.625000000000002);
#208=LINE('',#205,#207);
#209=EDGE_CURVE('',#167,#198,#208,.T.);
#210=ORIENTED_EDGE('',*,*,#209,.F.);
#211=ORIENTED_EDGE('',*,*,#172,.T.);
#212=EDGE_LOOP('',(#196,#204,#210,#211));
#213=FACE_OUTER_BOUND('',#212,.T.);
#214=ADVANCED_FACE('',(#213),#188,.T.);
#215=CARTESIAN_POINT('',(-3.0,0.312500000000001,0.03125));
#216=DIRECTION('',(0.0,0.707106781186548,0.707106781186548));
#217=DIRECTION('',(-1.0,0.0,0.0));
#218=AXIS2_PLACEMENT_3D('',#215,#216,#217);
#219=PLANE('',#218);
#220=CARTESIAN_POINT('',(-2.78125,0.093750000000001,0.25));
#221=DIRECTION('',(1.0,0.0,0.0));
#222=VECTOR('',#221,2.5625);
#223=LINE('',#220,#222);
#224=EDGE_CURVE('',#190,#119,#223,.T.);
#225=ORIENTED_EDGE('',*,*,#224,.T.);
#226=ORIENTED_EDGE('',*,*,#148,.F.);
#227=CARTESIAN_POINT('',(-3.0,0.312500000000001,0.03125));
#228=DIRECTION('',(1.0,0.0,0.0));
#229=VECTOR('',#228,3.0);
#230=LINE('',#227,#229);
#231=EDGE_CURVE('',#198,#137,#230,.T.);
#232=ORIENTED_EDGE('',*,*,#231,.F.);
#233=ORIENTED_EDGE('',*,*,#203,.T.);
#234=EDGE_LOOP('',(#225,#226,#232,#233));
#235=FACE_OUTER_BOUND('',#234,.T.);
#236=ADVANCED_FACE('',(#235),#219,.T.);
#237=CARTESIAN_POINT('',(-4.440892E-016,0.312500000000001,0.25));
#238=DIRECTION('',(0.0,0.0,-1.0));
#239=DIRECTION('',(-1.0,0.0,0.0));
#240=AXIS2_PLACEMENT_3D('',#237,#238,#239);
#241=PLANE('',#240);
#242=ORIENTED_EDGE('',*,*,#126,.F.);
#243=ORIENTED_EDGE('',*,*,#224,.F.);
#244=ORIENTED_EDGE('',*,*,#195,.F.);
#245=ORIENTED_EDGE('',*,*,#164,.F.);
#246=EDGE_LOOP('',(#242,#243,#244,#245));
#247=FACE_OUTER_BOUND('',#246,.T.);
#248=ADVANCED_FACE('',(#247),#241,.F.);
#249=CARTESIAN_POINT('',(-1.500000000000001,5.412337E-016,5.551115E-017));
#250=DIRECTION('',(0.0,0.0,1.0));
#251=DIRECTION('',(1.0,0.0,0.0));
#252=AXIS2_PLACEMENT_3D('',#249,#250,#251);
#253=PLANE('',#252);
#254=CARTESIAN_POINT('',(-3.0,-0.12499975,5.551115E-017));
#255=VERTEX_POINT('',#254);
#256=CARTESIAN_POINT('',(-0.000006,-0.12499975,5.551115E-017));
#257=VERTEX_POINT('',#256);
#258=CARTESIAN_POINT('',(-3.0,-0.12499975,5.551115E-017));
#259=DIRECTION('',(1.0,0.0,0.0));
#260=VECTOR('',#259,2.999994000000001);
#261=LINE('',#258,#260);
#262=EDGE_CURVE('',#255,#257,#261,.T.);
#263=ORIENTED_EDGE('',*,*,#262,.T.);
#264=CARTESIAN_POINT('',(-0.000006,0.12499975,-5.551115E-017));
#265=VERTEX_POINT('',#264);
#266=CARTESIAN_POINT('',(-0.000006,0.12499975,-5.551115E-017));
#267=DIRECTION('',(0.0,-1.0,0.0));
#268=VECTOR('',#267,0.249999499999999);
#269=LINE('',#266,#268);
#270=EDGE_CURVE('',#265,#257,#269,.T.);
#271=ORIENTED_EDGE('',*,*,#270,.F.);
#272=CARTESIAN_POINT('',(-3.0,0.12499975,-5.551115E-017));
#273=VERTEX_POINT('',#272);
#274=CARTESIAN_POINT('',(-0.000006,0.12499975,-5.551115E-017));
#275=DIRECTION('',(-1.0,0.0,0.0));
#276=VECTOR('',#275,2.999994000000001);
#277=LINE('',#274,#276);
#278=EDGE_CURVE('',#265,#273,#277,.T.);
#279=ORIENTED_EDGE('',*,*,#278,.T.);
#280=CARTESIAN_POINT('',(-3.0,0.312500000000001,-5.551115E-017));
#281=VERTEX_POINT('',#280);
#282=CARTESIAN_POINT('',(-3.0,0.12499975,5.551115E-017));
#283=DIRECTION('',(0.0,1.0,0.0));
#284=VECTOR('',#283,0.187500250000001);
#285=LINE('',#282,#284);
#286=EDGE_CURVE('',#273,#281,#285,.T.);
#287=ORIENTED_EDGE('',*,*,#286,.T.);
#288=CARTESIAN_POINT('',(-4.440892E-016,0.312500000000001,-5.551115E-017));
#289=VERTEX_POINT('',#288);
#290=CARTESIAN_POINT('',(-3.0,0.312500000000001,-5.551115E-017));
#291=DIRECTION('',(1.0,0.0,0.0));
#292=VECTOR('',#291,3.0);
#293=LINE('',#290,#292);
#294=EDGE_CURVE('',#281,#289,#293,.T.);
#295=ORIENTED_EDGE('',*,*,#294,.T.);
#296=CARTESIAN_POINT('',(-4.440892E-016,-0.312499999999999,5.551115E-017));
#297=VERTEX_POINT('',#296);
#298=CARTESIAN_POINT('',(-4.440892E-016,0.312500000000001,-5.551115E-017));
#299=DIRECTION('',(0.0,-1.0,0.0));
#300=VECTOR('',#299,0.625);
#301=LINE('',#298,#300);
#302=EDGE_CURVE('',#289,#297,#301,.T.);
#303=ORIENTED_EDGE('',*,*,#302,.T.);
#304=CARTESIAN_POINT('',(-3.000000000000001,-0.312500000000001,5.551115E-017));
#305=VERTEX_POINT('',#304);
#306=CARTESIAN_POINT('',(-4.440892E-016,-0.312499999999999,5.551115E-017));
#307=DIRECTION('',(-1.0,0.0,0.0));
#308=VECTOR('',#307,3.0);
#309=LINE('',#306,#308);
#310=EDGE_CURVE('',#297,#305,#309,.T.);
#311=ORIENTED_EDGE('',*,*,#310,.T.);
#312=CARTESIAN_POINT('',(-3.000000000000001,-0.312500000000001,5.551115E-017));
#313=DIRECTION('',(0.0,1.0,0.0));
#314=VECTOR('',#313,0.187500250000001);
#315=LINE('',#312,#314);
#316=EDGE_CURVE('',#305,#255,#315,.T.);
#317=ORIENTED_EDGE('',*,*,#316,.T.);
#318=EDGE_LOOP('',(#263,#271,#279,#287,#295,#303,#311,#317));
#319=FACE_OUTER_BOUND('',#318,.T.);
#320=ADVANCED_FACE('',(#319),#253,.F.);
#321=CARTESIAN_POINT('',(-4.440892E-016,0.312500000000001,-5.551115E-017));
#322=DIRECTION('',(1.0,0.0,0.0));
#323=DIRECTION('',(0.0,0.0,-1.0));
#324=AXIS2_PLACEMENT_3D('',#321,#322,#323);
#325=PLANE('',#324);
#326=ORIENTED_EDGE('',*,*,#142,.T.);
#327=CARTESIAN_POINT('',(-4.440892E-016,-0.312499999999999,5.551115E-017));
#328=DIRECTION('',(0.0,0.0,1.0));
#329=VECTOR('',#328,0.03125);
#330=LINE('',#327,#329);
#331=EDGE_CURVE('',#297,#129,#330,.T.);
#332=ORIENTED_EDGE('',*,*,#331,.F.);
#333=ORIENTED_EDGE('',*,*,#302,.F.);
#334=CARTESIAN_POINT('',(-4.440892E-016,0.312500000000001,-5.551115E-017));
#335=DIRECTION('',(0.0,0.0,1.0));
#336=VECTOR('',#335,0.03125);
#337=LINE('',#334,#336);
#338=EDGE_CURVE('',#289,#137,#337,.T.);
#339=ORIENTED_EDGE('',*,*,#338,.T.);
#340=EDGE_LOOP('',(#326,#332,#333,#339));
#341=FACE_OUTER_BOUND('',#340,.T.);
#342=ADVANCED_FACE('',(#341),#325,.T.);
#343=CARTESIAN_POINT('',(-4.440892E-016,-0.312499999999999,5.551115E-017));
#344=DIRECTION('',(0.0,-1.0,0.0));
#345=DIRECTION('',(0.0,0.0,-1.0));
#346=AXIS2_PLACEMENT_3D('',#343,#344,#345);
#347=PLANE('',#346);
#348=ORIENTED_EDGE('',*,*,#178,.T.);
#349=CARTESIAN_POINT('',(-3.000000000000001,-0.312500000000001,5.551115E-017));
#350=DIRECTION('',(0.0,0.0,1.0));
#351=VECTOR('',#350,0.03125);
#352=LINE('',#349,#351);
#353=EDGE_CURVE('',#305,#167,#352,.T.);
#354=ORIENTED_EDGE('',*,*,#353,.F.);
#355=ORIENTED_EDGE('',*,*,#310,.F.);
#356=ORIENTED_EDGE('',*,*,#331,.T.);
#357=EDGE_LOOP('',(#348,#354,#355,#356));
#358=FACE_OUTER_BOUND('',#357,.T.);
#359=ADVANCED_FACE('',(#358),#347,.T.);
#360=CARTESIAN_POINT('',(-3.000000000000001,-0.312500000000001,5.551115E-017));
#361=DIRECTION('',(-1.0,0.0,0.0));
#362=DIRECTION('',(0.0,0.0,1.0));
#363=AXIS2_PLACEMENT_3D('',#360,#361,#362);
#364=PLANE('',#363);
#365=ORIENTED_EDGE('',*,*,#209,.T.);
#366=CARTESIAN_POINT('',(-3.0,0.312500000000001,-5.551115E-017));
#367=DIRECTION('',(0.0,0.0,1.0));
#368=VECTOR('',#367,0.03125);
#369=LINE('',#366,#368);
#370=EDGE_CURVE('',#281,#198,#369,.T.);
#371=ORIENTED_EDGE('',*,*,#370,.F.);
#372=ORIENTED_EDGE('',*,*,#286,.F.);
#373=CARTESIAN_POINT('',(-3.0,0.12499975,-5.551115E-017));
#374=DIRECTION('',(0.0,-1.0,0.0));
#375=VECTOR('',#374,0.249999499999999);
#376=LINE('',#373,#375);
#377=EDGE_CURVE('',#273,#255,#376,.T.);
#378=ORIENTED_EDGE('',*,*,#377,.T.);
#379=ORIENTED_EDGE('',*,*,#316,.F.);
#380=ORIENTED_EDGE('',*,*,#353,.T.);
#381=EDGE_LOOP('',(#365,#371,#372,#378,#379,#380));
#382=FACE_OUTER_BOUND('',#381,.T.);
#383=ADVANCED_FACE('',(#382),#364,.T.);
#384=CARTESIAN_POINT('',(-3.0,0.312500000000001,-5.551115E-017));
#385=DIRECTION('',(0.0,1.0,0.0));
#386=DIRECTION('',(0.0,0.0,1.0));
#387=AXIS2_PLACEMENT_3D('',#384,#385,#386);
#388=PLANE('',#387);
#389=ORIENTED_EDGE('',*,*,#231,.T.);
#390=ORIENTED_EDGE('',*,*,#338,.F.);
#391=ORIENTED_EDGE('',*,*,#294,.F.);
#392=ORIENTED_EDGE('',*,*,#370,.T.);
#393=EDGE_LOOP('',(#389,#390,#391,#392));
#394=FACE_OUTER_BOUND('',#393,.T.);
#395=ADVANCED_FACE('',(#394),#388,.T.);
#396=CARTESIAN_POINT('',(-1.500003,0.124999749999999,-1.146997705999991));
#397=DIRECTION('',(0.0,-1.0,2.220450E-016));
#398=DIRECTION('',(1.0,0.0,0.0));
#399=AXIS2_PLACEMENT_3D('',#396,#397,#398);
#400=CYLINDRICAL_SURFACE('',#399,0.2499995);
#401=ORIENTED_EDGE('',*,*,#84,.T.);
#402=CARTESIAN_POINT('',(-1.500003,-0.12499975,-1.146997705999991));
#403=DIRECTION('',(0.0,1.0,0.0));
#404=DIRECTION('',(1.0,0.0,0.0));
#405=AXIS2_PLACEMENT_3D('',#402,#403,#404);
#406=CIRCLE('',#405,0.2499995);
#407=EDGE_CURVE('',#96,#79,#406,.T.);
#408=ORIENTED_EDGE('',*,*,#407,.F.);
#409=ORIENTED_EDGE('',*,*,#101,.F.);
#410=CARTESIAN_POINT('',(-1.500003,0.124999749999999,-1.146997705999991));
#411=DIRECTION('',(0.0,-1.0,0.0));
#412=DIRECTION('',(1.0,0.0,0.0));
#413=AXIS2_PLACEMENT_3D('',#410,#411,#412);
#414=CIRCLE('',#413,0.2499995);
#415=EDGE_CURVE('',#77,#87,#414,.T.);
#416=ORIENTED_EDGE('',*,*,#415,.F.);
#417=EDGE_LOOP('',(#401,#408,#409,#416));
#418=FACE_OUTER_BOUND('',#417,.T.);
#419=ADVANCED_FACE('',(#418),#400,.F.);
#420=CARTESIAN_POINT('',(-0.000006,0.12499975,-5.551115E-017));
#421=DIRECTION('',(0.847998304005087,0.0,-0.529998940003181));
#422=DIRECTION('',(-0.529998940003181,0.0,-0.847998304005087));
#423=AXIS2_PLACEMENT_3D('',#420,#421,#422);
#424=PLANE('',#423);
#425=CARTESIAN_POINT('',(-1.000003999999999,-0.12499975,-1.599996799999994));
#426=VERTEX_POINT('',#425);
#427=CARTESIAN_POINT('',(-0.000005999999999,-0.12499975,0.0));
#428=DIRECTION('',(-0.529998940003181,-1.912359E-016,-0.847998304005087));
#429=VECTOR('',#428,1.886792452818863);
#430=LINE('',#427,#429);
#431=EDGE_CURVE('',#257,#426,#430,.T.);
#432=ORIENTED_EDGE('',*,*,#431,.T.);
#433=CARTESIAN_POINT('',(-1.000003999999999,0.124999749999999,-1.599996799999994));
#434=VERTEX_POINT('',#433);
#435=CARTESIAN_POINT('',(-1.000003999999999,0.124999749999999,-1.599996799999994));
#436=DIRECTION('',(0.0,-1.0,0.0));
#437=VECTOR('',#436,0.249999499999999);
#438=LINE('',#435,#437);
#439=EDGE_CURVE('',#434,#426,#438,.T.);
#440=ORIENTED_EDGE('',*,*,#439,.F.);
#441=CARTESIAN_POINT('',(-1.000003999999999,0.124999749999999,-1.599996799999994));
#442=DIRECTION('',(0.529998940003181,1.912359E-016,0.847998304005087));
#443=VECTOR('',#442,1.886792452818863);
#444=LINE('',#441,#443);
#445=EDGE_CURVE('',#434,#265,#444,.T.);
#446=ORIENTED_EDGE('',*,*,#445,.T.);
#447=ORIENTED_EDGE('',*,*,#270,.T.);
#448=EDGE_LOOP('',(#432,#440,#446,#447));
#449=FACE_OUTER_BOUND('',#448,.T.);
#450=ADVANCED_FACE('',(#449),#424,.T.);
#451=CARTESIAN_POINT('',(-1.000003999999999,0.124999749999999,-1.599996799999994));
#452=DIRECTION('',(0.0,0.0,-1.0));
#453=DIRECTION('',(-1.0,0.0,0.0));
#454=AXIS2_PLACEMENT_3D('',#451,#452,#453);
#455=PLANE('',#454);
#456=CARTESIAN_POINT('',(-2.000002,-0.12499975,-1.599996799999994));
#457=VERTEX_POINT('',#456);
#458=CARTESIAN_POINT('',(-1.000003999999999,-0.12499975,-1.599996799999994));
#459=DIRECTION('',(-1.0,0.0,0.0));
#460=VECTOR('',#459,0.999998000000001);
#461=LINE('',#458,#460);
#462=EDGE_CURVE('',#426,#457,#461,.T.);
#463=ORIENTED_EDGE('',*,*,#462,.T.);
#464=CARTESIAN_POINT('',(-2.000002,0.124999749999999,-1.599996799999994));
#465=VERTEX_POINT('',#464);
#466=CARTESIAN_POINT('',(-2.000002,0.124999749999999,-1.599996799999994));
#467=DIRECTION('',(0.0,-1.0,0.0));
#468=VECTOR('',#467,0.249999499999999);
#469=LINE('',#466,#468);
#470=EDGE_CURVE('',#465,#457,#469,.T.);
#471=ORIENTED_EDGE('',*,*,#470,.F.);
#472=CARTESIAN_POINT('',(-2.000002,0.124999749999999,-1.599996799999994));
#473=DIRECTION('',(1.0,0.0,0.0));
#474=VECTOR('',#473,0.999998000000001);
#475=LINE('',#472,#474);
#476=EDGE_CURVE('',#465,#434,#475,.T.);
#477=ORIENTED_EDGE('',*,*,#476,.T.);
#478=ORIENTED_EDGE('',*,*,#439,.T.);
#479=EDGE_LOOP('',(#463,#471,#477,#478));
#480=FACE_OUTER_BOUND('',#479,.T.);
#481=ADVANCED_FACE('',(#480),#455,.T.);
#482=CARTESIAN_POINT('',(-2.000002,0.124999749999999,-1.599996799999994));
#483=DIRECTION('',(-0.847998304005087,0.0,-0.529998940003181));
#484=DIRECTION('',(-0.529998940003181,0.0,0.847998304005087));
#485=AXIS2_PLACEMENT_3D('',#482,#483,#484);
#486=PLANE('',#485);
#487=CARTESIAN_POINT('',(-2.000002,-0.12499975,-1.599996799999994));
#488=DIRECTION('',(-0.529998940003181,1.912359E-016,0.847998304005087));
#489=VECTOR('',#488,1.886792452818863);
#490=LINE('',#487,#489);
#491=EDGE_CURVE('',#457,#255,#490,.T.);
#492=ORIENTED_EDGE('',*,*,#491,.T.);
#493=ORIENTED_EDGE('',*,*,#377,.F.);
#494=CARTESIAN_POINT('',(-3.0,0.12499975,-5.551115E-017));
#495=DIRECTION('',(0.529998940003181,-1.912359E-016,-0.847998304005087));
#496=VECTOR('',#495,1.886792452818863);
#497=LINE('',#494,#496);
#498=EDGE_CURVE('',#273,#465,#497,.T.);
#499=ORIENTED_EDGE('',*,*,#498,.T.);
#500=ORIENTED_EDGE('',*,*,#470,.T.);
#501=EDGE_LOOP('',(#492,#493,#499,#500));
#502=FACE_OUTER_BOUND('',#501,.T.);
#503=ADVANCED_FACE('',(#502),#486,.T.);
#504=CARTESIAN_POINT('',(-1.500003,0.12499975,-0.799998399999997));
#505=DIRECTION('',(0.0,1.0,0.0));
#506=DIRECTION('',(0.0,0.0,1.0));
#507=AXIS2_PLACEMENT_3D('',#504,#505,#506);
#508=PLANE('',#507);
#509=ORIENTED_EDGE('',*,*,#498,.F.);
#510=ORIENTED_EDGE('',*,*,#278,.F.);
#511=ORIENTED_EDGE('',*,*,#445,.F.);
#512=ORIENTED_EDGE('',*,*,#476,.F.);
#513=EDGE_LOOP('',(#509,#510,#511,#512));
#514=FACE_OUTER_BOUND('',#513,.T.);
#515=ORIENTED_EDGE('',*,*,#415,.T.);
#516=ORIENTED_EDGE('',*,*,#93,.T.);
#517=EDGE_LOOP('',(#515,#516));
#518=FACE_BOUND('',#517,.T.);
#519=ADVANCED_FACE('',(#514,#518),#508,.T.);
#520=CARTESIAN_POINT('',(-3.0,-0.12499975,5.551115E-017));
#521=DIRECTION('',(0.0,1.0,0.0));
#522=DIRECTION('',(0.0,0.0,1.0));
#523=AXIS2_PLACEMENT_3D('',#520,#521,#522);
#524=PLANE('',#523);
#525=ORIENTED_EDGE('',*,*,#262,.F.);
#526=ORIENTED_EDGE('',*,*,#491,.F.);
#527=ORIENTED_EDGE('',*,*,#462,.F.);
#528=ORIENTED_EDGE('',*,*,#431,.F.);
#529=EDGE_LOOP('',(#525,#526,#527,#528));
#530=FACE_OUTER_BOUND('',#529,.T.);
#531=ORIENTED_EDGE('',*,*,#108,.T.);
#532=ORIENTED_EDGE('',*,*,#407,.T.);
#533=EDGE_LOOP('',(#531,#532));
#534=FACE_BOUND('',#533,.T.);
#535=ADVANCED_FACE('',(#530,#534),#524,.F.);
#536=CLOSED_SHELL('',(#112,#152,#183,#214,#236,#248,#320,#342,#359,#383,#395,#419,#450,#481,#503,#519,#535));
#537=MANIFOLD_SOLID_BREP('E5',#536);
#538=COLOUR_RGB('250',0.33,0.33,0.33);
#539=SURFACE_STYLE_USAGE(.BOTH.,#540);
#540=SURFACE_SIDE_STYLE('NONE',(#541));
#541=SURFACE_STYLE_FILL_AREA(#542);
#542=FILL_AREA_STYLE('NONE',(#543));
#543=FILL_AREA_STYLE_COLOUR('NONE',#538);
#544=PRESENTATION_STYLE_ASSIGNMENT((#539));
#545=STYLED_ITEM('NONE',(#544),#537);
#546=MECHANICAL_DESIGN_GEOMETRIC_PRESENTATION_REPRESENTATION('NONE',(#545),#34);
#547=PRESENTATION_LAYER_ASSIGNMENT('15ac8760','None',(#537));
#548=ADVANCED_BREP_SHAPE_REPRESENTATION('ABSR1',(#537),#34);
#549=SHAPE_REPRESENTATION_RELATIONSHIP('SRRPL1','',#548,#68);
ENDSEC;
END-ISO-10303-21;
