ISO-10303-21;
HEADER;
/****************************************************************
 * Generated by software with PDElib inside                    *
 * PDElib Version v51a, created Fri 09/10/2010                  *
 * ITI Transcendata (http://www.transcendata.com/)              *
 ****************************************************************/
FILE_DESCRIPTION((''),'2;1');
FILE_NAME('15AC7977.stp','2015-07-16T10:45:27',(''),(''),'Mechanical Desktop 2011','Mechanical Desktop 2011',', , ');
FILE_SCHEMA(('AUTOMOTIVE_DESIGN { 1 2 10303 214 1 1 1 1 }'));
ENDSEC;
DATA;
#10=(NAMED_UNIT(*)PLANE_ANGLE_UNIT()SI_UNIT($,.RADIAN.));
#11=DIMENSIONAL_EXPONENTS(0.0,0.0,0.0,0.0,0.0,0.0,0.0);
#12=PLANE_ANGLE_MEASURE_WITH_UNIT(PLANE_ANGLE_MEASURE(0.0174532925),#10);
#16=(CONVERSION_BASED_UNIT('DEGREE',#12)NAMED_UNIT(#11)PLANE_ANGLE_UNIT());
#20=(NAMED_UNIT(*)SI_UNIT($,.STERADIAN.)SOLID_ANGLE_UNIT());
#24=(LENGTH_UNIT()NAMED_UNIT(*)SI_UNIT(.CENTI.,.METRE.));
#25=DIMENSIONAL_EXPONENTS(1.0,0.0,0.0,0.0,0.0,0.0,0.0);
#26=LENGTH_MEASURE_WITH_UNIT(LENGTH_MEASURE(2.54),#24);
#30=(CONVERSION_BASED_UNIT('INCH',#26)LENGTH_UNIT()NAMED_UNIT(#25));
#32=UNCERTAINTY_MEASURE_WITH_UNIT(LENGTH_MEASURE(0.000001),#30,'DISTANCE_ACCURACY_VALUE','');
#34=(GEOMETRIC_REPRESENTATION_CONTEXT(3)GLOBAL_UNCERTAINTY_ASSIGNED_CONTEXT((#32))GLOBAL_UNIT_ASSIGNED_CONTEXT((#16,#20,#30))REPRESENTATION_CONTEXT('','3D'));
#35=APPLICATION_CONTEXT('automotive design');
#36=APPLICATION_PROTOCOL_DEFINITION('INTERNATIONAL_STANDARD','automotive_design',1998,#35);
#37=PRODUCT_CONTEXT('3D Mechanical Parts',#35,'mechanical');
#38=PRODUCT('Product','Product','',(#37));
#39=PRODUCT_RELATED_PRODUCT_CATEGORY('part',$,(#38,#76,#99,#122,#145,#168,#191,#214,#237,#260,#283));
#40=PRODUCT_CATEGORY('part',$);
#41=PERSON('1','Design','Joe',$,$,$);
#42=ORGANIZATION($,'None','None');
#43=PERSON_AND_ORGANIZATION(#41,#42);
#44=PERSON_AND_ORGANIZATION_ROLE('design_owner');
#45=APPLIED_PERSON_AND_ORGANIZATION_ASSIGNMENT(#43,#44,(#38,#76,#99,#122,#145,#168,#191,#214,#237,#260,#283));
#46=PRODUCT_DEFINITION_FORMATION_WITH_SPECIFIED_SOURCE('None','',#38,.BOUGHT.);
#47=PERSON('2','Creator','Joe',$,$,$);
#48=ORGANIZATION($,'None','None');
#49=PERSON_AND_ORGANIZATION(#47,#48);
#50=PERSON_AND_ORGANIZATION_ROLE('creator');
#51=APPLIED_PERSON_AND_ORGANIZATION_ASSIGNMENT(#49,#50,(#46,#77,#100,#123,#146,#169,#192,#215,#238,#261,#284));
#52=PERSON('3','Supplier','Joe',$,$,$);
#53=ORGANIZATION($,'None','None');
#54=PERSON_AND_ORGANIZATION(#52,#53);
#55=PERSON_AND_ORGANIZATION_ROLE('design_supplier');
#56=APPLIED_PERSON_AND_ORGANIZATION_ASSIGNMENT(#54,#55,(#46,#77,#100,#123,#146,#169,#192,#215,#238,#261,#284));
#57=PRODUCT_DEFINITION_CONTEXT('part definition',#35,'design');
#58=PRODUCT_DEFINITION('None','',#46,#57);
#59=PERSON('4','Creator','Joe',$,$,$);
#60=ORGANIZATION($,'None','None');
#61=PERSON_AND_ORGANIZATION(#59,#60);
#62=PERSON_AND_ORGANIZATION_ROLE('creator');
#63=APPLIED_PERSON_AND_ORGANIZATION_ASSIGNMENT(#61,#62,(#58,#78,#101,#124,#147,#170,#193,#216,#239,#262,#285));
#64=CARTESIAN_POINT('NONE',(0.0,0.0,0.0));
#65=DIRECTION('NONE',(0.0,0.0,1.0));
#66=DIRECTION('NONE',(1.0,0.0,0.0));
#67=AXIS2_PLACEMENT_3D('NONE',#64,#65,#66);
#68=SHAPE_REPRESENTATION('SR1',(#67,#85,#108,#131,#154,#177,#200,#223,#246,#269,#292),#34);
#69=PRODUCT_DEFINITION_SHAPE('PDS1','Test Part',#58);
#70=SHAPE_DEFINITION_REPRESENTATION(#69,#68);
#75=(GEOMETRIC_REPRESENTATION_CONTEXT(3)GLOBAL_UNCERTAINTY_ASSIGNED_CONTEXT((#32))GLOBAL_UNIT_ASSIGNED_CONTEXT((#16,#20,#30))REPRESENTATION_CONTEXT('Component','Component'));
#76=PRODUCT('*U10','*U10','',(#37));
#77=PRODUCT_DEFINITION_FORMATION_WITH_SPECIFIED_SOURCE('None','',#76,.BOUGHT.);
#78=PRODUCT_DEFINITION('None','',#77,#57);
#79=SHAPE_REPRESENTATION('SR2',(#67),#75);
#80=PRODUCT_DEFINITION_SHAPE('PDS2','Test Part',#78);
#81=SHAPE_DEFINITION_REPRESENTATION(#80,#79);
#82=CARTESIAN_POINT('NONE',(0.0,0.0,0.0));
#83=DIRECTION('NONE',(0.0,0.0,1.0));
#84=DIRECTION('NONE',(1.0,0.0,0.0));
#85=AXIS2_PLACEMENT_3D('NONE',#82,#83,#84);
#86=ITEM_DEFINED_TRANSFORMATION('IDT1','',#67,#85);
#90=(REPRESENTATION_RELATIONSHIP(' ',$,#79,#68)REPRESENTATION_RELATIONSHIP_WITH_TRANSFORMATION(#86)SHAPE_REPRESENTATION_RELATIONSHIP());
#91=NEXT_ASSEMBLY_USAGE_OCCURRENCE('NAUO1',' ',$,#58,#78,$);
#92=PRODUCT_DEFINITION_SHAPE('PDS_NAUO1',' ',#91);
#93=CONTEXT_DEPENDENT_SHAPE_REPRESENTATION(#90,#92);
#98=(GEOMETRIC_REPRESENTATION_CONTEXT(3)GLOBAL_UNCERTAINTY_ASSIGNED_CONTEXT((#32))GLOBAL_UNIT_ASSIGNED_CONTEXT((#16,#20,#30))REPRESENTATION_CONTEXT('Component','Component'));
#99=PRODUCT('*U9','*U9','',(#37));
#100=PRODUCT_DEFINITION_FORMATION_WITH_SPECIFIED_SOURCE('None','',#99,.BOUGHT.);
#101=PRODUCT_DEFINITION('None','',#100,#57);
#102=SHAPE_REPRESENTATION('SR3',(#67),#98);
#103=PRODUCT_DEFINITION_SHAPE('PDS3','Test Part',#101);
#104=SHAPE_DEFINITION_REPRESENTATION(#103,#102);
#105=CARTESIAN_POINT('NONE',(0.0,0.0,0.0));
#106=DIRECTION('NONE',(0.0,0.0,1.0));
#107=DIRECTION('NONE',(1.0,0.0,0.0));
#108=AXIS2_PLACEMENT_3D('NONE',#105,#106,#107);
#109=ITEM_DEFINED_TRANSFORMATION('IDT2','',#67,#108);
#113=(REPRESENTATION_RELATIONSHIP(' ',$,#102,#68)REPRESENTATION_RELATIONSHIP_WITH_TRANSFORMATION(#109)SHAPE_REPRESENTATION_RELATIONSHIP());
#114=NEXT_ASSEMBLY_USAGE_OCCURRENCE('NAUO2',' ',$,#58,#101,$);
#115=PRODUCT_DEFINITION_SHAPE('PDS_NAUO2',' ',#114);
#116=CONTEXT_DEPENDENT_SHAPE_REPRESENTATION(#113,#115);
#121=(GEOMETRIC_REPRESENTATION_CONTEXT(3)GLOBAL_UNCERTAINTY_ASSIGNED_CONTEXT((#32))GLOBAL_UNIT_ASSIGNED_CONTEXT((#16,#20,#30))REPRESENTATION_CONTEXT('Component','Component'));
#122=PRODUCT('*U8','*U8','',(#37));
#123=PRODUCT_DEFINITION_FORMATION_WITH_SPECIFIED_SOURCE('None','',#122,.BOUGHT.);
#124=PRODUCT_DEFINITION('None','',#123,#57);
#125=SHAPE_REPRESENTATION('SR4',(#67),#121);
#126=PRODUCT_DEFINITION_SHAPE('PDS4','Test Part',#124);
#127=SHAPE_DEFINITION_REPRESENTATION(#126,#125);
#128=CARTESIAN_POINT('NONE',(0.0,0.0,0.0));
#129=DIRECTION('NONE',(0.0,0.0,1.0));
#130=DIRECTION('NONE',(1.0,0.0,0.0));
#131=AXIS2_PLACEMENT_3D('NONE',#128,#129,#130);
#132=ITEM_DEFINED_TRANSFORMATION('IDT3','',#67,#131);
#136=(REPRESENTATION_RELATIONSHIP(' ',$,#125,#68)REPRESENTATION_RELATIONSHIP_WITH_TRANSFORMATION(#132)SHAPE_REPRESENTATION_RELATIONSHIP());
#137=NEXT_ASSEMBLY_USAGE_OCCURRENCE('NAUO3',' ',$,#58,#124,$);
#138=PRODUCT_DEFINITION_SHAPE('PDS_NAUO3',' ',#137);
#139=CONTEXT_DEPENDENT_SHAPE_REPRESENTATION(#136,#138);
#144=(GEOMETRIC_REPRESENTATION_CONTEXT(3)GLOBAL_UNCERTAINTY_ASSIGNED_CONTEXT((#32))GLOBAL_UNIT_ASSIGNED_CONTEXT((#16,#20,#30))REPRESENTATION_CONTEXT('Component','Component'));
#145=PRODUCT('*U7','*U7','',(#37));
#146=PRODUCT_DEFINITION_FORMATION_WITH_SPECIFIED_SOURCE('None','',#145,.BOUGHT.);
#147=PRODUCT_DEFINITION('None','',#146,#57);
#148=SHAPE_REPRESENTATION('SR5',(#67),#144);
#149=PRODUCT_DEFINITION_SHAPE('PDS5','Test Part',#147);
#150=SHAPE_DEFINITION_REPRESENTATION(#149,#148);
#151=CARTESIAN_POINT('NONE',(0.0,0.0,0.0));
#152=DIRECTION('NONE',(0.0,0.0,1.0));
#153=DIRECTION('NONE',(1.0,0.0,0.0));
#154=AXIS2_PLACEMENT_3D('NONE',#151,#152,#153);
#155=ITEM_DEFINED_TRANSFORMATION('IDT4','',#67,#154);
#159=(REPRESENTATION_RELATIONSHIP(' ',$,#148,#68)REPRESENTATION_RELATIONSHIP_WITH_TRANSFORMATION(#155)SHAPE_REPRESENTATION_RELATIONSHIP());
#160=NEXT_ASSEMBLY_USAGE_OCCURRENCE('NAUO4',' ',$,#58,#147,$);
#161=PRODUCT_DEFINITION_SHAPE('PDS_NAUO4',' ',#160);
#162=CONTEXT_DEPENDENT_SHAPE_REPRESENTATION(#159,#161);
#167=(GEOMETRIC_REPRESENTATION_CONTEXT(3)GLOBAL_UNCERTAINTY_ASSIGNED_CONTEXT((#32))GLOBAL_UNIT_ASSIGNED_CONTEXT((#16,#20,#30))REPRESENTATION_CONTEXT('Component','Component'));
#168=PRODUCT('*U6','*U6','',(#37));
#169=PRODUCT_DEFINITION_FORMATION_WITH_SPECIFIED_SOURCE('None','',#168,.BOUGHT.);
#170=PRODUCT_DEFINITION('None','',#169,#57);
#171=SHAPE_REPRESENTATION('SR6',(#67),#167);
#172=PRODUCT_DEFINITION_SHAPE('PDS6','Test Part',#170);
#173=SHAPE_DEFINITION_REPRESENTATION(#172,#171);
#174=CARTESIAN_POINT('NONE',(0.0,0.0,0.0));
#175=DIRECTION('NONE',(0.0,0.0,1.0));
#176=DIRECTION('NONE',(1.0,0.0,0.0));
#177=AXIS2_PLACEMENT_3D('NONE',#174,#175,#176);
#178=ITEM_DEFINED_TRANSFORMATION('IDT5','',#67,#177);
#182=(REPRESENTATION_RELATIONSHIP(' ',$,#171,#68)REPRESENTATION_RELATIONSHIP_WITH_TRANSFORMATION(#178)SHAPE_REPRESENTATION_RELATIONSHIP());
#183=NEXT_ASSEMBLY_USAGE_OCCURRENCE('NAUO5',' ',$,#58,#170,$);
#184=PRODUCT_DEFINITION_SHAPE('PDS_NAUO5',' ',#183);
#185=CONTEXT_DEPENDENT_SHAPE_REPRESENTATION(#182,#184);
#190=(GEOMETRIC_REPRESENTATION_CONTEXT(3)GLOBAL_UNCERTAINTY_ASSIGNED_CONTEXT((#32))GLOBAL_UNIT_ASSIGNED_CONTEXT((#16,#20,#30))REPRESENTATION_CONTEXT('Component','Component'));
#191=PRODUCT('*U5','*U5','',(#37));
#192=PRODUCT_DEFINITION_FORMATION_WITH_SPECIFIED_SOURCE('None','',#191,.BOUGHT.);
#193=PRODUCT_DEFINITION('None','',#192,#57);
#194=SHAPE_REPRESENTATION('SR7',(#67),#190);
#195=PRODUCT_DEFINITION_SHAPE('PDS7','Test Part',#193);
#196=SHAPE_DEFINITION_REPRESENTATION(#195,#194);
#197=CARTESIAN_POINT('NONE',(0.0,0.0,0.0));
#198=DIRECTION('NONE',(0.0,0.0,1.0));
#199=DIRECTION('NONE',(1.0,0.0,0.0));
#200=AXIS2_PLACEMENT_3D('NONE',#197,#198,#199);
#201=ITEM_DEFINED_TRANSFORMATION('IDT6','',#67,#200);
#205=(REPRESENTATION_RELATIONSHIP(' ',$,#194,#68)REPRESENTATION_RELATIONSHIP_WITH_TRANSFORMATION(#201)SHAPE_REPRESENTATION_RELATIONSHIP());
#206=NEXT_ASSEMBLY_USAGE_OCCURRENCE('NAUO6',' ',$,#58,#193,$);
#207=PRODUCT_DEFINITION_SHAPE('PDS_NAUO6',' ',#206);
#208=CONTEXT_DEPENDENT_SHAPE_REPRESENTATION(#205,#207);
#213=(GEOMETRIC_REPRESENTATION_CONTEXT(3)GLOBAL_UNCERTAINTY_ASSIGNED_CONTEXT((#32))GLOBAL_UNIT_ASSIGNED_CONTEXT((#16,#20,#30))REPRESENTATION_CONTEXT('Component','Component'));
#214=PRODUCT('*U4','*U4','',(#37));
#215=PRODUCT_DEFINITION_FORMATION_WITH_SPECIFIED_SOURCE('None','',#214,.BOUGHT.);
#216=PRODUCT_DEFINITION('None','',#215,#57);
#217=SHAPE_REPRESENTATION('SR8',(#67),#213);
#218=PRODUCT_DEFINITION_SHAPE('PDS8','Test Part',#216);
#219=SHAPE_DEFINITION_REPRESENTATION(#218,#217);
#220=CARTESIAN_POINT('NONE',(0.0,0.0,0.0));
#221=DIRECTION('NONE',(0.0,0.0,1.0));
#222=DIRECTION('NONE',(1.0,0.0,0.0));
#223=AXIS2_PLACEMENT_3D('NONE',#220,#221,#222);
#224=ITEM_DEFINED_TRANSFORMATION('IDT7','',#67,#223);
#228=(REPRESENTATION_RELATIONSHIP(' ',$,#217,#68)REPRESENTATION_RELATIONSHIP_WITH_TRANSFORMATION(#224)SHAPE_REPRESENTATION_RELATIONSHIP());
#229=NEXT_ASSEMBLY_USAGE_OCCURRENCE('NAUO7',' ',$,#58,#216,$);
#230=PRODUCT_DEFINITION_SHAPE('PDS_NAUO7',' ',#229);
#231=CONTEXT_DEPENDENT_SHAPE_REPRESENTATION(#228,#230);
#236=(GEOMETRIC_REPRESENTATION_CONTEXT(3)GLOBAL_UNCERTAINTY_ASSIGNED_CONTEXT((#32))GLOBAL_UNIT_ASSIGNED_CONTEXT((#16,#20,#30))REPRESENTATION_CONTEXT('Component','Component'));
#237=PRODUCT('*U3','*U3','',(#37));
#238=PRODUCT_DEFINITION_FORMATION_WITH_SPECIFIED_SOURCE('None','',#237,.BOUGHT.);
#239=PRODUCT_DEFINITION('None','',#238,#57);
#240=SHAPE_REPRESENTATION('SR9',(#67),#236);
#241=PRODUCT_DEFINITION_SHAPE('PDS9','Test Part',#239);
#242=SHAPE_DEFINITION_REPRESENTATION(#241,#240);
#243=CARTESIAN_POINT('NONE',(0.0,0.0,0.0));
#244=DIRECTION('NONE',(0.0,0.0,1.0));
#245=DIRECTION('NONE',(1.0,0.0,0.0));
#246=AXIS2_PLACEMENT_3D('NONE',#243,#244,#245);
#247=ITEM_DEFINED_TRANSFORMATION('IDT8','',#67,#246);
#251=(REPRESENTATION_RELATIONSHIP(' ',$,#240,#68)REPRESENTATION_RELATIONSHIP_WITH_TRANSFORMATION(#247)SHAPE_REPRESENTATION_RELATIONSHIP());
#252=NEXT_ASSEMBLY_USAGE_OCCURRENCE('NAUO8',' ',$,#58,#239,$);
#253=PRODUCT_DEFINITION_SHAPE('PDS_NAUO8',' ',#252);
#254=CONTEXT_DEPENDENT_SHAPE_REPRESENTATION(#251,#253);
#259=(GEOMETRIC_REPRESENTATION_CONTEXT(3)GLOBAL_UNCERTAINTY_ASSIGNED_CONTEXT((#32))GLOBAL_UNIT_ASSIGNED_CONTEXT((#16,#20,#30))REPRESENTATION_CONTEXT('Component','Component'));
#260=PRODUCT('*U2','*U2','',(#37));
#261=PRODUCT_DEFINITION_FORMATION_WITH_SPECIFIED_SOURCE('None','',#260,.BOUGHT.);
#262=PRODUCT_DEFINITION('None','',#261,#57);
#263=SHAPE_REPRESENTATION('SR10',(#67),#259);
#264=PRODUCT_DEFINITION_SHAPE('PDS10','Test Part',#262);
#265=SHAPE_DEFINITION_REPRESENTATION(#264,#263);
#266=CARTESIAN_POINT('NONE',(0.0,0.0,0.0));
#267=DIRECTION('NONE',(0.0,0.0,1.0));
#268=DIRECTION('NONE',(1.0,0.0,0.0));
#269=AXIS2_PLACEMENT_3D('NONE',#266,#267,#268);
#270=ITEM_DEFINED_TRANSFORMATION('IDT9','',#67,#269);
#274=(REPRESENTATION_RELATIONSHIP(' ',$,#263,#68)REPRESENTATION_RELATIONSHIP_WITH_TRANSFORMATION(#270)SHAPE_REPRESENTATION_RELATIONSHIP());
#275=NEXT_ASSEMBLY_USAGE_OCCURRENCE('NAUO9',' ',$,#58,#262,$);
#276=PRODUCT_DEFINITION_SHAPE('PDS_NAUO9',' ',#275);
#277=CONTEXT_DEPENDENT_SHAPE_REPRESENTATION(#274,#276);
#282=(GEOMETRIC_REPRESENTATION_CONTEXT(3)GLOBAL_UNCERTAINTY_ASSIGNED_CONTEXT((#32))GLOBAL_UNIT_ASSIGNED_CONTEXT((#16,#20,#30))REPRESENTATION_CONTEXT('Component','Component'));
#283=PRODUCT('*U1','*U1','',(#37));
#284=PRODUCT_DEFINITION_FORMATION_WITH_SPECIFIED_SOURCE('None','',#283,.BOUGHT.);
#285=PRODUCT_DEFINITION('None','',#284,#57);
#286=SHAPE_REPRESENTATION('SR11',(#67),#282);
#287=PRODUCT_DEFINITION_SHAPE('PDS11','Test Part',#285);
#288=SHAPE_DEFINITION_REPRESENTATION(#287,#286);
#289=CARTESIAN_POINT('NONE',(0.0,0.0,0.0));
#290=DIRECTION('NONE',(0.0,0.0,1.0));
#291=DIRECTION('NONE',(1.0,0.0,0.0));
#292=AXIS2_PLACEMENT_3D('NONE',#289,#290,#291);
#293=ITEM_DEFINED_TRANSFORMATION('IDT10','',#67,#292);
#297=(REPRESENTATION_RELATIONSHIP(' ',$,#286,#68)REPRESENTATION_RELATIONSHIP_WITH_TRANSFORMATION(#293)SHAPE_REPRESENTATION_RELATIONSHIP());
#298=NEXT_ASSEMBLY_USAGE_OCCURRENCE('NAUO10',' ',$,#58,#285,$);
#299=PRODUCT_DEFINITION_SHAPE('PDS_NAUO10',' ',#298);
#300=CONTEXT_DEPENDENT_SHAPE_REPRESENTATION(#297,#299);
#301=CARTESIAN_POINT('',(0.0,0.75,0.0));
#302=DIRECTION('',(8.157517E-032,2.220446E-016,1.0));
#303=DIRECTION('',(0.0,-1.0,0.0));
#304=AXIS2_PLACEMENT_3D('',#301,#302,#303);
#305=CYLINDRICAL_SURFACE('',#304,0.1715);
#306=CARTESIAN_POINT('',(0.0,0.578500000000005,0.0));
#307=VERTEX_POINT('',#306);
#308=CARTESIAN_POINT('',(-1.010866E-016,0.5785,0.25));
#309=VERTEX_POINT('',#308);
#310=CARTESIAN_POINT('',(-1.010866E-016,0.5785,3.808065E-017));
#311=DIRECTION('',(0.0,0.0,1.0));
#312=VECTOR('',#311,0.25);
#313=LINE('',#310,#312);
#314=EDGE_CURVE('',#307,#309,#313,.T.);
#315=ORIENTED_EDGE('',*,*,#314,.F.);
#316=CARTESIAN_POINT('',(8.008395E-017,0.9215,-3.808065E-017));
#317=VERTEX_POINT('',#316);
#318=CARTESIAN_POINT('',(0.0,0.75,0.0));
#319=DIRECTION('',(0.0,0.0,1.0));
#320=DIRECTION('',(0.0,-1.0,0.0));
#321=AXIS2_PLACEMENT_3D('',#318,#319,#320);
#322=CIRCLE('',#321,0.1715);
#323=EDGE_CURVE('',#317,#307,#322,.T.);
#324=ORIENTED_EDGE('',*,*,#323,.F.);
#325=CARTESIAN_POINT('',(0.0,0.921499999999995,0.25));
#326=VERTEX_POINT('',#325);
#327=CARTESIAN_POINT('',(8.008395E-017,0.9215,-3.808065E-017));
#328=DIRECTION('',(0.0,0.0,1.0));
#329=VECTOR('',#328,0.25);
#330=LINE('',#327,#329);
#331=EDGE_CURVE('',#317,#326,#330,.T.);
#332=ORIENTED_EDGE('',*,*,#331,.T.);
#333=CARTESIAN_POINT('',(0.0,0.75,0.25));
#334=DIRECTION('',(0.0,0.0,-1.0));
#335=DIRECTION('',(0.0,-1.0,0.0));
#336=AXIS2_PLACEMENT_3D('',#333,#334,#335);
#337=CIRCLE('',#336,0.1715);
#338=EDGE_CURVE('',#309,#326,#337,.T.);
#339=ORIENTED_EDGE('',*,*,#338,.F.);
#340=EDGE_LOOP('',(#315,#324,#332,#339));
#341=FACE_OUTER_BOUND('',#340,.T.);
#342=ADVANCED_FACE('',(#341),#305,.F.);
#343=CARTESIAN_POINT('',(0.0,0.75,0.0));
#344=DIRECTION('',(8.157517E-032,2.220446E-016,1.0));
#345=DIRECTION('',(0.0,-1.0,0.0));
#346=AXIS2_PLACEMENT_3D('',#343,#344,#345);
#347=CYLINDRICAL_SURFACE('',#346,0.1715);
#348=ORIENTED_EDGE('',*,*,#314,.T.);
#349=CARTESIAN_POINT('',(0.0,0.75,0.25));
#350=DIRECTION('',(0.0,0.0,-1.0));
#351=DIRECTION('',(0.0,-1.0,0.0));
#352=AXIS2_PLACEMENT_3D('',#349,#350,#351);
#353=CIRCLE('',#352,0.1715);
#354=EDGE_CURVE('',#326,#309,#353,.T.);
#355=ORIENTED_EDGE('',*,*,#354,.F.);
#356=ORIENTED_EDGE('',*,*,#331,.F.);
#357=CARTESIAN_POINT('',(0.0,0.75,0.0));
#358=DIRECTION('',(0.0,0.0,1.0));
#359=DIRECTION('',(0.0,-1.0,0.0));
#360=AXIS2_PLACEMENT_3D('',#357,#358,#359);
#361=CIRCLE('',#360,0.1715);
#362=EDGE_CURVE('',#307,#317,#361,.T.);
#363=ORIENTED_EDGE('',*,*,#362,.F.);
#364=EDGE_LOOP('',(#348,#355,#356,#363));
#365=FACE_OUTER_BOUND('',#364,.T.);
#366=ADVANCED_FACE('',(#365),#347,.F.);
#367=CARTESIAN_POINT('',(0.75,0.0,0.0));
#368=DIRECTION('',(0.0,-1.0,0.0));
#369=DIRECTION('',(-1.0,0.0,0.0));
#370=AXIS2_PLACEMENT_3D('',#367,#368,#369);
#371=PLANE('',#370);
#372=CARTESIAN_POINT('',(0.75,0.0,0.25));
#373=VERTEX_POINT('',#372);
#374=CARTESIAN_POINT('',(-0.75,0.0,0.25));
#375=VERTEX_POINT('',#374);
#376=CARTESIAN_POINT('',(0.75,0.0,0.25));
#377=DIRECTION('',(-1.0,0.0,0.0));
#378=VECTOR('',#377,1.5);
#379=LINE('',#376,#378);
#380=EDGE_CURVE('',#373,#375,#379,.T.);
#381=ORIENTED_EDGE('',*,*,#380,.T.);
#382=CARTESIAN_POINT('',(-0.75,0.0,0.0));
#383=VERTEX_POINT('',#382);
#384=CARTESIAN_POINT('',(-0.75,0.0,0.0));
#385=DIRECTION('',(0.0,0.0,1.0));
#386=VECTOR('',#385,0.25);
#387=LINE('',#384,#386);
#388=EDGE_CURVE('',#383,#375,#387,.T.);
#389=ORIENTED_EDGE('',*,*,#388,.F.);
#390=CARTESIAN_POINT('',(0.75,0.0,0.0));
#391=VERTEX_POINT('',#390);
#392=CARTESIAN_POINT('',(0.75,0.0,0.0));
#393=DIRECTION('',(-1.0,0.0,0.0));
#394=VECTOR('',#393,1.5);
#395=LINE('',#392,#394);
#396=EDGE_CURVE('',#391,#383,#395,.T.);
#397=ORIENTED_EDGE('',*,*,#396,.F.);
#398=CARTESIAN_POINT('',(0.75,0.0,0.0));
#399=DIRECTION('',(0.0,0.0,1.0));
#400=VECTOR('',#399,0.25);
#401=LINE('',#398,#400);
#402=EDGE_CURVE('',#391,#373,#401,.T.);
#403=ORIENTED_EDGE('',*,*,#402,.T.);
#404=EDGE_LOOP('',(#381,#389,#397,#403));
#405=FACE_OUTER_BOUND('',#404,.T.);
#406=ADVANCED_FACE('',(#405),#371,.T.);
#407=CARTESIAN_POINT('',(-0.75,0.0,0.0));
#408=DIRECTION('',(-1.0,0.0,0.0));
#409=DIRECTION('',(0.0,1.0,0.0));
#410=AXIS2_PLACEMENT_3D('',#407,#408,#409);
#411=PLANE('',#410);
#412=CARTESIAN_POINT('',(-0.75,2.0,0.25));
#413=VERTEX_POINT('',#412);
#414=CARTESIAN_POINT('',(-0.75,0.0,0.25));
#415=DIRECTION('',(0.0,1.0,0.0));
#416=VECTOR('',#415,2.0);
#417=LINE('',#414,#416);
#418=EDGE_CURVE('',#375,#413,#417,.T.);
#419=ORIENTED_EDGE('',*,*,#418,.T.);
#420=CARTESIAN_POINT('',(-0.75,2.0,-4.440892E-016));
#421=VERTEX_POINT('',#420);
#422=CARTESIAN_POINT('',(-0.75,2.0,-4.440892E-016));
#423=DIRECTION('',(0.0,0.0,1.0));
#424=VECTOR('',#423,0.25);
#425=LINE('',#422,#424);
#426=EDGE_CURVE('',#421,#413,#425,.T.);
#427=ORIENTED_EDGE('',*,*,#426,.F.);
#428=CARTESIAN_POINT('',(-0.75,0.0,0.0));
#429=DIRECTION('',(0.0,1.0,0.0));
#430=VECTOR('',#429,2.0);
#431=LINE('',#428,#430);
#432=EDGE_CURVE('',#383,#421,#431,.T.);
#433=ORIENTED_EDGE('',*,*,#432,.F.);
#434=ORIENTED_EDGE('',*,*,#388,.T.);
#435=EDGE_LOOP('',(#419,#427,#433,#434));
#436=FACE_OUTER_BOUND('',#435,.T.);
#437=ADVANCED_FACE('',(#436),#411,.T.);
#438=CARTESIAN_POINT('',(-0.75,2.0,-4.440892E-016));
#439=DIRECTION('',(0.0,1.0,0.0));
#440=DIRECTION('',(1.0,0.0,0.0));
#441=AXIS2_PLACEMENT_3D('',#438,#439,#440);
#442=PLANE('',#441);
#443=CARTESIAN_POINT('',(0.75,2.0,0.25));
#444=VERTEX_POINT('',#443);
#445=CARTESIAN_POINT('',(-0.75,2.0,0.25));
#446=DIRECTION('',(1.0,0.0,0.0));
#447=VECTOR('',#446,1.5);
#448=LINE('',#445,#447);
#449=EDGE_CURVE('',#413,#444,#448,.T.);
#450=ORIENTED_EDGE('',*,*,#449,.T.);
#451=CARTESIAN_POINT('',(0.75,2.0,-4.440892E-016));
#452=VERTEX_POINT('',#451);
#453=CARTESIAN_POINT('',(0.75,2.0,-4.440892E-016));
#454=DIRECTION('',(0.0,0.0,1.0));
#455=VECTOR('',#454,0.25);
#456=LINE('',#453,#455);
#457=EDGE_CURVE('',#452,#444,#456,.T.);
#458=ORIENTED_EDGE('',*,*,#457,.F.);
#459=CARTESIAN_POINT('',(-0.75,2.0,-4.440892E-016));
#460=DIRECTION('',(1.0,0.0,0.0));
#461=VECTOR('',#460,1.5);
#462=LINE('',#459,#461);
#463=EDGE_CURVE('',#421,#452,#462,.T.);
#464=ORIENTED_EDGE('',*,*,#463,.F.);
#465=ORIENTED_EDGE('',*,*,#426,.T.);
#466=EDGE_LOOP('',(#450,#458,#464,#465));
#467=FACE_OUTER_BOUND('',#466,.T.);
#468=ADVANCED_FACE('',(#467),#442,.T.);
#469=CARTESIAN_POINT('',(0.75,2.0,-4.440892E-016));
#470=DIRECTION('',(1.0,0.0,0.0));
#471=DIRECTION('',(0.0,-1.0,0.0));
#472=AXIS2_PLACEMENT_3D('',#469,#470,#471);
#473=PLANE('',#472);
#474=CARTESIAN_POINT('',(0.75,2.0,0.25));
#475=DIRECTION('',(0.0,-1.0,0.0));
#476=VECTOR('',#475,2.0);
#477=LINE('',#474,#476);
#478=EDGE_CURVE('',#444,#373,#477,.T.);
#479=ORIENTED_EDGE('',*,*,#478,.T.);
#480=ORIENTED_EDGE('',*,*,#402,.F.);
#481=CARTESIAN_POINT('',(0.75,2.0,-4.440892E-016));
#482=DIRECTION('',(0.0,-1.0,0.0));
#483=VECTOR('',#482,2.0);
#484=LINE('',#481,#483);
#485=EDGE_CURVE('',#452,#391,#484,.T.);
#486=ORIENTED_EDGE('',*,*,#485,.F.);
#487=ORIENTED_EDGE('',*,*,#457,.T.);
#488=EDGE_LOOP('',(#479,#480,#486,#487));
#489=FACE_OUTER_BOUND('',#488,.T.);
#490=ADVANCED_FACE('',(#489),#473,.T.);
#491=CARTESIAN_POINT('',(0.0,1.000000000000014,0.25));
#492=DIRECTION('',(0.0,0.0,-1.0));
#493=DIRECTION('',(1.0,0.0,0.0));
#494=AXIS2_PLACEMENT_3D('',#491,#492,#493);
#495=PLANE('',#494);
#496=ORIENTED_EDGE('',*,*,#380,.F.);
#497=ORIENTED_EDGE('',*,*,#478,.F.);
#498=ORIENTED_EDGE('',*,*,#449,.F.);
#499=ORIENTED_EDGE('',*,*,#418,.F.);
#500=EDGE_LOOP('',(#496,#497,#498,#499));
#501=FACE_OUTER_BOUND('',#500,.T.);
#502=ORIENTED_EDGE('',*,*,#354,.T.);
#503=ORIENTED_EDGE('',*,*,#338,.T.);
#504=EDGE_LOOP('',(#502,#503));
#505=FACE_BOUND('',#504,.T.);
#506=ADVANCED_FACE('',(#501,#505),#495,.F.);
#507=CARTESIAN_POINT('',(0.0,1.000000000000014,-2.220446E-016));
#508=DIRECTION('',(0.0,0.0,-1.0));
#509=DIRECTION('',(1.0,0.0,0.0));
#510=AXIS2_PLACEMENT_3D('',#507,#508,#509);
#511=PLANE('',#510);
#512=ORIENTED_EDGE('',*,*,#485,.T.);
#513=ORIENTED_EDGE('',*,*,#396,.T.);
#514=ORIENTED_EDGE('',*,*,#432,.T.);
#515=ORIENTED_EDGE('',*,*,#463,.T.);
#516=EDGE_LOOP('',(#512,#513,#514,#515));
#517=FACE_OUTER_BOUND('',#516,.T.);
#518=ORIENTED_EDGE('',*,*,#362,.T.);
#519=ORIENTED_EDGE('',*,*,#323,.T.);
#520=EDGE_LOOP('',(#518,#519));
#521=FACE_BOUND('',#520,.T.);
#522=ADVANCED_FACE('',(#517,#521),#511,.T.);
#523=CLOSED_SHELL('',(#342,#366,#406,#437,#468,#490,#506,#522));
#524=MANIFOLD_SOLID_BREP('219D',#523);
#525=DRAUGHTING_PRE_DEFINED_COLOUR('white');
#526=SURFACE_STYLE_USAGE(.BOTH.,#527);
#527=SURFACE_SIDE_STYLE('NONE',(#528));
#528=SURFACE_STYLE_FILL_AREA(#529);
#529=FILL_AREA_STYLE('NONE',(#530));
#530=FILL_AREA_STYLE_COLOUR('NONE',#525);
#531=PRESENTATION_STYLE_ASSIGNMENT((#526));
#532=STYLED_ITEM('NONE',(#531),#524);
#533=MECHANICAL_DESIGN_GEOMETRIC_PRESENTATION_REPRESENTATION('NONE',(#532),#34);
#534=PRESENTATION_LAYER_ASSIGNMENT('0','None',(#524));
#535=ADVANCED_BREP_SHAPE_REPRESENTATION('ABSR1',(#524),#34);
#536=SHAPE_REPRESENTATION_RELATIONSHIP('SRRPL1','',#535,#68);
ENDSEC;
END-ISO-10303-21;
