ISO-10303-21;
HEADER;
/****************************************************************
 * Generated by software with PDElib inside                    *
 * PDElib Version v51a, created Fri 09/10/2010                  *
 * ITI Transcendata (http://www.transcendata.com/)              *
 ****************************************************************/
FILE_DESCRIPTION((''),'2;1');
FILE_NAME('15AC7972.stp','2015-07-16T10:43:44',(''),(''),'Mechanical Desktop 2011','Mechanical Desktop 2011',', , ');
FILE_SCHEMA(('AUTOMOTIVE_DESIGN { 1 2 10303 214 1 1 1 1 }'));
ENDSEC;
DATA;
#10=(NAMED_UNIT(*)PLANE_ANGLE_UNIT()SI_UNIT($,.RADIAN.));
#11=DIMENSIONAL_EXPONENTS(0.0,0.0,0.0,0.0,0.0,0.0,0.0);
#12=PLANE_ANGLE_MEASURE_WITH_UNIT(PLANE_ANGLE_MEASURE(0.0174532925),#10);
#16=(CONVERSION_BASED_UNIT('DEGREE',#12)NAMED_UNIT(#11)PLANE_ANGLE_UNIT());
#20=(NAMED_UNIT(*)SI_UNIT($,.STERADIAN.)SOLID_ANGLE_UNIT());
#24=(LENGTH_UNIT()NAMED_UNIT(*)SI_UNIT(.CENTI.,.METRE.));
#25=DIMENSIONAL_EXPONENTS(1.0,0.0,0.0,0.0,0.0,0.0,0.0);
#26=LENGTH_MEASURE_WITH_UNIT(LENGTH_MEASURE(2.54),#24);
#30=(CONVERSION_BASED_UNIT('INCH',#26)LENGTH_UNIT()NAMED_UNIT(#25));
#32=UNCERTAINTY_MEASURE_WITH_UNIT(LENGTH_MEASURE(0.000001),#30,'DISTANCE_ACCURACY_VALUE','');
#34=(GEOMETRIC_REPRESENTATION_CONTEXT(3)GLOBAL_UNCERTAINTY_ASSIGNED_CONTEXT((#32))GLOBAL_UNIT_ASSIGNED_CONTEXT((#16,#20,#30))REPRESENTATION_CONTEXT('','3D'));
#35=APPLICATION_CONTEXT('automotive design');
#36=APPLICATION_PROTOCOL_DEFINITION('INTERNATIONAL_STANDARD','automotive_design',1998,#35);
#37=PRODUCT_CONTEXT('3D Mechanical Parts',#35,'mechanical');
#38=PRODUCT('Product','Product','',(#37));
#39=PRODUCT_RELATED_PRODUCT_CATEGORY('part',$,(#38));
#40=PRODUCT_CATEGORY('part',$);
#41=PERSON('1','Design','Joe',$,$,$);
#42=ORGANIZATION($,'None','None');
#43=PERSON_AND_ORGANIZATION(#41,#42);
#44=PERSON_AND_ORGANIZATION_ROLE('design_owner');
#45=APPLIED_PERSON_AND_ORGANIZATION_ASSIGNMENT(#43,#44,(#38));
#46=PRODUCT_DEFINITION_FORMATION_WITH_SPECIFIED_SOURCE('None','',#38,.BOUGHT.);
#47=PERSON('2','Creator','Joe',$,$,$);
#48=ORGANIZATION($,'None','None');
#49=PERSON_AND_ORGANIZATION(#47,#48);
#50=PERSON_AND_ORGANIZATION_ROLE('creator');
#51=APPLIED_PERSON_AND_ORGANIZATION_ASSIGNMENT(#49,#50,(#46));
#52=PERSON('3','Supplier','Joe',$,$,$);
#53=ORGANIZATION($,'None','None');
#54=PERSON_AND_ORGANIZATION(#52,#53);
#55=PERSON_AND_ORGANIZATION_ROLE('design_supplier');
#56=APPLIED_PERSON_AND_ORGANIZATION_ASSIGNMENT(#54,#55,(#46));
#57=PRODUCT_DEFINITION_CONTEXT('part definition',#35,'design');
#58=PRODUCT_DEFINITION('None','',#46,#57);
#59=PERSON('4','Creator','Joe',$,$,$);
#60=ORGANIZATION($,'None','None');
#61=PERSON_AND_ORGANIZATION(#59,#60);
#62=PERSON_AND_ORGANIZATION_ROLE('creator');
#63=APPLIED_PERSON_AND_ORGANIZATION_ASSIGNMENT(#61,#62,(#58));
#64=CARTESIAN_POINT('NONE',(0.0,0.0,0.0));
#65=DIRECTION('NONE',(0.0,0.0,1.0));
#66=DIRECTION('NONE',(1.0,0.0,0.0));
#67=AXIS2_PLACEMENT_3D('NONE',#64,#65,#66);
#68=SHAPE_REPRESENTATION('SR1',(#67),#34);
#69=PRODUCT_DEFINITION_SHAPE('PDS1','Test Part',#58);
#70=SHAPE_DEFINITION_REPRESENTATION(#69,#68);
#71=CARTESIAN_POINT('',(0.0,0.0,0.125));
#72=DIRECTION('',(1.836910E-016,1.037283E-015,-1.0));
#73=DIRECTION('',(-1.0,0.0,0.0));
#74=AXIS2_PLACEMENT_3D('',#71,#72,#73);
#75=CYLINDRICAL_SURFACE('',#74,0.171875);
#76=CARTESIAN_POINT('',(-0.171875,-8.881784E-016,0.25));
#77=VERTEX_POINT('',#76);
#78=CARTESIAN_POINT('',(-0.171875,0.0,-4.201499E-016));
#79=VERTEX_POINT('',#78);
#80=CARTESIAN_POINT('',(-0.171875,-7.704061E-017,0.25));
#81=DIRECTION('',(0.0,0.0,-1.0));
#82=VECTOR('',#81,0.25);
#83=LINE('',#80,#82);
#84=EDGE_CURVE('',#77,#79,#83,.T.);
#85=ORIENTED_EDGE('',*,*,#84,.F.);
#86=CARTESIAN_POINT('',(0.171875,-2.033288E-016,0.25));
#87=VERTEX_POINT('',#86);
#88=CARTESIAN_POINT('',(0.0,-8.881784E-016,0.25));
#89=DIRECTION('',(0.0,0.0,-1.0));
#90=DIRECTION('',(-1.0,0.0,0.0));
#91=AXIS2_PLACEMENT_3D('',#88,#89,#90);
#92=CIRCLE('',#91,0.171875);
#93=EDGE_CURVE('',#87,#77,#92,.T.);
#94=ORIENTED_EDGE('',*,*,#93,.F.);
#95=CARTESIAN_POINT('',(0.171875,5.599199E-017,4.163336E-017));
#96=VERTEX_POINT('',#95);
#97=CARTESIAN_POINT('',(0.171875,-2.033288E-016,0.25));
#98=DIRECTION('',(0.0,0.0,-1.0));
#99=VECTOR('',#98,0.25);
#100=LINE('',#97,#99);
#101=EDGE_CURVE('',#87,#96,#100,.T.);
#102=ORIENTED_EDGE('',*,*,#101,.T.);
#103=CARTESIAN_POINT('',(0.0,0.0,0.0));
#104=DIRECTION('',(0.0,0.0,1.0));
#105=DIRECTION('',(-1.0,0.0,0.0));
#106=AXIS2_PLACEMENT_3D('',#103,#104,#105);
#107=CIRCLE('',#106,0.171875);
#108=EDGE_CURVE('',#79,#96,#107,.T.);
#109=ORIENTED_EDGE('',*,*,#108,.F.);
#110=EDGE_LOOP('',(#85,#94,#102,#109));
#111=FACE_OUTER_BOUND('',#110,.T.);
#112=ADVANCED_FACE('',(#111),#75,.F.);
#113=CARTESIAN_POINT('',(1.5,-0.171000000000001,0.25));
#114=DIRECTION('',(0.0,-1.0,0.0));
#115=DIRECTION('',(0.0,0.0,1.0));
#116=AXIS2_PLACEMENT_3D('',#113,#114,#115);
#117=PLANE('',#116);
#118=CARTESIAN_POINT('',(1.517320959124711,-0.171000000000001,0.25));
#119=VERTEX_POINT('',#118);
#120=CARTESIAN_POINT('',(1.517320959124709,-0.171000000000001,4.560482E-016));
#121=VERTEX_POINT('',#120);
#122=CARTESIAN_POINT('',(1.517320959124709,-0.171000000000001,0.25));
#123=DIRECTION('',(0.0,0.0,-1.0));
#124=VECTOR('',#123,0.25);
#125=LINE('',#122,#124);
#126=EDGE_CURVE('',#119,#121,#125,.T.);
#127=ORIENTED_EDGE('',*,*,#126,.F.);
#128=CARTESIAN_POINT('',(1.8,-0.171000000000001,0.25));
#129=VERTEX_POINT('',#128);
#130=CARTESIAN_POINT('',(1.8,-0.171000000000001,0.25));
#131=DIRECTION('',(-1.0,0.0,0.0));
#132=VECTOR('',#131,0.282679040875289);
#133=LINE('',#130,#132);
#134=EDGE_CURVE('',#129,#119,#133,.T.);
#135=ORIENTED_EDGE('',*,*,#134,.F.);
#136=CARTESIAN_POINT('',(1.8,-0.171000000000001,4.699260E-016));
#137=VERTEX_POINT('',#136);
#138=CARTESIAN_POINT('',(1.8,-0.171000000000001,0.25));
#139=DIRECTION('',(0.0,0.0,-1.0));
#140=VECTOR('',#139,0.25);
#141=LINE('',#138,#140);
#142=EDGE_CURVE('',#129,#137,#141,.T.);
#143=ORIENTED_EDGE('',*,*,#142,.T.);
#144=CARTESIAN_POINT('',(1.517320959124709,-0.171000000000001,1.256582E-016));
#145=DIRECTION('',(1.0,0.0,0.0));
#146=VECTOR('',#145,0.282679040875291);
#147=LINE('',#144,#146);
#148=EDGE_CURVE('',#121,#137,#147,.T.);
#149=ORIENTED_EDGE('',*,*,#148,.F.);
#150=EDGE_LOOP('',(#127,#135,#143,#149));
#151=FACE_OUTER_BOUND('',#150,.T.);
#152=ADVANCED_FACE('',(#151),#117,.F.);
#153=CARTESIAN_POINT('',(1.8,-8.881784E-016,0.25));
#154=DIRECTION('',(0.0,0.0,-1.0));
#155=DIRECTION('',(1.0,0.0,0.0));
#156=AXIS2_PLACEMENT_3D('',#153,#154,#155);
#157=CYLINDRICAL_SURFACE('',#156,0.171);
#158=CARTESIAN_POINT('',(1.8,0.170999999999999,4.699260E-016));
#159=VERTEX_POINT('',#158);
#160=CARTESIAN_POINT('',(1.8,-8.881784E-016,1.368591E-016));
#161=DIRECTION('',(0.0,0.0,1.0));
#162=DIRECTION('',(1.0,0.0,0.0));
#163=AXIS2_PLACEMENT_3D('',#160,#161,#162);
#164=CIRCLE('',#163,0.171);
#165=EDGE_CURVE('',#137,#159,#164,.T.);
#166=ORIENTED_EDGE('',*,*,#165,.F.);
#167=ORIENTED_EDGE('',*,*,#142,.F.);
#168=CARTESIAN_POINT('',(1.8,0.170999999999999,0.25));
#169=VERTEX_POINT('',#168);
#170=CARTESIAN_POINT('',(1.8,-8.881784E-016,0.25));
#171=DIRECTION('',(0.0,0.0,-1.0));
#172=DIRECTION('',(1.0,0.0,0.0));
#173=AXIS2_PLACEMENT_3D('',#170,#171,#172);
#174=CIRCLE('',#173,0.171);
#175=EDGE_CURVE('',#169,#129,#174,.T.);
#176=ORIENTED_EDGE('',*,*,#175,.F.);
#177=CARTESIAN_POINT('',(1.8,0.170999999999999,0.25));
#178=DIRECTION('',(0.0,0.0,-1.0));
#179=VECTOR('',#178,0.25);
#180=LINE('',#177,#179);
#181=EDGE_CURVE('',#169,#159,#180,.T.);
#182=ORIENTED_EDGE('',*,*,#181,.T.);
#183=EDGE_LOOP('',(#166,#167,#176,#182));
#184=FACE_OUTER_BOUND('',#183,.T.);
#185=ADVANCED_FACE('',(#184),#157,.F.);
#186=CARTESIAN_POINT('',(1.8,0.170999999999999,0.25));
#187=DIRECTION('',(0.0,1.0,0.0));
#188=DIRECTION('',(0.0,0.0,-1.0));
#189=AXIS2_PLACEMENT_3D('',#186,#187,#188);
#190=PLANE('',#189);
#191=CARTESIAN_POINT('',(1.51732095912472,0.170999999999999,4.699260E-016));
#192=VERTEX_POINT('',#191);
#193=CARTESIAN_POINT('',(1.517320959124715,0.170999999999999,0.25));
#194=VERTEX_POINT('',#193);
#195=CARTESIAN_POINT('',(1.517320959124718,0.170999999999999,4.718448E-016));
#196=DIRECTION('',(0.0,0.0,1.0));
#197=VECTOR('',#196,0.25);
#198=LINE('',#195,#197);
#199=EDGE_CURVE('',#192,#194,#198,.T.);
#200=ORIENTED_EDGE('',*,*,#199,.F.);
#201=CARTESIAN_POINT('',(1.8,0.170999999999999,4.553415E-016));
#202=DIRECTION('',(-1.0,0.0,0.0));
#203=VECTOR('',#202,0.28267904087528);
#204=LINE('',#201,#203);
#205=EDGE_CURVE('',#159,#192,#204,.T.);
#206=ORIENTED_EDGE('',*,*,#205,.F.);
#207=ORIENTED_EDGE('',*,*,#181,.F.);
#208=CARTESIAN_POINT('',(1.517320959124715,0.170999999999999,0.25));
#209=DIRECTION('',(1.0,0.0,0.0));
#210=VECTOR('',#209,0.282679040875284);
#211=LINE('',#208,#210);
#212=EDGE_CURVE('',#194,#169,#211,.T.);
#213=ORIENTED_EDGE('',*,*,#212,.F.);
#214=EDGE_LOOP('',(#200,#206,#207,#213));
#215=FACE_OUTER_BOUND('',#214,.T.);
#216=ADVANCED_FACE('',(#215),#190,.F.);
#217=CARTESIAN_POINT('',(0.749999999999999,-4.440892E-016,1.377682E-016));
#218=DIRECTION('',(0.0,0.0,-1.0));
#219=DIRECTION('',(1.0,0.0,0.0));
#220=AXIS2_PLACEMENT_3D('',#217,#218,#219);
#221=PLANE('',#220);
#222=CARTESIAN_POINT('',(2.25,-0.745000000000001,-1.962078E-016));
#223=VERTEX_POINT('',#222);
#224=CARTESIAN_POINT('',(2.25,0.744999999999999,1.022817E-015));
#225=VERTEX_POINT('',#224);
#226=CARTESIAN_POINT('',(2.25,-0.745000000000001,-1.962078E-016));
#227=DIRECTION('',(0.0,1.0,0.0));
#228=VECTOR('',#227,1.49);
#229=LINE('',#226,#228);
#230=EDGE_CURVE('',#223,#225,#229,.T.);
#231=ORIENTED_EDGE('',*,*,#230,.F.);
#232=CARTESIAN_POINT('',(-0.750000000000002,-0.744999999999999,-7.472807E-016));
#233=VERTEX_POINT('',#232);
#234=CARTESIAN_POINT('',(-0.750000000000002,-0.744999999999999,-7.472807E-016));
#235=DIRECTION('',(1.0,0.0,0.0));
#236=VECTOR('',#235,3.000000000000002);
#237=LINE('',#234,#236);
#238=EDGE_CURVE('',#233,#223,#237,.T.);
#239=ORIENTED_EDGE('',*,*,#238,.F.);
#240=CARTESIAN_POINT('',(-0.75,0.745,4.717442E-016));
#241=VERTEX_POINT('',#240);
#242=CARTESIAN_POINT('',(-0.75,0.745,4.717442E-016));
#243=DIRECTION('',(0.0,-1.0,0.0));
#244=VECTOR('',#243,1.489999999999999);
#245=LINE('',#242,#244);
#246=EDGE_CURVE('',#241,#233,#245,.T.);
#247=ORIENTED_EDGE('',*,*,#246,.F.);
#248=CARTESIAN_POINT('',(2.25,0.744999999999999,1.022817E-015));
#249=DIRECTION('',(-1.0,0.0,0.0));
#250=VECTOR('',#249,3.0);
#251=LINE('',#248,#250);
#252=EDGE_CURVE('',#225,#241,#251,.T.);
#253=ORIENTED_EDGE('',*,*,#252,.F.);
#254=EDGE_LOOP('',(#231,#239,#247,#253));
#255=FACE_OUTER_BOUND('',#254,.T.);
#256=ORIENTED_EDGE('',*,*,#108,.T.);
#257=CARTESIAN_POINT('',(0.0,0.0,0.0));
#258=DIRECTION('',(0.0,0.0,1.0));
#259=DIRECTION('',(-1.0,0.0,0.0));
#260=AXIS2_PLACEMENT_3D('',#257,#258,#259);
#261=CIRCLE('',#260,0.171875);
#262=EDGE_CURVE('',#96,#79,#261,.T.);
#263=ORIENTED_EDGE('',*,*,#262,.T.);
#264=EDGE_LOOP('',(#256,#263));
#265=FACE_BOUND('',#264,.T.);
#266=ORIENTED_EDGE('',*,*,#148,.T.);
#267=ORIENTED_EDGE('',*,*,#165,.T.);
#268=ORIENTED_EDGE('',*,*,#205,.T.);
#269=CARTESIAN_POINT('',(1.5,-4.440892E-016,2.755364E-016));
#270=DIRECTION('',(0.0,0.0,1.0));
#271=DIRECTION('',(-1.0,0.0,0.0));
#272=AXIS2_PLACEMENT_3D('',#269,#270,#271);
#273=CIRCLE('',#272,0.171875);
#274=EDGE_CURVE('',#192,#121,#273,.T.);
#275=ORIENTED_EDGE('',*,*,#274,.T.);
#276=EDGE_LOOP('',(#266,#267,#268,#275));
#277=FACE_BOUND('',#276,.T.);
#278=ADVANCED_FACE('',(#255,#265,#277),#221,.T.);
#279=CARTESIAN_POINT('',(1.5,-4.440892E-016,0.125));
#280=DIRECTION('',(1.836910E-016,1.037283E-015,-1.0));
#281=DIRECTION('',(-1.0,0.0,0.0));
#282=AXIS2_PLACEMENT_3D('',#279,#280,#281);
#283=CYLINDRICAL_SURFACE('',#282,0.171875);
#284=ORIENTED_EDGE('',*,*,#126,.T.);
#285=ORIENTED_EDGE('',*,*,#274,.F.);
#286=ORIENTED_EDGE('',*,*,#199,.T.);
#287=CARTESIAN_POINT('',(1.5,-8.881784E-016,0.25));
#288=DIRECTION('',(0.0,0.0,-1.0));
#289=DIRECTION('',(-1.0,0.0,0.0));
#290=AXIS2_PLACEMENT_3D('',#287,#288,#289);
#291=CIRCLE('',#290,0.171875);
#292=EDGE_CURVE('',#119,#194,#291,.T.);
#293=ORIENTED_EDGE('',*,*,#292,.F.);
#294=EDGE_LOOP('',(#284,#285,#286,#293));
#295=FACE_OUTER_BOUND('',#294,.T.);
#296=ADVANCED_FACE('',(#295),#283,.F.);
#297=CARTESIAN_POINT('',(0.0,0.0,0.125));
#298=DIRECTION('',(1.836910E-016,1.037283E-015,-1.0));
#299=DIRECTION('',(-1.0,0.0,0.0));
#300=AXIS2_PLACEMENT_3D('',#297,#298,#299);
#301=CYLINDRICAL_SURFACE('',#300,0.171875);
#302=ORIENTED_EDGE('',*,*,#84,.T.);
#303=ORIENTED_EDGE('',*,*,#262,.F.);
#304=ORIENTED_EDGE('',*,*,#101,.F.);
#305=CARTESIAN_POINT('',(0.0,-8.881784E-016,0.25));
#306=DIRECTION('',(0.0,0.0,-1.0));
#307=DIRECTION('',(-1.0,0.0,0.0));
#308=AXIS2_PLACEMENT_3D('',#305,#306,#307);
#309=CIRCLE('',#308,0.171875);
#310=EDGE_CURVE('',#77,#87,#309,.T.);
#311=ORIENTED_EDGE('',*,*,#310,.F.);
#312=EDGE_LOOP('',(#302,#303,#304,#311));
#313=FACE_OUTER_BOUND('',#312,.T.);
#314=ADVANCED_FACE('',(#313),#301,.F.);
#315=CARTESIAN_POINT('',(2.25,-0.745000000000001,-1.962078E-016));
#316=DIRECTION('',(0.0,-1.0,0.0));
#317=DIRECTION('',(-1.0,0.0,0.0));
#318=AXIS2_PLACEMENT_3D('',#315,#316,#317);
#319=PLANE('',#318);
#320=CARTESIAN_POINT('',(2.25,-0.745000000000001,0.25));
#321=VERTEX_POINT('',#320);
#322=CARTESIAN_POINT('',(-0.750000000000002,-0.744999999999999,0.249999999999999));
#323=VERTEX_POINT('',#322);
#324=CARTESIAN_POINT('',(2.25,-0.745000000000001,0.25));
#325=DIRECTION('',(-1.0,0.0,0.0));
#326=VECTOR('',#325,3.000000000000002);
#327=LINE('',#324,#326);
#328=EDGE_CURVE('',#321,#323,#327,.T.);
#329=ORIENTED_EDGE('',*,*,#328,.T.);
#330=CARTESIAN_POINT('',(-0.750000000000002,-0.744999999999999,-7.472807E-016));
#331=DIRECTION('',(0.0,0.0,1.0));
#332=VECTOR('',#331,0.25);
#333=LINE('',#330,#332);
#334=EDGE_CURVE('',#233,#323,#333,.T.);
#335=ORIENTED_EDGE('',*,*,#334,.F.);
#336=ORIENTED_EDGE('',*,*,#238,.T.);
#337=CARTESIAN_POINT('',(2.25,-0.745000000000001,-1.962078E-016));
#338=DIRECTION('',(0.0,0.0,1.0));
#339=VECTOR('',#338,0.25);
#340=LINE('',#337,#339);
#341=EDGE_CURVE('',#223,#321,#340,.T.);
#342=ORIENTED_EDGE('',*,*,#341,.T.);
#343=EDGE_LOOP('',(#329,#335,#336,#342));
#344=FACE_OUTER_BOUND('',#343,.T.);
#345=ADVANCED_FACE('',(#344),#319,.T.);
#346=CARTESIAN_POINT('',(-0.750000000000002,-0.744999999999999,-7.472807E-016));
#347=DIRECTION('',(-1.0,0.0,0.0));
#348=DIRECTION('',(0.0,0.0,-1.0));
#349=AXIS2_PLACEMENT_3D('',#346,#347,#348);
#350=PLANE('',#349);
#351=CARTESIAN_POINT('',(-0.75,0.745,0.25));
#352=VERTEX_POINT('',#351);
#353=CARTESIAN_POINT('',(-0.750000000000002,-0.744999999999999,0.249999999999999));
#354=DIRECTION('',(0.0,1.0,0.0));
#355=VECTOR('',#354,1.489999999999999);
#356=LINE('',#353,#355);
#357=EDGE_CURVE('',#323,#352,#356,.T.);
#358=ORIENTED_EDGE('',*,*,#357,.T.);
#359=CARTESIAN_POINT('',(-0.75,0.745,4.717442E-016));
#360=DIRECTION('',(0.0,0.0,1.0));
#361=VECTOR('',#360,0.249999999999999);
#362=LINE('',#359,#361);
#363=EDGE_CURVE('',#241,#352,#362,.T.);
#364=ORIENTED_EDGE('',*,*,#363,.F.);
#365=ORIENTED_EDGE('',*,*,#246,.T.);
#366=ORIENTED_EDGE('',*,*,#334,.T.);
#367=EDGE_LOOP('',(#358,#364,#365,#366));
#368=FACE_OUTER_BOUND('',#367,.T.);
#369=ADVANCED_FACE('',(#368),#350,.T.);
#370=CARTESIAN_POINT('',(-0.75,0.745,4.717442E-016));
#371=DIRECTION('',(0.0,1.0,0.0));
#372=DIRECTION('',(1.0,0.0,0.0));
#373=AXIS2_PLACEMENT_3D('',#370,#371,#372);
#374=PLANE('',#373);
#375=CARTESIAN_POINT('',(2.25,0.744999999999999,0.25));
#376=VERTEX_POINT('',#375);
#377=CARTESIAN_POINT('',(-0.75,0.744999999999999,0.25));
#378=DIRECTION('',(1.0,0.0,0.0));
#379=VECTOR('',#378,3.0);
#380=LINE('',#377,#379);
#381=EDGE_CURVE('',#352,#376,#380,.T.);
#382=ORIENTED_EDGE('',*,*,#381,.T.);
#383=CARTESIAN_POINT('',(2.25,0.744999999999999,1.022817E-015));
#384=DIRECTION('',(0.0,0.0,1.0));
#385=VECTOR('',#384,0.249999999999999);
#386=LINE('',#383,#385);
#387=EDGE_CURVE('',#225,#376,#386,.T.);
#388=ORIENTED_EDGE('',*,*,#387,.F.);
#389=ORIENTED_EDGE('',*,*,#252,.T.);
#390=ORIENTED_EDGE('',*,*,#363,.T.);
#391=EDGE_LOOP('',(#382,#388,#389,#390));
#392=FACE_OUTER_BOUND('',#391,.T.);
#393=ADVANCED_FACE('',(#392),#374,.T.);
#394=CARTESIAN_POINT('',(2.25,0.744999999999999,1.022817E-015));
#395=DIRECTION('',(1.0,0.0,0.0));
#396=DIRECTION('',(0.0,0.0,1.0));
#397=AXIS2_PLACEMENT_3D('',#394,#395,#396);
#398=PLANE('',#397);
#399=CARTESIAN_POINT('',(2.25,0.744999999999999,0.250000000000001));
#400=DIRECTION('',(0.0,-1.0,0.0));
#401=VECTOR('',#400,1.49);
#402=LINE('',#399,#401);
#403=EDGE_CURVE('',#376,#321,#402,.T.);
#404=ORIENTED_EDGE('',*,*,#403,.T.);
#405=ORIENTED_EDGE('',*,*,#341,.F.);
#406=ORIENTED_EDGE('',*,*,#230,.T.);
#407=ORIENTED_EDGE('',*,*,#387,.T.);
#408=EDGE_LOOP('',(#404,#405,#406,#407));
#409=FACE_OUTER_BOUND('',#408,.T.);
#410=ADVANCED_FACE('',(#409),#398,.T.);
#411=CARTESIAN_POINT('',(2.25,-0.745000000000001,0.25));
#412=DIRECTION('',(0.0,0.0,-1.0));
#413=DIRECTION('',(1.0,0.0,0.0));
#414=AXIS2_PLACEMENT_3D('',#411,#412,#413);
#415=PLANE('',#414);
#416=ORIENTED_EDGE('',*,*,#328,.F.);
#417=ORIENTED_EDGE('',*,*,#403,.F.);
#418=ORIENTED_EDGE('',*,*,#381,.F.);
#419=ORIENTED_EDGE('',*,*,#357,.F.);
#420=EDGE_LOOP('',(#416,#417,#418,#419));
#421=FACE_OUTER_BOUND('',#420,.T.);
#422=ORIENTED_EDGE('',*,*,#134,.T.);
#423=ORIENTED_EDGE('',*,*,#292,.T.);
#424=ORIENTED_EDGE('',*,*,#212,.T.);
#425=ORIENTED_EDGE('',*,*,#175,.T.);
#426=EDGE_LOOP('',(#422,#423,#424,#425));
#427=FACE_BOUND('',#426,.T.);
#428=ORIENTED_EDGE('',*,*,#310,.T.);
#429=ORIENTED_EDGE('',*,*,#93,.T.);
#430=EDGE_LOOP('',(#428,#429));
#431=FACE_BOUND('',#430,.T.);
#432=ADVANCED_FACE('',(#421,#427,#431),#415,.F.);
#433=CLOSED_SHELL('',(#112,#152,#185,#216,#278,#296,#314,#345,#369,#393,#410,#432));
#434=MANIFOLD_SOLID_BREP('2D',#433);
#435=DRAUGHTING_PRE_DEFINED_COLOUR('white');
#436=SURFACE_STYLE_USAGE(.BOTH.,#437);
#437=SURFACE_SIDE_STYLE('NONE',(#438));
#438=SURFACE_STYLE_FILL_AREA(#439);
#439=FILL_AREA_STYLE('NONE',(#440));
#440=FILL_AREA_STYLE_COLOUR('NONE',#435);
#441=PRESENTATION_STYLE_ASSIGNMENT((#436));
#442=STYLED_ITEM('NONE',(#441),#434);
#443=MECHANICAL_DESIGN_GEOMETRIC_PRESENTATION_REPRESENTATION('NONE',(#442),#34);
#444=PRESENTATION_LAYER_ASSIGNMENT('15jp4501','None',(#434));
#445=ADVANCED_BREP_SHAPE_REPRESENTATION('ABSR1',(#434),#34);
#446=SHAPE_REPRESENTATION_RELATIONSHIP('SRRPL1','',#445,#68);
ENDSEC;
END-ISO-10303-21;
