ISO-10303-21;
HEADER;
/****************************************************************
 * Generated by software with PDElib inside                    *
 * PDElib Version v51a, created Fri 09/10/2010                  *
 * ITI Transcendata (http://www.transcendata.com/)              *
 ****************************************************************/
FILE_DESCRIPTION((''),'2;1');
FILE_NAME('13JP6001.stp','2015-07-15T09:17:12',(''),(''),'Mechanical Desktop 2011','Mechanical Desktop 2011',', , ');
FILE_SCHEMA(('AUTOMOTIVE_DESIGN { 1 2 10303 214 1 1 1 1 }'));
ENDSEC;
DATA;
#10=(NAMED_UNIT(*)PLANE_ANGLE_UNIT()SI_UNIT($,.RADIAN.));
#11=DIMENSIONAL_EXPONENTS(0.0,0.0,0.0,0.0,0.0,0.0,0.0);
#12=PLANE_ANGLE_MEASURE_WITH_UNIT(PLANE_ANGLE_MEASURE(0.0174532925),#10);
#16=(CONVERSION_BASED_UNIT('DEGREE',#12)NAMED_UNIT(#11)PLANE_ANGLE_UNIT());
#20=(NAMED_UNIT(*)SI_UNIT($,.STERADIAN.)SOLID_ANGLE_UNIT());
#24=(LENGTH_UNIT()NAMED_UNIT(*)SI_UNIT(.CENTI.,.METRE.));
#25=DIMENSIONAL_EXPONENTS(1.0,0.0,0.0,0.0,0.0,0.0,0.0);
#26=LENGTH_MEASURE_WITH_UNIT(LENGTH_MEASURE(2.54),#24);
#30=(CONVERSION_BASED_UNIT('INCH',#26)LENGTH_UNIT()NAMED_UNIT(#25));
#32=UNCERTAINTY_MEASURE_WITH_UNIT(LENGTH_MEASURE(0.000001),#30,'DISTANCE_ACCURACY_VALUE','');
#34=(GEOMETRIC_REPRESENTATION_CONTEXT(3)GLOBAL_UNCERTAINTY_ASSIGNED_CONTEXT((#32))GLOBAL_UNIT_ASSIGNED_CONTEXT((#16,#20,#30))REPRESENTATION_CONTEXT('','3D'));
#35=APPLICATION_CONTEXT('automotive design');
#36=APPLICATION_PROTOCOL_DEFINITION('INTERNATIONAL_STANDARD','automotive_design',1998,#35);
#37=PRODUCT_CONTEXT('3D Mechanical Parts',#35,'mechanical');
#38=PRODUCT('Product','Product','',(#37));
#39=PRODUCT_RELATED_PRODUCT_CATEGORY('part',$,(#38));
#40=PRODUCT_CATEGORY('part',$);
#41=PERSON('1','Design','Joe',$,$,$);
#42=ORGANIZATION($,'None','None');
#43=PERSON_AND_ORGANIZATION(#41,#42);
#44=PERSON_AND_ORGANIZATION_ROLE('design_owner');
#45=APPLIED_PERSON_AND_ORGANIZATION_ASSIGNMENT(#43,#44,(#38));
#46=PRODUCT_DEFINITION_FORMATION_WITH_SPECIFIED_SOURCE('None','',#38,.BOUGHT.);
#47=PERSON('2','Creator','Joe',$,$,$);
#48=ORGANIZATION($,'None','None');
#49=PERSON_AND_ORGANIZATION(#47,#48);
#50=PERSON_AND_ORGANIZATION_ROLE('creator');
#51=APPLIED_PERSON_AND_ORGANIZATION_ASSIGNMENT(#49,#50,(#46));
#52=PERSON('3','Supplier','Joe',$,$,$);
#53=ORGANIZATION($,'None','None');
#54=PERSON_AND_ORGANIZATION(#52,#53);
#55=PERSON_AND_ORGANIZATION_ROLE('design_supplier');
#56=APPLIED_PERSON_AND_ORGANIZATION_ASSIGNMENT(#54,#55,(#46));
#57=PRODUCT_DEFINITION_CONTEXT('part definition',#35,'design');
#58=PRODUCT_DEFINITION('None','',#46,#57);
#59=PERSON('4','Creator','Joe',$,$,$);
#60=ORGANIZATION($,'None','None');
#61=PERSON_AND_ORGANIZATION(#59,#60);
#62=PERSON_AND_ORGANIZATION_ROLE('creator');
#63=APPLIED_PERSON_AND_ORGANIZATION_ASSIGNMENT(#61,#62,(#58));
#64=CARTESIAN_POINT('NONE',(0.0,0.0,0.0));
#65=DIRECTION('NONE',(0.0,0.0,1.0));
#66=DIRECTION('NONE',(1.0,0.0,0.0));
#67=AXIS2_PLACEMENT_3D('NONE',#64,#65,#66);
#68=SHAPE_REPRESENTATION('SR1',(#67),#34);
#69=PRODUCT_DEFINITION_SHAPE('PDS1','Test Part',#58);
#70=SHAPE_DEFINITION_REPRESENTATION(#69,#68);
#71=CARTESIAN_POINT('',(0.0,0.0,0.0));
#72=DIRECTION('',(0.0,0.0,1.0));
#73=DIRECTION('',(1.0,0.0,0.0));
#74=AXIS2_PLACEMENT_3D('',#71,#72,#73);
#75=CYLINDRICAL_SURFACE('',#74,0.171);
#76=CARTESIAN_POINT('',(0.171,0.0,0.0));
#77=VERTEX_POINT('',#76);
#78=CARTESIAN_POINT('',(0.171,0.0,0.25));
#79=VERTEX_POINT('',#78);
#80=CARTESIAN_POINT('',(0.171,0.0,0.0));
#81=DIRECTION('',(0.0,0.0,1.0));
#82=VECTOR('',#81,0.25);
#83=LINE('',#80,#82);
#84=EDGE_CURVE('',#77,#79,#83,.T.);
#85=ORIENTED_EDGE('',*,*,#84,.F.);
#86=CARTESIAN_POINT('',(-0.171,-2.094146E-017,0.0));
#87=VERTEX_POINT('',#86);
#88=CARTESIAN_POINT('',(0.0,0.0,0.0));
#89=DIRECTION('',(0.0,0.0,1.0));
#90=DIRECTION('',(1.0,0.0,0.0));
#91=AXIS2_PLACEMENT_3D('',#88,#89,#90);
#92=CIRCLE('',#91,0.171);
#93=EDGE_CURVE('',#87,#77,#92,.T.);
#94=ORIENTED_EDGE('',*,*,#93,.F.);
#95=CARTESIAN_POINT('',(-0.171,-2.094146E-017,0.25));
#96=VERTEX_POINT('',#95);
#97=CARTESIAN_POINT('',(-0.171,-2.094146E-017,0.0));
#98=DIRECTION('',(0.0,0.0,1.0));
#99=VECTOR('',#98,0.25);
#100=LINE('',#97,#99);
#101=EDGE_CURVE('',#87,#96,#100,.T.);
#102=ORIENTED_EDGE('',*,*,#101,.T.);
#103=CARTESIAN_POINT('',(0.0,0.0,0.25));
#104=DIRECTION('',(0.0,0.0,-1.0));
#105=DIRECTION('',(1.0,0.0,0.0));
#106=AXIS2_PLACEMENT_3D('',#103,#104,#105);
#107=CIRCLE('',#106,0.171);
#108=EDGE_CURVE('',#79,#96,#107,.T.);
#109=ORIENTED_EDGE('',*,*,#108,.F.);
#110=EDGE_LOOP('',(#85,#94,#102,#109));
#111=FACE_OUTER_BOUND('',#110,.T.);
#112=ADVANCED_FACE('',(#111),#75,.F.);
#113=CARTESIAN_POINT('',(0.0,2.75,0.0));
#114=DIRECTION('',(0.0,0.0,1.0));
#115=DIRECTION('',(1.0,0.0,0.0));
#116=AXIS2_PLACEMENT_3D('',#113,#114,#115);
#117=CYLINDRICAL_SURFACE('',#116,0.14);
#118=CARTESIAN_POINT('',(0.14,2.75,0.0));
#119=VERTEX_POINT('',#118);
#120=CARTESIAN_POINT('',(0.14,2.75,0.25));
#121=VERTEX_POINT('',#120);
#122=CARTESIAN_POINT('',(0.14,2.75,0.0));
#123=DIRECTION('',(0.0,0.0,1.0));
#124=VECTOR('',#123,0.25);
#125=LINE('',#122,#124);
#126=EDGE_CURVE('',#119,#121,#125,.T.);
#127=ORIENTED_EDGE('',*,*,#126,.F.);
#128=CARTESIAN_POINT('',(-0.14,2.75,0.0));
#129=VERTEX_POINT('',#128);
#130=CARTESIAN_POINT('',(0.0,2.75,0.0));
#131=DIRECTION('',(0.0,0.0,1.0));
#132=DIRECTION('',(1.0,0.0,0.0));
#133=AXIS2_PLACEMENT_3D('',#130,#131,#132);
#134=CIRCLE('',#133,0.14);
#135=EDGE_CURVE('',#129,#119,#134,.T.);
#136=ORIENTED_EDGE('',*,*,#135,.F.);
#137=CARTESIAN_POINT('',(-0.14,2.75,0.25));
#138=VERTEX_POINT('',#137);
#139=CARTESIAN_POINT('',(-0.14,2.75,0.0));
#140=DIRECTION('',(0.0,0.0,1.0));
#141=VECTOR('',#140,0.25);
#142=LINE('',#139,#141);
#143=EDGE_CURVE('',#129,#138,#142,.T.);
#144=ORIENTED_EDGE('',*,*,#143,.T.);
#145=CARTESIAN_POINT('',(0.0,2.75,0.25));
#146=DIRECTION('',(0.0,0.0,-1.0));
#147=DIRECTION('',(1.0,0.0,0.0));
#148=AXIS2_PLACEMENT_3D('',#145,#146,#147);
#149=CIRCLE('',#148,0.14);
#150=EDGE_CURVE('',#121,#138,#149,.T.);
#151=ORIENTED_EDGE('',*,*,#150,.F.);
#152=EDGE_LOOP('',(#127,#136,#144,#151));
#153=FACE_OUTER_BOUND('',#152,.T.);
#154=ADVANCED_FACE('',(#153),#117,.F.);
#155=CARTESIAN_POINT('',(0.0,1.5,0.0));
#156=DIRECTION('',(0.0,0.0,1.0));
#157=DIRECTION('',(1.0,0.0,0.0));
#158=AXIS2_PLACEMENT_3D('',#155,#156,#157);
#159=CYLINDRICAL_SURFACE('',#158,0.14);
#160=CARTESIAN_POINT('',(0.14,1.5,0.0));
#161=VERTEX_POINT('',#160);
#162=CARTESIAN_POINT('',(0.14,1.5,0.25));
#163=VERTEX_POINT('',#162);
#164=CARTESIAN_POINT('',(0.14,1.5,0.0));
#165=DIRECTION('',(0.0,0.0,1.0));
#166=VECTOR('',#165,0.25);
#167=LINE('',#164,#166);
#168=EDGE_CURVE('',#161,#163,#167,.T.);
#169=ORIENTED_EDGE('',*,*,#168,.F.);
#170=CARTESIAN_POINT('',(-0.14,1.5,0.0));
#171=VERTEX_POINT('',#170);
#172=CARTESIAN_POINT('',(0.0,1.5,0.0));
#173=DIRECTION('',(0.0,0.0,1.0));
#174=DIRECTION('',(1.0,0.0,0.0));
#175=AXIS2_PLACEMENT_3D('',#172,#173,#174);
#176=CIRCLE('',#175,0.14);
#177=EDGE_CURVE('',#171,#161,#176,.T.);
#178=ORIENTED_EDGE('',*,*,#177,.F.);
#179=CARTESIAN_POINT('',(-0.14,1.5,0.25));
#180=VERTEX_POINT('',#179);
#181=CARTESIAN_POINT('',(-0.14,1.5,0.0));
#182=DIRECTION('',(0.0,0.0,1.0));
#183=VECTOR('',#182,0.25);
#184=LINE('',#181,#183);
#185=EDGE_CURVE('',#171,#180,#184,.T.);
#186=ORIENTED_EDGE('',*,*,#185,.T.);
#187=CARTESIAN_POINT('',(0.0,1.5,0.25));
#188=DIRECTION('',(0.0,0.0,-1.0));
#189=DIRECTION('',(1.0,0.0,0.0));
#190=AXIS2_PLACEMENT_3D('',#187,#188,#189);
#191=CIRCLE('',#190,0.14);
#192=EDGE_CURVE('',#163,#180,#191,.T.);
#193=ORIENTED_EDGE('',*,*,#192,.F.);
#194=EDGE_LOOP('',(#169,#178,#186,#193));
#195=FACE_OUTER_BOUND('',#194,.T.);
#196=ADVANCED_FACE('',(#195),#159,.F.);
#197=CARTESIAN_POINT('',(0.0,1.5,0.0));
#198=DIRECTION('',(0.0,0.0,1.0));
#199=DIRECTION('',(1.0,0.0,0.0));
#200=AXIS2_PLACEMENT_3D('',#197,#198,#199);
#201=CYLINDRICAL_SURFACE('',#200,0.14);
#202=ORIENTED_EDGE('',*,*,#168,.T.);
#203=CARTESIAN_POINT('',(0.0,1.5,0.25));
#204=DIRECTION('',(0.0,0.0,-1.0));
#205=DIRECTION('',(1.0,0.0,0.0));
#206=AXIS2_PLACEMENT_3D('',#203,#204,#205);
#207=CIRCLE('',#206,0.14);
#208=EDGE_CURVE('',#180,#163,#207,.T.);
#209=ORIENTED_EDGE('',*,*,#208,.F.);
#210=ORIENTED_EDGE('',*,*,#185,.F.);
#211=CARTESIAN_POINT('',(0.0,1.5,0.0));
#212=DIRECTION('',(0.0,0.0,1.0));
#213=DIRECTION('',(1.0,0.0,0.0));
#214=AXIS2_PLACEMENT_3D('',#211,#212,#213);
#215=CIRCLE('',#214,0.14);
#216=EDGE_CURVE('',#161,#171,#215,.T.);
#217=ORIENTED_EDGE('',*,*,#216,.F.);
#218=EDGE_LOOP('',(#202,#209,#210,#217));
#219=FACE_OUTER_BOUND('',#218,.T.);
#220=ADVANCED_FACE('',(#219),#201,.F.);
#221=CARTESIAN_POINT('',(0.0,2.75,0.0));
#222=DIRECTION('',(0.0,0.0,1.0));
#223=DIRECTION('',(1.0,0.0,0.0));
#224=AXIS2_PLACEMENT_3D('',#221,#222,#223);
#225=CYLINDRICAL_SURFACE('',#224,0.14);
#226=ORIENTED_EDGE('',*,*,#126,.T.);
#227=CARTESIAN_POINT('',(0.0,2.75,0.25));
#228=DIRECTION('',(0.0,0.0,-1.0));
#229=DIRECTION('',(1.0,0.0,0.0));
#230=AXIS2_PLACEMENT_3D('',#227,#228,#229);
#231=CIRCLE('',#230,0.14);
#232=EDGE_CURVE('',#138,#121,#231,.T.);
#233=ORIENTED_EDGE('',*,*,#232,.F.);
#234=ORIENTED_EDGE('',*,*,#143,.F.);
#235=CARTESIAN_POINT('',(0.0,2.75,0.0));
#236=DIRECTION('',(0.0,0.0,1.0));
#237=DIRECTION('',(1.0,0.0,0.0));
#238=AXIS2_PLACEMENT_3D('',#235,#236,#237);
#239=CIRCLE('',#238,0.14);
#240=EDGE_CURVE('',#119,#129,#239,.T.);
#241=ORIENTED_EDGE('',*,*,#240,.F.);
#242=EDGE_LOOP('',(#226,#233,#234,#241));
#243=FACE_OUTER_BOUND('',#242,.T.);
#244=ADVANCED_FACE('',(#243),#225,.F.);
#245=CARTESIAN_POINT('',(0.0,0.0,0.0));
#246=DIRECTION('',(0.0,0.0,1.0));
#247=DIRECTION('',(1.0,0.0,0.0));
#248=AXIS2_PLACEMENT_3D('',#245,#246,#247);
#249=CYLINDRICAL_SURFACE('',#248,0.171);
#250=ORIENTED_EDGE('',*,*,#84,.T.);
#251=CARTESIAN_POINT('',(0.0,0.0,0.25));
#252=DIRECTION('',(0.0,0.0,-1.0));
#253=DIRECTION('',(1.0,0.0,0.0));
#254=AXIS2_PLACEMENT_3D('',#251,#252,#253);
#255=CIRCLE('',#254,0.171);
#256=EDGE_CURVE('',#96,#79,#255,.T.);
#257=ORIENTED_EDGE('',*,*,#256,.F.);
#258=ORIENTED_EDGE('',*,*,#101,.F.);
#259=CARTESIAN_POINT('',(0.0,0.0,0.0));
#260=DIRECTION('',(0.0,0.0,1.0));
#261=DIRECTION('',(1.0,0.0,0.0));
#262=AXIS2_PLACEMENT_3D('',#259,#260,#261);
#263=CIRCLE('',#262,0.171);
#264=EDGE_CURVE('',#77,#87,#263,.T.);
#265=ORIENTED_EDGE('',*,*,#264,.F.);
#266=EDGE_LOOP('',(#250,#257,#258,#265));
#267=FACE_OUTER_BOUND('',#266,.T.);
#268=ADVANCED_FACE('',(#267),#249,.F.);
#269=CARTESIAN_POINT('',(-0.5,-0.75,0.0));
#270=DIRECTION('',(-1.0,0.0,0.0));
#271=DIRECTION('',(0.0,0.0,1.0));
#272=AXIS2_PLACEMENT_3D('',#269,#270,#271);
#273=PLANE('',#272);
#274=CARTESIAN_POINT('',(-0.5,-0.75,0.25));
#275=VERTEX_POINT('',#274);
#276=CARTESIAN_POINT('',(-0.5,3.25,0.25));
#277=VERTEX_POINT('',#276);
#278=CARTESIAN_POINT('',(-0.5,-0.75,0.25));
#279=DIRECTION('',(0.0,1.0,0.0));
#280=VECTOR('',#279,4.0);
#281=LINE('',#278,#280);
#282=EDGE_CURVE('',#275,#277,#281,.T.);
#283=ORIENTED_EDGE('',*,*,#282,.T.);
#284=CARTESIAN_POINT('',(-0.5,3.25,0.0));
#285=VERTEX_POINT('',#284);
#286=CARTESIAN_POINT('',(-0.5,3.25,0.0));
#287=DIRECTION('',(0.0,0.0,1.0));
#288=VECTOR('',#287,0.25);
#289=LINE('',#286,#288);
#290=EDGE_CURVE('',#285,#277,#289,.T.);
#291=ORIENTED_EDGE('',*,*,#290,.F.);
#292=CARTESIAN_POINT('',(-0.5,-0.75,0.0));
#293=VERTEX_POINT('',#292);
#294=CARTESIAN_POINT('',(-0.5,3.25,0.0));
#295=DIRECTION('',(0.0,-1.0,0.0));
#296=VECTOR('',#295,4.0);
#297=LINE('',#294,#296);
#298=EDGE_CURVE('',#285,#293,#297,.T.);
#299=ORIENTED_EDGE('',*,*,#298,.T.);
#300=CARTESIAN_POINT('',(-0.5,-0.75,0.0));
#301=DIRECTION('',(0.0,0.0,1.0));
#302=VECTOR('',#301,0.25);
#303=LINE('',#300,#302);
#304=EDGE_CURVE('',#293,#275,#303,.T.);
#305=ORIENTED_EDGE('',*,*,#304,.T.);
#306=EDGE_LOOP('',(#283,#291,#299,#305));
#307=FACE_OUTER_BOUND('',#306,.T.);
#308=ADVANCED_FACE('',(#307),#273,.T.);
#309=CARTESIAN_POINT('',(-0.5,3.25,0.0));
#310=DIRECTION('',(0.0,1.0,0.0));
#311=DIRECTION('',(0.0,0.0,1.0));
#312=AXIS2_PLACEMENT_3D('',#309,#310,#311);
#313=PLANE('',#312);
#314=CARTESIAN_POINT('',(0.5,3.25,0.25));
#315=VERTEX_POINT('',#314);
#316=CARTESIAN_POINT('',(-0.5,3.25,0.25));
#317=DIRECTION('',(1.0,0.0,0.0));
#318=VECTOR('',#317,1.0);
#319=LINE('',#316,#318);
#320=EDGE_CURVE('',#277,#315,#319,.T.);
#321=ORIENTED_EDGE('',*,*,#320,.T.);
#322=CARTESIAN_POINT('',(0.5,3.25,0.0));
#323=VERTEX_POINT('',#322);
#324=CARTESIAN_POINT('',(0.5,3.25,0.0));
#325=DIRECTION('',(0.0,0.0,1.0));
#326=VECTOR('',#325,0.25);
#327=LINE('',#324,#326);
#328=EDGE_CURVE('',#323,#315,#327,.T.);
#329=ORIENTED_EDGE('',*,*,#328,.F.);
#330=CARTESIAN_POINT('',(0.5,3.25,0.0));
#331=DIRECTION('',(-1.0,0.0,0.0));
#332=VECTOR('',#331,1.0);
#333=LINE('',#330,#332);
#334=EDGE_CURVE('',#323,#285,#333,.T.);
#335=ORIENTED_EDGE('',*,*,#334,.T.);
#336=ORIENTED_EDGE('',*,*,#290,.T.);
#337=EDGE_LOOP('',(#321,#329,#335,#336));
#338=FACE_OUTER_BOUND('',#337,.T.);
#339=ADVANCED_FACE('',(#338),#313,.T.);
#340=CARTESIAN_POINT('',(0.5,3.25,0.0));
#341=DIRECTION('',(1.0,0.0,0.0));
#342=DIRECTION('',(0.0,0.0,-1.0));
#343=AXIS2_PLACEMENT_3D('',#340,#341,#342);
#344=PLANE('',#343);
#345=CARTESIAN_POINT('',(0.5,-0.75,0.25));
#346=VERTEX_POINT('',#345);
#347=CARTESIAN_POINT('',(0.5,3.25,0.25));
#348=DIRECTION('',(0.0,-1.0,0.0));
#349=VECTOR('',#348,4.0);
#350=LINE('',#347,#349);
#351=EDGE_CURVE('',#315,#346,#350,.T.);
#352=ORIENTED_EDGE('',*,*,#351,.T.);
#353=CARTESIAN_POINT('',(0.5,-0.75,0.0));
#354=VERTEX_POINT('',#353);
#355=CARTESIAN_POINT('',(0.5,-0.75,0.0));
#356=DIRECTION('',(0.0,0.0,1.0));
#357=VECTOR('',#356,0.25);
#358=LINE('',#355,#357);
#359=EDGE_CURVE('',#354,#346,#358,.T.);
#360=ORIENTED_EDGE('',*,*,#359,.F.);
#361=CARTESIAN_POINT('',(0.5,-0.75,0.0));
#362=DIRECTION('',(0.0,1.0,0.0));
#363=VECTOR('',#362,4.0);
#364=LINE('',#361,#363);
#365=EDGE_CURVE('',#354,#323,#364,.T.);
#366=ORIENTED_EDGE('',*,*,#365,.T.);
#367=ORIENTED_EDGE('',*,*,#328,.T.);
#368=EDGE_LOOP('',(#352,#360,#366,#367));
#369=FACE_OUTER_BOUND('',#368,.T.);
#370=ADVANCED_FACE('',(#369),#344,.T.);
#371=CARTESIAN_POINT('',(0.5,-0.75,0.0));
#372=DIRECTION('',(0.0,-1.0,0.0));
#373=DIRECTION('',(0.0,0.0,-1.0));
#374=AXIS2_PLACEMENT_3D('',#371,#372,#373);
#375=PLANE('',#374);
#376=CARTESIAN_POINT('',(0.5,-0.75,0.25));
#377=DIRECTION('',(-1.0,0.0,0.0));
#378=VECTOR('',#377,1.0);
#379=LINE('',#376,#378);
#380=EDGE_CURVE('',#346,#275,#379,.T.);
#381=ORIENTED_EDGE('',*,*,#380,.T.);
#382=ORIENTED_EDGE('',*,*,#304,.F.);
#383=CARTESIAN_POINT('',(-0.5,-0.75,0.0));
#384=DIRECTION('',(1.0,0.0,0.0));
#385=VECTOR('',#384,1.0);
#386=LINE('',#383,#385);
#387=EDGE_CURVE('',#293,#354,#386,.T.);
#388=ORIENTED_EDGE('',*,*,#387,.T.);
#389=ORIENTED_EDGE('',*,*,#359,.T.);
#390=EDGE_LOOP('',(#381,#382,#388,#389));
#391=FACE_OUTER_BOUND('',#390,.T.);
#392=ADVANCED_FACE('',(#391),#375,.T.);
#393=CARTESIAN_POINT('',(0.0,1.25,0.0));
#394=DIRECTION('',(0.0,0.0,-1.0));
#395=DIRECTION('',(-1.0,0.0,0.0));
#396=AXIS2_PLACEMENT_3D('',#393,#394,#395);
#397=PLANE('',#396);
#398=ORIENTED_EDGE('',*,*,#387,.F.);
#399=ORIENTED_EDGE('',*,*,#298,.F.);
#400=ORIENTED_EDGE('',*,*,#334,.F.);
#401=ORIENTED_EDGE('',*,*,#365,.F.);
#402=EDGE_LOOP('',(#398,#399,#400,#401));
#403=FACE_OUTER_BOUND('',#402,.T.);
#404=ORIENTED_EDGE('',*,*,#216,.T.);
#405=ORIENTED_EDGE('',*,*,#177,.T.);
#406=EDGE_LOOP('',(#404,#405));
#407=FACE_BOUND('',#406,.T.);
#408=ORIENTED_EDGE('',*,*,#240,.T.);
#409=ORIENTED_EDGE('',*,*,#135,.T.);
#410=EDGE_LOOP('',(#408,#409));
#411=FACE_BOUND('',#410,.T.);
#412=ORIENTED_EDGE('',*,*,#264,.T.);
#413=ORIENTED_EDGE('',*,*,#93,.T.);
#414=EDGE_LOOP('',(#412,#413));
#415=FACE_BOUND('',#414,.T.);
#416=ADVANCED_FACE('',(#403,#407,#411,#415),#397,.T.);
#417=CARTESIAN_POINT('',(-0.5,-0.75,0.25));
#418=DIRECTION('',(0.0,0.0,-1.0));
#419=DIRECTION('',(-1.0,0.0,0.0));
#420=AXIS2_PLACEMENT_3D('',#417,#418,#419);
#421=PLANE('',#420);
#422=ORIENTED_EDGE('',*,*,#282,.F.);
#423=ORIENTED_EDGE('',*,*,#380,.F.);
#424=ORIENTED_EDGE('',*,*,#351,.F.);
#425=ORIENTED_EDGE('',*,*,#320,.F.);
#426=EDGE_LOOP('',(#422,#423,#424,#425));
#427=FACE_OUTER_BOUND('',#426,.T.);
#428=ORIENTED_EDGE('',*,*,#192,.T.);
#429=ORIENTED_EDGE('',*,*,#208,.T.);
#430=EDGE_LOOP('',(#428,#429));
#431=FACE_BOUND('',#430,.T.);
#432=ORIENTED_EDGE('',*,*,#150,.T.);
#433=ORIENTED_EDGE('',*,*,#232,.T.);
#434=EDGE_LOOP('',(#432,#433));
#435=FACE_BOUND('',#434,.T.);
#436=ORIENTED_EDGE('',*,*,#108,.T.);
#437=ORIENTED_EDGE('',*,*,#256,.T.);
#438=EDGE_LOOP('',(#436,#437));
#439=FACE_BOUND('',#438,.T.);
#440=ADVANCED_FACE('',(#427,#431,#435,#439),#421,.F.);
#441=CLOSED_SHELL('',(#112,#154,#196,#220,#244,#268,#308,#339,#370,#392,#416,#440));
#442=MANIFOLD_SOLID_BREP('2B',#441);
#443=DRAUGHTING_PRE_DEFINED_COLOUR('white');
#444=SURFACE_STYLE_USAGE(.BOTH.,#445);
#445=SURFACE_SIDE_STYLE('NONE',(#446));
#446=SURFACE_STYLE_FILL_AREA(#447);
#447=FILL_AREA_STYLE('NONE',(#448));
#448=FILL_AREA_STYLE_COLOUR('NONE',#443);
#449=PRESENTATION_STYLE_ASSIGNMENT((#444));
#450=STYLED_ITEM('NONE',(#449),#442);
#451=MECHANICAL_DESIGN_GEOMETRIC_PRESENTATION_REPRESENTATION('NONE',(#450),#34);
#452=PRESENTATION_LAYER_ASSIGNMENT('New','None',(#442));
#453=ADVANCED_BREP_SHAPE_REPRESENTATION('ABSR1',(#442),#34);
#454=SHAPE_REPRESENTATION_RELATIONSHIP('SRRPL1','',#453,#68);
ENDSEC;
END-ISO-10303-21;
