ISO-10303-21;
HEADER;
/****************************************************************
 * Generated by software with PDElib inside                    *
 * PDElib Version v51a, created Fri 09/10/2010                  *
 * ITI Transcendata (http://www.transcendata.com/)              *
 ****************************************************************/
FILE_DESCRIPTION((''),'2;1');
FILE_NAME('13CB5001.stp','2015-07-15T08:14:36',(''),(''),'Mechanical Desktop 2011','Mechanical Desktop 2011',', , ');
FILE_SCHEMA(('CONFIG_CONTROL_DESIGN'));
ENDSEC;
DATA;
#10=(NAMED_UNIT(*)PLANE_ANGLE_UNIT()SI_UNIT($,.RADIAN.));
#11=DIMENSIONAL_EXPONENTS(0.0,0.0,0.0,0.0,0.0,0.0,0.0);
#12=PLANE_ANGLE_MEASURE_WITH_UNIT(PLANE_ANGLE_MEASURE(0.0174532925),#10);
#16=(CONVERSION_BASED_UNIT('DEGREE',#12)NAMED_UNIT(#11)PLANE_ANGLE_UNIT());
#20=(NAMED_UNIT(*)SI_UNIT($,.STERADIAN.)SOLID_ANGLE_UNIT());
#24=(LENGTH_UNIT()NAMED_UNIT(*)SI_UNIT(.MILLI.,.METRE.));
#26=UNCERTAINTY_MEASURE_WITH_UNIT(LENGTH_MEASURE(0.000001),#24,'DISTANCE_ACCURACY_VALUE','');
#28=(GEOMETRIC_REPRESENTATION_CONTEXT(3)GLOBAL_UNCERTAINTY_ASSIGNED_CONTEXT((#26))GLOBAL_UNIT_ASSIGNED_CONTEXT((#16,#20,#24))REPRESENTATION_CONTEXT('','3D'));
#29=APPLICATION_CONTEXT('CONFIGURATION CONTROLLED 3D DESIGNS OF MECHANICAL PARTS AND ASSEMBLIES');
#30=APPLICATION_PROTOCOL_DEFINITION('INTERNATIONAL STANDARD','config_control_design',1995,#29);
#31=MECHANICAL_CONTEXT('3D Mechanical Parts',#29,'mechanical');
#32=PRODUCT('Product','Product',' ',(#31));
#33=PRODUCT_RELATED_PRODUCT_CATEGORY('detail',$,(#32));
#34=PRODUCT_CATEGORY('part',$);
#35=PRODUCT_CATEGORY_RELATIONSHIP('None','None',#34,#33);
#36=PERSON('1','Design','Joe',$,$,$);
#37=ORGANIZATION($,'None','None');
#38=PERSON_AND_ORGANIZATION(#36,#37);
#39=PERSON_AND_ORGANIZATION_ROLE('design_owner');
#40=CC_DESIGN_PERSON_AND_ORGANIZATION_ASSIGNMENT(#38,#39,(#32));
#41=PRODUCT_DEFINITION_FORMATION_WITH_SPECIFIED_SOURCE('None','None',#32,.BOUGHT.);
#42=PERSON('2','Creator','Joe',$,$,$);
#43=ORGANIZATION($,'None','None');
#44=PERSON_AND_ORGANIZATION(#42,#43);
#45=PERSON_AND_ORGANIZATION_ROLE('creator');
#46=CC_DESIGN_PERSON_AND_ORGANIZATION_ASSIGNMENT(#44,#45,(#41));
#47=PERSON('3','Supplier','Joe',$,$,$);
#48=ORGANIZATION($,'None','None');
#49=PERSON_AND_ORGANIZATION(#47,#48);
#50=PERSON_AND_ORGANIZATION_ROLE('design_supplier');
#51=CC_DESIGN_PERSON_AND_ORGANIZATION_ASSIGNMENT(#49,#50,(#41));
#52=APPROVAL_STATUS('approved');
#53=APPROVAL(#52,'None');
#54=PERSON('4','Approver','Joe',$,$,$);
#55=ORGANIZATION($,'None','None');
#56=PERSON_AND_ORGANIZATION(#54,#55);
#57=APPROVAL_ROLE('approver');
#58=APPROVAL_PERSON_ORGANIZATION(#56,#53,#57);
#59=COORDINATED_UNIVERSAL_TIME_OFFSET(8,$,.EXACT.);
#60=CALENDAR_DATE(1996,29,5);
#61=LOCAL_TIME(12,0,0.0,#59);
#62=DATE_AND_TIME(#60,#61);
#63=APPROVAL_DATE_TIME(#62,#53);
#64=CC_DESIGN_APPROVAL(#53,(#41));
#65=SECURITY_CLASSIFICATION_LEVEL('unclassified');
#66=SECURITY_CLASSIFICATION('security','None',#65);
#67=CC_DESIGN_SECURITY_CLASSIFICATION(#66,(#41));
#68=APPROVAL_STATUS('approved');
#69=APPROVAL(#68,'None');
#70=PERSON('5','Approver','Joe',$,$,$);
#71=ORGANIZATION($,'None','None');
#72=PERSON_AND_ORGANIZATION(#70,#71);
#73=APPROVAL_ROLE('approver');
#74=APPROVAL_PERSON_ORGANIZATION(#72,#69,#73);
#75=COORDINATED_UNIVERSAL_TIME_OFFSET(8,$,.EXACT.);
#76=CALENDAR_DATE(1996,29,5);
#77=LOCAL_TIME(12,0,0.0,#75);
#78=DATE_AND_TIME(#76,#77);
#79=APPROVAL_DATE_TIME(#78,#69);
#80=CC_DESIGN_APPROVAL(#69,(#66));
#81=PERSON('6','Classifier','Joe',$,$,$);
#82=ORGANIZATION($,'None','None');
#83=PERSON_AND_ORGANIZATION(#81,#82);
#84=PERSON_AND_ORGANIZATION_ROLE('classification_officer');
#85=CC_DESIGN_PERSON_AND_ORGANIZATION_ASSIGNMENT(#83,#84,(#66));
#86=COORDINATED_UNIVERSAL_TIME_OFFSET(8,$,.EXACT.);
#87=CALENDAR_DATE(1996,29,5);
#88=LOCAL_TIME(12,0,0.0,#86);
#89=DATE_AND_TIME(#87,#88);
#90=DATE_TIME_ROLE('classification_date');
#91=CC_DESIGN_DATE_AND_TIME_ASSIGNMENT(#89,#90,(#66));
#92=DESIGN_CONTEXT('Design Context',#29,'design');
#93=PRODUCT_DEFINITION('None','None',#41,#92);
#94=PERSON('7','Creator','Joe',$,$,$);
#95=ORGANIZATION($,'None','None');
#96=PERSON_AND_ORGANIZATION(#94,#95);
#97=PERSON_AND_ORGANIZATION_ROLE('creator');
#98=CC_DESIGN_PERSON_AND_ORGANIZATION_ASSIGNMENT(#96,#97,(#93));
#99=COORDINATED_UNIVERSAL_TIME_OFFSET(8,$,.EXACT.);
#100=CALENDAR_DATE(1996,29,5);
#101=LOCAL_TIME(12,0,0.0,#99);
#102=DATE_AND_TIME(#100,#101);
#103=DATE_TIME_ROLE('creation_date');
#104=CC_DESIGN_DATE_AND_TIME_ASSIGNMENT(#102,#103,(#93));
#105=APPROVAL_STATUS('approved');
#106=APPROVAL(#105,'None');
#107=PERSON('8','Approver','Joe',$,$,$);
#108=ORGANIZATION($,'None','None');
#109=PERSON_AND_ORGANIZATION(#107,#108);
#110=APPROVAL_ROLE('approver');
#111=APPROVAL_PERSON_ORGANIZATION(#109,#106,#110);
#112=COORDINATED_UNIVERSAL_TIME_OFFSET(8,$,.EXACT.);
#113=CALENDAR_DATE(1996,29,5);
#114=LOCAL_TIME(12,0,0.0,#112);
#115=DATE_AND_TIME(#113,#114);
#116=APPROVAL_DATE_TIME(#115,#106);
#117=CC_DESIGN_APPROVAL(#106,(#93));
#118=CARTESIAN_POINT('NONE',(0.0,0.0,0.0));
#119=DIRECTION('NONE',(0.0,0.0,1.0));
#120=DIRECTION('NONE',(1.0,0.0,0.0));
#121=AXIS2_PLACEMENT_3D('NONE',#118,#119,#120);
#122=SHAPE_REPRESENTATION('SR1',(#121),#28);
#123=PRODUCT_DEFINITION_SHAPE('PDS1','Test Part',#93);
#124=SHAPE_DEFINITION_REPRESENTATION(#123,#122);
#125=CARTESIAN_POINT('',(-0.0005,4.440892E-016,2.25));
#126=DIRECTION('',(-2.449213E-016,-1.0,0.0));
#127=DIRECTION('',(1.0,0.0,0.0));
#128=AXIS2_PLACEMENT_3D('',#125,#126,#127);
#129=CYLINDRICAL_SURFACE('',#128,0.14);
#130=CARTESIAN_POINT('',(0.1395,4.440892E-016,2.25));
#131=VERTEX_POINT('',#130);
#132=CARTESIAN_POINT('',(0.1395,-0.25,2.25));
#133=VERTEX_POINT('',#132);
#134=CARTESIAN_POINT('',(0.1395,-3.428898E-017,2.25));
#135=DIRECTION('',(0.0,-1.0,0.0));
#136=VECTOR('',#135,0.249999999999999);
#137=LINE('',#134,#136);
#138=EDGE_CURVE('',#131,#133,#137,.T.);
#139=ORIENTED_EDGE('',*,*,#138,.F.);
#140=CARTESIAN_POINT('',(-0.1405,3.428898E-017,2.25));
#141=VERTEX_POINT('',#140);
#142=CARTESIAN_POINT('',(-0.0005,0.0,2.25));
#143=DIRECTION('',(0.0,-1.0,0.0));
#144=DIRECTION('',(1.0,0.0,0.0));
#145=AXIS2_PLACEMENT_3D('',#142,#143,#144);
#146=CIRCLE('',#145,0.14);
#147=EDGE_CURVE('',#141,#131,#146,.T.);
#148=ORIENTED_EDGE('',*,*,#147,.F.);
#149=CARTESIAN_POINT('',(-0.1405,-0.249999999999999,2.25));
#150=VERTEX_POINT('',#149);
#151=CARTESIAN_POINT('',(-0.1405,3.428898E-017,2.25));
#152=DIRECTION('',(0.0,-1.0,0.0));
#153=VECTOR('',#152,0.249999999999999);
#154=LINE('',#151,#153);
#155=EDGE_CURVE('',#141,#150,#154,.T.);
#156=ORIENTED_EDGE('',*,*,#155,.T.);
#157=CARTESIAN_POINT('',(-0.0005,-0.249999999999999,2.25));
#158=DIRECTION('',(0.0,1.0,0.0));
#159=DIRECTION('',(1.0,0.0,0.0));
#160=AXIS2_PLACEMENT_3D('',#157,#158,#159);
#161=CIRCLE('',#160,0.14);
#162=EDGE_CURVE('',#133,#150,#161,.T.);
#163=ORIENTED_EDGE('',*,*,#162,.F.);
#164=EDGE_LOOP('',(#139,#148,#156,#163));
#165=FACE_OUTER_BOUND('',#164,.T.);
#166=ADVANCED_FACE('',(#165),#129,.F.);
#167=CARTESIAN_POINT('',(-0.0005,0.0,0.75));
#168=DIRECTION('',(-2.449213E-016,-1.0,0.0));
#169=DIRECTION('',(1.0,0.0,0.0));
#170=AXIS2_PLACEMENT_3D('',#167,#168,#169);
#171=CYLINDRICAL_SURFACE('',#170,0.14);
#172=CARTESIAN_POINT('',(0.1395,0.0,0.75));
#173=VERTEX_POINT('',#172);
#174=CARTESIAN_POINT('',(0.1395,-0.25,0.75));
#175=VERTEX_POINT('',#174);
#176=CARTESIAN_POINT('',(0.1395,-3.428898E-017,0.75));
#177=DIRECTION('',(0.0,-1.0,0.0));
#178=VECTOR('',#177,0.249999999999999);
#179=LINE('',#176,#178);
#180=EDGE_CURVE('',#173,#175,#179,.T.);
#181=ORIENTED_EDGE('',*,*,#180,.F.);
#182=CARTESIAN_POINT('',(-0.1405,3.428898E-017,0.75));
#183=VERTEX_POINT('',#182);
#184=CARTESIAN_POINT('',(-0.0005,0.0,0.75));
#185=DIRECTION('',(0.0,-1.0,0.0));
#186=DIRECTION('',(1.0,0.0,0.0));
#187=AXIS2_PLACEMENT_3D('',#184,#185,#186);
#188=CIRCLE('',#187,0.14);
#189=EDGE_CURVE('',#183,#173,#188,.T.);
#190=ORIENTED_EDGE('',*,*,#189,.F.);
#191=CARTESIAN_POINT('',(-0.1405,-0.249999999999999,0.75));
#192=VERTEX_POINT('',#191);
#193=CARTESIAN_POINT('',(-0.1405,3.428898E-017,0.75));
#194=DIRECTION('',(0.0,-1.0,0.0));
#195=VECTOR('',#194,0.249999999999999);
#196=LINE('',#193,#195);
#197=EDGE_CURVE('',#183,#192,#196,.T.);
#198=ORIENTED_EDGE('',*,*,#197,.T.);
#199=CARTESIAN_POINT('',(-0.0005,-0.249999999999999,0.75));
#200=DIRECTION('',(0.0,1.0,0.0));
#201=DIRECTION('',(1.0,0.0,0.0));
#202=AXIS2_PLACEMENT_3D('',#199,#200,#201);
#203=CIRCLE('',#202,0.14);
#204=EDGE_CURVE('',#175,#192,#203,.T.);
#205=ORIENTED_EDGE('',*,*,#204,.F.);
#206=EDGE_LOOP('',(#181,#190,#198,#205));
#207=FACE_OUTER_BOUND('',#206,.T.);
#208=ADVANCED_FACE('',(#207),#171,.F.);
#209=CARTESIAN_POINT('',(-0.000500000000001,-0.749999999999999,-1.387779E-017));
#210=DIRECTION('',(0.0,0.0,1.0));
#211=DIRECTION('',(1.0,0.0,0.0));
#212=AXIS2_PLACEMENT_3D('',#209,#210,#211);
#213=CYLINDRICAL_SURFACE('',#212,0.171);
#214=CARTESIAN_POINT('',(0.170499999999999,-0.749999999999999,-1.387779E-017));
#215=VERTEX_POINT('',#214);
#216=CARTESIAN_POINT('',(0.170499999999999,-0.749999999999999,0.25));
#217=VERTEX_POINT('',#216);
#218=CARTESIAN_POINT('',(0.170499999999999,-0.749999999999999,-1.387779E-017));
#219=DIRECTION('',(0.0,0.0,1.0));
#220=VECTOR('',#219,0.249999999999999);
#221=LINE('',#218,#220);
#222=EDGE_CURVE('',#215,#217,#221,.T.);
#223=ORIENTED_EDGE('',*,*,#222,.F.);
#224=CARTESIAN_POINT('',(-0.171500000000001,-0.749999999999999,-2.775558E-017));
#225=VERTEX_POINT('',#224);
#226=CARTESIAN_POINT('',(-0.000500000000001,-0.749999999999999,-2.775558E-017));
#227=DIRECTION('',(0.0,0.0,1.0));
#228=DIRECTION('',(1.0,0.0,0.0));
#229=AXIS2_PLACEMENT_3D('',#226,#227,#228);
#230=CIRCLE('',#229,0.171);
#231=EDGE_CURVE('',#225,#215,#230,.T.);
#232=ORIENTED_EDGE('',*,*,#231,.F.);
#233=CARTESIAN_POINT('',(-0.171500000000001,-0.749999999999999,0.249999999999999));
#234=VERTEX_POINT('',#233);
#235=CARTESIAN_POINT('',(-0.171500000000001,-0.749999999999999,-2.775558E-017));
#236=DIRECTION('',(0.0,0.0,1.0));
#237=VECTOR('',#236,0.249999999999999);
#238=LINE('',#235,#237);
#239=EDGE_CURVE('',#225,#234,#238,.T.);
#240=ORIENTED_EDGE('',*,*,#239,.T.);
#241=CARTESIAN_POINT('',(-0.000500000000001,-0.749999999999999,0.249999999999999));
#242=DIRECTION('',(0.0,0.0,-1.0));
#243=DIRECTION('',(1.0,0.0,0.0));
#244=AXIS2_PLACEMENT_3D('',#241,#242,#243);
#245=CIRCLE('',#244,0.171);
#246=EDGE_CURVE('',#217,#234,#245,.T.);
#247=ORIENTED_EDGE('',*,*,#246,.F.);
#248=EDGE_LOOP('',(#223,#232,#240,#247));
#249=FACE_OUTER_BOUND('',#248,.T.);
#250=ADVANCED_FACE('',(#249),#213,.F.);
#251=CARTESIAN_POINT('',(-0.000500000000001,-2.249999999999999,-1.387779E-017));
#252=DIRECTION('',(0.0,0.0,1.0));
#253=DIRECTION('',(1.0,0.0,0.0));
#254=AXIS2_PLACEMENT_3D('',#251,#252,#253);
#255=CYLINDRICAL_SURFACE('',#254,0.171);
#256=CARTESIAN_POINT('',(0.170499999999999,-2.249999999999999,-1.387779E-017));
#257=VERTEX_POINT('',#256);
#258=CARTESIAN_POINT('',(0.170499999999999,-2.249999999999999,0.25));
#259=VERTEX_POINT('',#258);
#260=CARTESIAN_POINT('',(0.170499999999999,-2.249999999999999,-1.387779E-017));
#261=DIRECTION('',(0.0,0.0,1.0));
#262=VECTOR('',#261,0.249999999999999);
#263=LINE('',#260,#262);
#264=EDGE_CURVE('',#257,#259,#263,.T.);
#265=ORIENTED_EDGE('',*,*,#264,.F.);
#266=CARTESIAN_POINT('',(-0.171500000000001,-2.249999999999999,-2.775558E-017));
#267=VERTEX_POINT('',#266);
#268=CARTESIAN_POINT('',(-0.000500000000001,-2.249999999999999,-2.775558E-017));
#269=DIRECTION('',(0.0,0.0,1.0));
#270=DIRECTION('',(1.0,0.0,0.0));
#271=AXIS2_PLACEMENT_3D('',#268,#269,#270);
#272=CIRCLE('',#271,0.171);
#273=EDGE_CURVE('',#267,#257,#272,.T.);
#274=ORIENTED_EDGE('',*,*,#273,.F.);
#275=CARTESIAN_POINT('',(-0.171500000000001,-2.249999999999999,0.249999999999999));
#276=VERTEX_POINT('',#275);
#277=CARTESIAN_POINT('',(-0.171500000000001,-2.249999999999999,-2.775558E-017));
#278=DIRECTION('',(0.0,0.0,1.0));
#279=VECTOR('',#278,0.249999999999999);
#280=LINE('',#277,#279);
#281=EDGE_CURVE('',#267,#276,#280,.T.);
#282=ORIENTED_EDGE('',*,*,#281,.T.);
#283=CARTESIAN_POINT('',(-0.000500000000001,-2.249999999999999,0.249999999999999));
#284=DIRECTION('',(0.0,0.0,-1.0));
#285=DIRECTION('',(1.0,0.0,0.0));
#286=AXIS2_PLACEMENT_3D('',#283,#284,#285);
#287=CIRCLE('',#286,0.171);
#288=EDGE_CURVE('',#259,#276,#287,.T.);
#289=ORIENTED_EDGE('',*,*,#288,.F.);
#290=EDGE_LOOP('',(#265,#274,#282,#289));
#291=FACE_OUTER_BOUND('',#290,.T.);
#292=ADVANCED_FACE('',(#291),#255,.F.);
#293=CARTESIAN_POINT('',(-0.000500000000001,-2.249999999999999,-1.387779E-017));
#294=DIRECTION('',(0.0,0.0,1.0));
#295=DIRECTION('',(1.0,0.0,0.0));
#296=AXIS2_PLACEMENT_3D('',#293,#294,#295);
#297=CYLINDRICAL_SURFACE('',#296,0.171);
#298=ORIENTED_EDGE('',*,*,#264,.T.);
#299=CARTESIAN_POINT('',(-0.000500000000001,-2.249999999999999,0.249999999999999));
#300=DIRECTION('',(0.0,0.0,-1.0));
#301=DIRECTION('',(1.0,0.0,0.0));
#302=AXIS2_PLACEMENT_3D('',#299,#300,#301);
#303=CIRCLE('',#302,0.171);
#304=EDGE_CURVE('',#276,#259,#303,.T.);
#305=ORIENTED_EDGE('',*,*,#304,.F.);
#306=ORIENTED_EDGE('',*,*,#281,.F.);
#307=CARTESIAN_POINT('',(-0.000500000000001,-2.249999999999999,-2.775558E-017));
#308=DIRECTION('',(0.0,0.0,1.0));
#309=DIRECTION('',(1.0,0.0,0.0));
#310=AXIS2_PLACEMENT_3D('',#307,#308,#309);
#311=CIRCLE('',#310,0.171);
#312=EDGE_CURVE('',#257,#267,#311,.T.);
#313=ORIENTED_EDGE('',*,*,#312,.F.);
#314=EDGE_LOOP('',(#298,#305,#306,#313));
#315=FACE_OUTER_BOUND('',#314,.T.);
#316=ADVANCED_FACE('',(#315),#297,.F.);
#317=CARTESIAN_POINT('',(-0.000500000000001,-0.749999999999999,-1.387779E-017));
#318=DIRECTION('',(0.0,0.0,1.0));
#319=DIRECTION('',(1.0,0.0,0.0));
#320=AXIS2_PLACEMENT_3D('',#317,#318,#319);
#321=CYLINDRICAL_SURFACE('',#320,0.171);
#322=ORIENTED_EDGE('',*,*,#222,.T.);
#323=CARTESIAN_POINT('',(-0.000500000000001,-0.749999999999999,0.249999999999999));
#324=DIRECTION('',(0.0,0.0,-1.0));
#325=DIRECTION('',(1.0,0.0,0.0));
#326=AXIS2_PLACEMENT_3D('',#323,#324,#325);
#327=CIRCLE('',#326,0.171);
#328=EDGE_CURVE('',#234,#217,#327,.T.);
#329=ORIENTED_EDGE('',*,*,#328,.F.);
#330=ORIENTED_EDGE('',*,*,#239,.F.);
#331=CARTESIAN_POINT('',(-0.000500000000001,-0.749999999999999,-2.775558E-017));
#332=DIRECTION('',(0.0,0.0,1.0));
#333=DIRECTION('',(1.0,0.0,0.0));
#334=AXIS2_PLACEMENT_3D('',#331,#332,#333);
#335=CIRCLE('',#334,0.171);
#336=EDGE_CURVE('',#215,#225,#335,.T.);
#337=ORIENTED_EDGE('',*,*,#336,.F.);
#338=EDGE_LOOP('',(#322,#329,#330,#337));
#339=FACE_OUTER_BOUND('',#338,.T.);
#340=ADVANCED_FACE('',(#339),#321,.F.);
#341=CARTESIAN_POINT('',(-0.0005,0.0,0.75));
#342=DIRECTION('',(-2.449213E-016,-1.0,0.0));
#343=DIRECTION('',(1.0,0.0,0.0));
#344=AXIS2_PLACEMENT_3D('',#341,#342,#343);
#345=CYLINDRICAL_SURFACE('',#344,0.14);
#346=ORIENTED_EDGE('',*,*,#180,.T.);
#347=CARTESIAN_POINT('',(-0.0005,-0.249999999999999,0.75));
#348=DIRECTION('',(0.0,1.0,0.0));
#349=DIRECTION('',(1.0,0.0,0.0));
#350=AXIS2_PLACEMENT_3D('',#347,#348,#349);
#351=CIRCLE('',#350,0.14);
#352=EDGE_CURVE('',#192,#175,#351,.T.);
#353=ORIENTED_EDGE('',*,*,#352,.F.);
#354=ORIENTED_EDGE('',*,*,#197,.F.);
#355=CARTESIAN_POINT('',(-0.0005,0.0,0.75));
#356=DIRECTION('',(0.0,-1.0,0.0));
#357=DIRECTION('',(1.0,0.0,0.0));
#358=AXIS2_PLACEMENT_3D('',#355,#356,#357);
#359=CIRCLE('',#358,0.14);
#360=EDGE_CURVE('',#173,#183,#359,.T.);
#361=ORIENTED_EDGE('',*,*,#360,.F.);
#362=EDGE_LOOP('',(#346,#353,#354,#361));
#363=FACE_OUTER_BOUND('',#362,.T.);
#364=ADVANCED_FACE('',(#363),#345,.F.);
#365=CARTESIAN_POINT('',(-0.0005,4.440892E-016,2.25));
#366=DIRECTION('',(-2.449213E-016,-1.0,0.0));
#367=DIRECTION('',(1.0,0.0,0.0));
#368=AXIS2_PLACEMENT_3D('',#365,#366,#367);
#369=CYLINDRICAL_SURFACE('',#368,0.14);
#370=ORIENTED_EDGE('',*,*,#138,.T.);
#371=CARTESIAN_POINT('',(-0.0005,-0.249999999999999,2.25));
#372=DIRECTION('',(0.0,1.0,0.0));
#373=DIRECTION('',(1.0,0.0,0.0));
#374=AXIS2_PLACEMENT_3D('',#371,#372,#373);
#375=CIRCLE('',#374,0.14);
#376=EDGE_CURVE('',#150,#133,#375,.T.);
#377=ORIENTED_EDGE('',*,*,#376,.F.);
#378=ORIENTED_EDGE('',*,*,#155,.F.);
#379=CARTESIAN_POINT('',(-0.0005,0.0,2.25));
#380=DIRECTION('',(0.0,-1.0,0.0));
#381=DIRECTION('',(1.0,0.0,0.0));
#382=AXIS2_PLACEMENT_3D('',#379,#380,#381);
#383=CIRCLE('',#382,0.14);
#384=EDGE_CURVE('',#131,#141,#383,.T.);
#385=ORIENTED_EDGE('',*,*,#384,.F.);
#386=EDGE_LOOP('',(#370,#377,#378,#385));
#387=FACE_OUTER_BOUND('',#386,.T.);
#388=ADVANCED_FACE('',(#387),#369,.F.);
#389=CARTESIAN_POINT('',(0.4375,1.332268E-015,2.75));
#390=DIRECTION('',(-1.0,2.449213E-016,0.0));
#391=DIRECTION('',(-1.731855E-016,-0.707106781186548,0.707106781186547));
#392=AXIS2_PLACEMENT_3D('',#389,#390,#391);
#393=CYLINDRICAL_SURFACE('',#392,0.25);
#394=CARTESIAN_POINT('',(-0.4375,8.881784E-016,3.0));
#395=VERTEX_POINT('',#394);
#396=CARTESIAN_POINT('',(-0.4375,-0.249999999999999,2.75));
#397=VERTEX_POINT('',#396);
#398=CARTESIAN_POINT('',(-0.4375,1.332268E-015,2.75));
#399=DIRECTION('',(1.0,-2.334829E-016,2.334829E-016));
#400=DIRECTION('',(-3.301947E-016,-0.707106781186548,0.707106781186547));
#401=AXIS2_PLACEMENT_3D('',#398,#399,#400);
#402=CIRCLE('',#401,0.25);
#403=EDGE_CURVE('',#395,#397,#402,.T.);
#404=ORIENTED_EDGE('',*,*,#403,.T.);
#405=CARTESIAN_POINT('',(0.4375,-0.249999999999999,2.75));
#406=VERTEX_POINT('',#405);
#407=CARTESIAN_POINT('',(0.4375,-0.249999999999999,2.75));
#408=DIRECTION('',(-1.0,0.0,0.0));
#409=VECTOR('',#408,0.875);
#410=LINE('',#407,#409);
#411=EDGE_CURVE('',#406,#397,#410,.T.);
#412=ORIENTED_EDGE('',*,*,#411,.F.);
#413=CARTESIAN_POINT('',(0.4375,8.881784E-016,3.0));
#414=VERTEX_POINT('',#413);
#415=CARTESIAN_POINT('',(0.4375,1.332268E-015,2.75));
#416=DIRECTION('',(1.0,-2.334829E-016,2.334829E-016));
#417=DIRECTION('',(-3.301947E-016,-0.707106781186548,0.707106781186547));
#418=AXIS2_PLACEMENT_3D('',#415,#416,#417);
#419=CIRCLE('',#418,0.25);
#420=EDGE_CURVE('',#414,#406,#419,.T.);
#421=ORIENTED_EDGE('',*,*,#420,.F.);
#422=CARTESIAN_POINT('',(0.4375,8.881784E-016,3.0));
#423=DIRECTION('',(-1.0,0.0,0.0));
#424=VECTOR('',#423,0.875);
#425=LINE('',#422,#424);
#426=EDGE_CURVE('',#414,#395,#425,.T.);
#427=ORIENTED_EDGE('',*,*,#426,.T.);
#428=EDGE_LOOP('',(#404,#412,#421,#427));
#429=FACE_OUTER_BOUND('',#428,.T.);
#430=ADVANCED_FACE('',(#429),#393,.T.);
#431=CARTESIAN_POINT('',(0.4375,-0.249999999999999,2.75));
#432=DIRECTION('',(0.0,-1.0,0.0));
#433=DIRECTION('',(0.0,0.0,-1.0));
#434=AXIS2_PLACEMENT_3D('',#431,#432,#433);
#435=PLANE('',#434);
#436=CARTESIAN_POINT('',(-0.4375,-0.249999999999999,0.499999999999999));
#437=VERTEX_POINT('',#436);
#438=CARTESIAN_POINT('',(-0.4375,-0.249999999999999,2.75));
#439=DIRECTION('',(0.0,0.0,-1.0));
#440=VECTOR('',#439,2.25);
#441=LINE('',#438,#440);
#442=EDGE_CURVE('',#397,#437,#441,.T.);
#443=ORIENTED_EDGE('',*,*,#442,.T.);
#444=CARTESIAN_POINT('',(0.4375,-0.249999999999999,0.499999999999999));
#445=VERTEX_POINT('',#444);
#446=CARTESIAN_POINT('',(0.4375,-0.249999999999999,0.499999999999999));
#447=DIRECTION('',(-1.0,0.0,0.0));
#448=VECTOR('',#447,0.875);
#449=LINE('',#446,#448);
#450=EDGE_CURVE('',#445,#437,#449,.T.);
#451=ORIENTED_EDGE('',*,*,#450,.F.);
#452=CARTESIAN_POINT('',(0.4375,-0.249999999999999,2.75));
#453=DIRECTION('',(0.0,0.0,-1.0));
#454=VECTOR('',#453,2.25);
#455=LINE('',#452,#454);
#456=EDGE_CURVE('',#406,#445,#455,.T.);
#457=ORIENTED_EDGE('',*,*,#456,.F.);
#458=ORIENTED_EDGE('',*,*,#411,.T.);
#459=EDGE_LOOP('',(#443,#451,#457,#458));
#460=FACE_OUTER_BOUND('',#459,.T.);
#461=ORIENTED_EDGE('',*,*,#204,.T.);
#462=ORIENTED_EDGE('',*,*,#352,.T.);
#463=EDGE_LOOP('',(#461,#462));
#464=FACE_BOUND('',#463,.T.);
#465=ORIENTED_EDGE('',*,*,#162,.T.);
#466=ORIENTED_EDGE('',*,*,#376,.T.);
#467=EDGE_LOOP('',(#465,#466));
#468=FACE_BOUND('',#467,.T.);
#469=ADVANCED_FACE('',(#460,#464,#468),#435,.T.);
#470=CARTESIAN_POINT('',(0.4375,-0.499999999999999,0.499999999999999));
#471=DIRECTION('',(-1.0,2.449213E-016,0.0));
#472=DIRECTION('',(1.731855E-016,0.707106781186548,-0.707106781186548));
#473=AXIS2_PLACEMENT_3D('',#470,#471,#472);
#474=CYLINDRICAL_SURFACE('',#473,0.25);
#475=CARTESIAN_POINT('',(-0.4375,-0.499999999999999,0.249999999999999));
#476=VERTEX_POINT('',#475);
#477=CARTESIAN_POINT('',(-0.4375,-0.499999999999999,0.499999999999999));
#478=DIRECTION('',(-1.0,2.334829E-016,-2.334829E-016));
#479=DIRECTION('',(3.301947E-016,0.707106781186548,-0.707106781186548));
#480=AXIS2_PLACEMENT_3D('',#477,#478,#479);
#481=CIRCLE('',#480,0.25);
#482=EDGE_CURVE('',#437,#476,#481,.T.);
#483=ORIENTED_EDGE('',*,*,#482,.T.);
#484=CARTESIAN_POINT('',(0.4375,-0.499999999999999,0.249999999999999));
#485=VERTEX_POINT('',#484);
#486=CARTESIAN_POINT('',(0.4375,-0.499999999999999,0.249999999999999));
#487=DIRECTION('',(-1.0,0.0,0.0));
#488=VECTOR('',#487,0.875);
#489=LINE('',#486,#488);
#490=EDGE_CURVE('',#485,#476,#489,.T.);
#491=ORIENTED_EDGE('',*,*,#490,.F.);
#492=CARTESIAN_POINT('',(0.4375,-0.499999999999999,0.499999999999999));
#493=DIRECTION('',(-1.0,2.334829E-016,-2.334829E-016));
#494=DIRECTION('',(3.301947E-016,0.707106781186548,-0.707106781186548));
#495=AXIS2_PLACEMENT_3D('',#492,#493,#494);
#496=CIRCLE('',#495,0.25);
#497=EDGE_CURVE('',#445,#485,#496,.T.);
#498=ORIENTED_EDGE('',*,*,#497,.F.);
#499=ORIENTED_EDGE('',*,*,#450,.T.);
#500=EDGE_LOOP('',(#483,#491,#498,#499));
#501=FACE_OUTER_BOUND('',#500,.T.);
#502=ADVANCED_FACE('',(#501),#474,.F.);
#503=CARTESIAN_POINT('',(0.4375,-0.499999999999999,0.249999999999999));
#504=DIRECTION('',(0.0,0.0,1.0));
#505=DIRECTION('',(1.0,0.0,0.0));
#506=AXIS2_PLACEMENT_3D('',#503,#504,#505);
#507=PLANE('',#506);
#508=CARTESIAN_POINT('',(-0.437500000000001,-2.749999999999998,0.25));
#509=VERTEX_POINT('',#508);
#510=CARTESIAN_POINT('',(-0.4375,-0.499999999999999,0.249999999999999));
#511=DIRECTION('',(0.0,-1.0,0.0));
#512=VECTOR('',#511,2.25);
#513=LINE('',#510,#512);
#514=EDGE_CURVE('',#476,#509,#513,.T.);
#515=ORIENTED_EDGE('',*,*,#514,.T.);
#516=CARTESIAN_POINT('',(0.437499999999998,-2.749999999999999,0.25));
#517=VERTEX_POINT('',#516);
#518=CARTESIAN_POINT('',(0.437499999999998,-2.749999999999999,0.25));
#519=DIRECTION('',(-1.0,0.0,0.0));
#520=VECTOR('',#519,0.874999999999999);
#521=LINE('',#518,#520);
#522=EDGE_CURVE('',#517,#509,#521,.T.);
#523=ORIENTED_EDGE('',*,*,#522,.F.);
#524=CARTESIAN_POINT('',(0.4375,-0.499999999999999,0.249999999999999));
#525=DIRECTION('',(0.0,-1.0,0.0));
#526=VECTOR('',#525,2.25);
#527=LINE('',#524,#526);
#528=EDGE_CURVE('',#485,#517,#527,.T.);
#529=ORIENTED_EDGE('',*,*,#528,.F.);
#530=ORIENTED_EDGE('',*,*,#490,.T.);
#531=EDGE_LOOP('',(#515,#523,#529,#530));
#532=FACE_OUTER_BOUND('',#531,.T.);
#533=ORIENTED_EDGE('',*,*,#288,.T.);
#534=ORIENTED_EDGE('',*,*,#304,.T.);
#535=EDGE_LOOP('',(#533,#534));
#536=FACE_BOUND('',#535,.T.);
#537=ORIENTED_EDGE('',*,*,#246,.T.);
#538=ORIENTED_EDGE('',*,*,#328,.T.);
#539=EDGE_LOOP('',(#537,#538));
#540=FACE_BOUND('',#539,.T.);
#541=ADVANCED_FACE('',(#532,#536,#540),#507,.T.);
#542=CARTESIAN_POINT('',(0.437499999999998,-2.749999999999999,-5.551115E-017));
#543=DIRECTION('',(-1.0,2.449213E-016,0.0));
#544=DIRECTION('',(-1.731855E-016,-0.707106781186547,0.707106781186548));
#545=AXIS2_PLACEMENT_3D('',#542,#543,#544);
#546=CYLINDRICAL_SURFACE('',#545,0.25);
#547=CARTESIAN_POINT('',(-0.437500000000001,-2.999999999999998,-2.775558E-017));
#548=VERTEX_POINT('',#547);
#549=CARTESIAN_POINT('',(-0.437500000000002,-2.749999999999999,-5.551115E-017));
#550=DIRECTION('',(1.0,-2.334829E-016,2.334829E-016));
#551=DIRECTION('',(-3.301947E-016,-0.707106781186547,0.707106781186548));
#552=AXIS2_PLACEMENT_3D('',#549,#550,#551);
#553=CIRCLE('',#552,0.25);
#554=EDGE_CURVE('',#509,#548,#553,.T.);
#555=ORIENTED_EDGE('',*,*,#554,.T.);
#556=CARTESIAN_POINT('',(0.437499999999998,-2.999999999999999,-2.775558E-017));
#557=VERTEX_POINT('',#556);
#558=CARTESIAN_POINT('',(0.437499999999998,-2.999999999999999,-2.775558E-017));
#559=DIRECTION('',(-1.0,0.0,0.0));
#560=VECTOR('',#559,0.874999999999999);
#561=LINE('',#558,#560);
#562=EDGE_CURVE('',#557,#548,#561,.T.);
#563=ORIENTED_EDGE('',*,*,#562,.F.);
#564=CARTESIAN_POINT('',(0.437499999999998,-2.749999999999999,-5.551115E-017));
#565=DIRECTION('',(1.0,-2.334829E-016,2.334829E-016));
#566=DIRECTION('',(-3.301947E-016,-0.707106781186547,0.707106781186548));
#567=AXIS2_PLACEMENT_3D('',#564,#565,#566);
#568=CIRCLE('',#567,0.25);
#569=EDGE_CURVE('',#517,#557,#568,.T.);
#570=ORIENTED_EDGE('',*,*,#569,.F.);
#571=ORIENTED_EDGE('',*,*,#522,.T.);
#572=EDGE_LOOP('',(#555,#563,#570,#571));
#573=FACE_OUTER_BOUND('',#572,.T.);
#574=ADVANCED_FACE('',(#573),#546,.T.);
#575=CARTESIAN_POINT('',(0.437499999999998,-2.999999999999999,-2.775558E-017));
#576=DIRECTION('',(0.0,0.0,-1.0));
#577=DIRECTION('',(-1.0,0.0,0.0));
#578=AXIS2_PLACEMENT_3D('',#575,#576,#577);
#579=PLANE('',#578);
#580=CARTESIAN_POINT('',(-0.4375,0.0,0.0));
#581=VERTEX_POINT('',#580);
#582=CARTESIAN_POINT('',(-0.437500000000002,-2.999999999999998,-2.775558E-017));
#583=DIRECTION('',(0.0,1.0,0.0));
#584=VECTOR('',#583,2.999999999999998);
#585=LINE('',#582,#584);
#586=EDGE_CURVE('',#548,#581,#585,.T.);
#587=ORIENTED_EDGE('',*,*,#586,.T.);
#588=CARTESIAN_POINT('',(0.4375,0.0,0.0));
#589=VERTEX_POINT('',#588);
#590=CARTESIAN_POINT('',(0.4375,0.0,0.0));
#591=DIRECTION('',(-1.0,0.0,0.0));
#592=VECTOR('',#591,0.875);
#593=LINE('',#590,#592);
#594=EDGE_CURVE('',#589,#581,#593,.T.);
#595=ORIENTED_EDGE('',*,*,#594,.F.);
#596=CARTESIAN_POINT('',(0.437499999999998,-2.999999999999999,-2.775558E-017));
#597=DIRECTION('',(0.0,1.0,0.0));
#598=VECTOR('',#597,2.999999999999999);
#599=LINE('',#596,#598);
#600=EDGE_CURVE('',#557,#589,#599,.T.);
#601=ORIENTED_EDGE('',*,*,#600,.F.);
#602=ORIENTED_EDGE('',*,*,#562,.T.);
#603=EDGE_LOOP('',(#587,#595,#601,#602));
#604=FACE_OUTER_BOUND('',#603,.T.);
#605=ORIENTED_EDGE('',*,*,#312,.T.);
#606=ORIENTED_EDGE('',*,*,#273,.T.);
#607=EDGE_LOOP('',(#605,#606));
#608=FACE_BOUND('',#607,.T.);
#609=ORIENTED_EDGE('',*,*,#336,.T.);
#610=ORIENTED_EDGE('',*,*,#231,.T.);
#611=EDGE_LOOP('',(#609,#610));
#612=FACE_BOUND('',#611,.T.);
#613=ADVANCED_FACE('',(#604,#608,#612),#579,.T.);
#614=CARTESIAN_POINT('',(0.4375,0.0,0.0));
#615=DIRECTION('',(0.0,1.0,0.0));
#616=DIRECTION('',(0.0,0.0,1.0));
#617=AXIS2_PLACEMENT_3D('',#614,#615,#616);
#618=PLANE('',#617);
#619=CARTESIAN_POINT('',(-0.4375,0.0,0.0));
#620=DIRECTION('',(0.0,0.0,1.0));
#621=VECTOR('',#620,3.0);
#622=LINE('',#619,#621);
#623=EDGE_CURVE('',#581,#395,#622,.T.);
#624=ORIENTED_EDGE('',*,*,#623,.T.);
#625=ORIENTED_EDGE('',*,*,#426,.F.);
#626=CARTESIAN_POINT('',(0.4375,0.0,0.0));
#627=DIRECTION('',(0.0,0.0,1.0));
#628=VECTOR('',#627,3.0);
#629=LINE('',#626,#628);
#630=EDGE_CURVE('',#589,#414,#629,.T.);
#631=ORIENTED_EDGE('',*,*,#630,.F.);
#632=ORIENTED_EDGE('',*,*,#594,.T.);
#633=EDGE_LOOP('',(#624,#625,#631,#632));
#634=FACE_OUTER_BOUND('',#633,.T.);
#635=ORIENTED_EDGE('',*,*,#360,.T.);
#636=ORIENTED_EDGE('',*,*,#189,.T.);
#637=EDGE_LOOP('',(#635,#636));
#638=FACE_BOUND('',#637,.T.);
#639=ORIENTED_EDGE('',*,*,#384,.T.);
#640=ORIENTED_EDGE('',*,*,#147,.T.);
#641=EDGE_LOOP('',(#639,#640));
#642=FACE_BOUND('',#641,.T.);
#643=ADVANCED_FACE('',(#634,#638,#642),#618,.T.);
#644=CARTESIAN_POINT('',(-0.4375,8.881784E-016,3.0));
#645=DIRECTION('',(-1.0,0.0,0.0));
#646=DIRECTION('',(0.0,0.0,1.0));
#647=AXIS2_PLACEMENT_3D('',#644,#645,#646);
#648=PLANE('',#647);
#649=ORIENTED_EDGE('',*,*,#403,.F.);
#650=ORIENTED_EDGE('',*,*,#623,.F.);
#651=ORIENTED_EDGE('',*,*,#586,.F.);
#652=ORIENTED_EDGE('',*,*,#554,.F.);
#653=ORIENTED_EDGE('',*,*,#514,.F.);
#654=ORIENTED_EDGE('',*,*,#482,.F.);
#655=ORIENTED_EDGE('',*,*,#442,.F.);
#656=EDGE_LOOP('',(#649,#650,#651,#652,#653,#654,#655));
#657=FACE_OUTER_BOUND('',#656,.T.);
#658=ADVANCED_FACE('',(#657),#648,.T.);
#659=CARTESIAN_POINT('',(0.4375,-1.017677669529662,1.017677669529663));
#660=DIRECTION('',(-1.0,0.0,0.0));
#661=DIRECTION('',(0.0,0.0,1.0));
#662=AXIS2_PLACEMENT_3D('',#659,#660,#661);
#663=PLANE('',#662);
#664=ORIENTED_EDGE('',*,*,#630,.T.);
#665=ORIENTED_EDGE('',*,*,#420,.T.);
#666=ORIENTED_EDGE('',*,*,#456,.T.);
#667=ORIENTED_EDGE('',*,*,#497,.T.);
#668=ORIENTED_EDGE('',*,*,#528,.T.);
#669=ORIENTED_EDGE('',*,*,#569,.T.);
#670=ORIENTED_EDGE('',*,*,#600,.T.);
#671=EDGE_LOOP('',(#664,#665,#666,#667,#668,#669,#670));
#672=FACE_OUTER_BOUND('',#671,.T.);
#673=ADVANCED_FACE('',(#672),#663,.F.);
#674=CLOSED_SHELL('',(#166,#208,#250,#292,#316,#340,#364,#388,#430,#469,#502,#541,#574,#613,#643,#658,#673));
#675=MANIFOLD_SOLID_BREP('2B',#674);
#676=ADVANCED_BREP_SHAPE_REPRESENTATION('ABSR1',(#675),#28);
#677=SHAPE_REPRESENTATION_RELATIONSHIP('SRRPL1','',#676,#122);
ENDSEC;
END-ISO-10303-21;
