ISO-10303-21;
HEADER;
/****************************************************************
 * Generated by software with PDElib inside                    *
 * PDElib Version v51a, created Fri 09/10/2010                  *
 * ITI Transcendata (http://www.transcendata.com/)              *
 ****************************************************************/
FILE_DESCRIPTION((''),'2;1');
FILE_NAME('13CB5000.stp','2015-07-15T08:13:48',(''),(''),'Mechanical Desktop 2011','Mechanical Desktop 2011',', , ');
FILE_SCHEMA(('AUTOMOTIVE_DESIGN { 1 2 10303 214 1 1 1 1 }'));
ENDSEC;
DATA;
#10=(NAMED_UNIT(*)PLANE_ANGLE_UNIT()SI_UNIT($,.RADIAN.));
#11=DIMENSIONAL_EXPONENTS(0.0,0.0,0.0,0.0,0.0,0.0,0.0);
#12=PLANE_ANGLE_MEASURE_WITH_UNIT(PLANE_ANGLE_MEASURE(0.0174532925),#10);
#16=(CONVERSION_BASED_UNIT('DEGREE',#12)NAMED_UNIT(#11)PLANE_ANGLE_UNIT());
#20=(NAMED_UNIT(*)SI_UNIT($,.STERADIAN.)SOLID_ANGLE_UNIT());
#24=(LENGTH_UNIT()NAMED_UNIT(*)SI_UNIT(.CENTI.,.METRE.));
#25=DIMENSIONAL_EXPONENTS(1.0,0.0,0.0,0.0,0.0,0.0,0.0);
#26=LENGTH_MEASURE_WITH_UNIT(LENGTH_MEASURE(2.54),#24);
#30=(CONVERSION_BASED_UNIT('INCH',#26)LENGTH_UNIT()NAMED_UNIT(#25));
#32=UNCERTAINTY_MEASURE_WITH_UNIT(LENGTH_MEASURE(0.000001),#30,'DISTANCE_ACCURACY_VALUE','');
#34=(GEOMETRIC_REPRESENTATION_CONTEXT(3)GLOBAL_UNCERTAINTY_ASSIGNED_CONTEXT((#32))GLOBAL_UNIT_ASSIGNED_CONTEXT((#16,#20,#30))REPRESENTATION_CONTEXT('','3D'));
#35=APPLICATION_CONTEXT('automotive design');
#36=APPLICATION_PROTOCOL_DEFINITION('INTERNATIONAL_STANDARD','automotive_design',1998,#35);
#37=PRODUCT_CONTEXT('3D Mechanical Parts',#35,'mechanical');
#38=PRODUCT('Product','Product','',(#37));
#39=PRODUCT_RELATED_PRODUCT_CATEGORY('part',$,(#38));
#40=PRODUCT_CATEGORY('part',$);
#41=PERSON('1','Design','Joe',$,$,$);
#42=ORGANIZATION($,'None','None');
#43=PERSON_AND_ORGANIZATION(#41,#42);
#44=PERSON_AND_ORGANIZATION_ROLE('design_owner');
#45=APPLIED_PERSON_AND_ORGANIZATION_ASSIGNMENT(#43,#44,(#38));
#46=PRODUCT_DEFINITION_FORMATION_WITH_SPECIFIED_SOURCE('None','',#38,.BOUGHT.);
#47=PERSON('2','Creator','Joe',$,$,$);
#48=ORGANIZATION($,'None','None');
#49=PERSON_AND_ORGANIZATION(#47,#48);
#50=PERSON_AND_ORGANIZATION_ROLE('creator');
#51=APPLIED_PERSON_AND_ORGANIZATION_ASSIGNMENT(#49,#50,(#46));
#52=PERSON('3','Supplier','Joe',$,$,$);
#53=ORGANIZATION($,'None','None');
#54=PERSON_AND_ORGANIZATION(#52,#53);
#55=PERSON_AND_ORGANIZATION_ROLE('design_supplier');
#56=APPLIED_PERSON_AND_ORGANIZATION_ASSIGNMENT(#54,#55,(#46));
#57=PRODUCT_DEFINITION_CONTEXT('part definition',#35,'design');
#58=PRODUCT_DEFINITION('None','',#46,#57);
#59=PERSON('4','Creator','Joe',$,$,$);
#60=ORGANIZATION($,'None','None');
#61=PERSON_AND_ORGANIZATION(#59,#60);
#62=PERSON_AND_ORGANIZATION_ROLE('creator');
#63=APPLIED_PERSON_AND_ORGANIZATION_ASSIGNMENT(#61,#62,(#58));
#64=CARTESIAN_POINT('NONE',(0.0,0.0,0.0));
#65=DIRECTION('NONE',(0.0,0.0,1.0));
#66=DIRECTION('NONE',(1.0,0.0,0.0));
#67=AXIS2_PLACEMENT_3D('NONE',#64,#65,#66);
#68=SHAPE_REPRESENTATION('SR1',(#67),#34);
#69=PRODUCT_DEFINITION_SHAPE('PDS1','Test Part',#58);
#70=SHAPE_DEFINITION_REPRESENTATION(#69,#68);
#71=CARTESIAN_POINT('',(-0.000500000000001,0.0,0.750000000000001));
#72=DIRECTION('',(-4.669659E-016,-1.0,2.832749E-016));
#73=DIRECTION('',(0.0,0.0,1.0));
#74=AXIS2_PLACEMENT_3D('',#71,#72,#73);
#75=CYLINDRICAL_SURFACE('',#74,0.14);
#76=CARTESIAN_POINT('',(-0.000500000000001,8.881784E-016,0.890000000000001));
#77=VERTEX_POINT('',#76);
#78=CARTESIAN_POINT('',(-0.000500000000001,-0.187999999999998,0.890000000000001));
#79=VERTEX_POINT('',#78);
#80=CARTESIAN_POINT('',(-0.000500000000001,3.965849E-017,0.890000000000001));
#81=DIRECTION('',(0.0,-1.0,0.0));
#82=VECTOR('',#81,0.187999999999998);
#83=LINE('',#80,#82);
#84=EDGE_CURVE('',#77,#79,#83,.T.);
#85=ORIENTED_EDGE('',*,*,#84,.F.);
#86=CARTESIAN_POINT('',(-0.000500000000002,-3.965849E-017,0.610000000000001));
#87=VERTEX_POINT('',#86);
#88=CARTESIAN_POINT('',(-0.000500000000001,0.0,0.750000000000001));
#89=DIRECTION('',(0.0,-1.0,0.0));
#90=DIRECTION('',(0.0,0.0,1.0));
#91=AXIS2_PLACEMENT_3D('',#88,#89,#90);
#92=CIRCLE('',#91,0.14);
#93=EDGE_CURVE('',#87,#77,#92,.T.);
#94=ORIENTED_EDGE('',*,*,#93,.F.);
#95=CARTESIAN_POINT('',(-0.000500000000002,-0.187999999999999,0.610000000000001));
#96=VERTEX_POINT('',#95);
#97=CARTESIAN_POINT('',(-0.000500000000002,-3.965849E-017,0.610000000000001));
#98=DIRECTION('',(0.0,-1.0,0.0));
#99=VECTOR('',#98,0.187999999999999);
#100=LINE('',#97,#99);
#101=EDGE_CURVE('',#87,#96,#100,.T.);
#102=ORIENTED_EDGE('',*,*,#101,.T.);
#103=CARTESIAN_POINT('',(-0.000500000000001,-0.187999999999999,0.750000000000001));
#104=DIRECTION('',(0.0,1.0,0.0));
#105=DIRECTION('',(0.0,0.0,1.0));
#106=AXIS2_PLACEMENT_3D('',#103,#104,#105);
#107=CIRCLE('',#106,0.14);
#108=EDGE_CURVE('',#79,#96,#107,.T.);
#109=ORIENTED_EDGE('',*,*,#108,.F.);
#110=EDGE_LOOP('',(#85,#94,#102,#109));
#111=FACE_OUTER_BOUND('',#110,.T.);
#112=ADVANCED_FACE('',(#111),#75,.F.);
#113=CARTESIAN_POINT('',(-0.000500000000001,-0.749999999999999,0.0));
#114=DIRECTION('',(1.836910E-016,2.832749E-016,1.0));
#115=DIRECTION('',(0.0,1.0,0.0));
#116=AXIS2_PLACEMENT_3D('',#113,#114,#115);
#117=CYLINDRICAL_SURFACE('',#116,0.17);
#118=CARTESIAN_POINT('',(-0.000500000000001,-0.579999999999999,0.0));
#119=VERTEX_POINT('',#118);
#120=CARTESIAN_POINT('',(-0.000500000000001,-0.579999999999999,0.188000000000001));
#121=VERTEX_POINT('',#120);
#122=CARTESIAN_POINT('',(-0.000500000000001,-0.579999999999999,-4.930381E-032));
#123=DIRECTION('',(0.0,0.0,1.0));
#124=VECTOR('',#123,0.188000000000001);
#125=LINE('',#122,#124);
#126=EDGE_CURVE('',#119,#121,#125,.T.);
#127=ORIENTED_EDGE('',*,*,#126,.F.);
#128=CARTESIAN_POINT('',(-0.000500000000001,-0.919999999999999,4.815674E-017));
#129=VERTEX_POINT('',#128);
#130=CARTESIAN_POINT('',(-0.000500000000001,-0.749999999999999,0.0));
#131=DIRECTION('',(0.0,0.0,1.0));
#132=DIRECTION('',(0.0,1.0,0.0));
#133=AXIS2_PLACEMENT_3D('',#130,#131,#132);
#134=CIRCLE('',#133,0.17);
#135=EDGE_CURVE('',#129,#119,#134,.T.);
#136=ORIENTED_EDGE('',*,*,#135,.F.);
#137=CARTESIAN_POINT('',(-0.000500000000001,-0.919999999999999,0.188000000000001));
#138=VERTEX_POINT('',#137);
#139=CARTESIAN_POINT('',(-0.000500000000001,-0.919999999999999,4.815674E-017));
#140=DIRECTION('',(0.0,0.0,1.0));
#141=VECTOR('',#140,0.188000000000001);
#142=LINE('',#139,#141);
#143=EDGE_CURVE('',#129,#138,#142,.T.);
#144=ORIENTED_EDGE('',*,*,#143,.T.);
#145=CARTESIAN_POINT('',(-0.000500000000001,-0.749999999999999,0.188000000000001));
#146=DIRECTION('',(0.0,0.0,-1.0));
#147=DIRECTION('',(0.0,1.0,0.0));
#148=AXIS2_PLACEMENT_3D('',#145,#146,#147);
#149=CIRCLE('',#148,0.17);
#150=EDGE_CURVE('',#121,#138,#149,.T.);
#151=ORIENTED_EDGE('',*,*,#150,.F.);
#152=EDGE_LOOP('',(#127,#136,#144,#151));
#153=FACE_OUTER_BOUND('',#152,.T.);
#154=ADVANCED_FACE('',(#153),#117,.F.);
#155=CARTESIAN_POINT('',(-0.000500000000001,-0.749999999999999,0.0));
#156=DIRECTION('',(1.836910E-016,2.832749E-016,1.0));
#157=DIRECTION('',(0.0,1.0,0.0));
#158=AXIS2_PLACEMENT_3D('',#155,#156,#157);
#159=CYLINDRICAL_SURFACE('',#158,0.17);
#160=ORIENTED_EDGE('',*,*,#126,.T.);
#161=CARTESIAN_POINT('',(-0.000500000000001,-0.749999999999999,0.188000000000001));
#162=DIRECTION('',(0.0,0.0,-1.0));
#163=DIRECTION('',(0.0,1.0,0.0));
#164=AXIS2_PLACEMENT_3D('',#161,#162,#163);
#165=CIRCLE('',#164,0.17);
#166=EDGE_CURVE('',#138,#121,#165,.T.);
#167=ORIENTED_EDGE('',*,*,#166,.F.);
#168=ORIENTED_EDGE('',*,*,#143,.F.);
#169=CARTESIAN_POINT('',(-0.000500000000001,-0.749999999999999,0.0));
#170=DIRECTION('',(0.0,0.0,1.0));
#171=DIRECTION('',(0.0,1.0,0.0));
#172=AXIS2_PLACEMENT_3D('',#169,#170,#171);
#173=CIRCLE('',#172,0.17);
#174=EDGE_CURVE('',#119,#129,#173,.T.);
#175=ORIENTED_EDGE('',*,*,#174,.F.);
#176=EDGE_LOOP('',(#160,#167,#168,#175));
#177=FACE_OUTER_BOUND('',#176,.T.);
#178=ADVANCED_FACE('',(#177),#159,.F.);
#179=CARTESIAN_POINT('',(-0.000500000000001,0.0,0.750000000000001));
#180=DIRECTION('',(-4.669659E-016,-1.0,2.832749E-016));
#181=DIRECTION('',(0.0,0.0,1.0));
#182=AXIS2_PLACEMENT_3D('',#179,#180,#181);
#183=CYLINDRICAL_SURFACE('',#182,0.14);
#184=ORIENTED_EDGE('',*,*,#84,.T.);
#185=CARTESIAN_POINT('',(-0.000500000000001,-0.187999999999999,0.750000000000001));
#186=DIRECTION('',(0.0,1.0,0.0));
#187=DIRECTION('',(0.0,0.0,1.0));
#188=AXIS2_PLACEMENT_3D('',#185,#186,#187);
#189=CIRCLE('',#188,0.14);
#190=EDGE_CURVE('',#96,#79,#189,.T.);
#191=ORIENTED_EDGE('',*,*,#190,.F.);
#192=ORIENTED_EDGE('',*,*,#101,.F.);
#193=CARTESIAN_POINT('',(-0.000500000000001,0.0,0.750000000000001));
#194=DIRECTION('',(0.0,-1.0,0.0));
#195=DIRECTION('',(0.0,0.0,1.0));
#196=AXIS2_PLACEMENT_3D('',#193,#194,#195);
#197=CIRCLE('',#196,0.14);
#198=EDGE_CURVE('',#77,#87,#197,.T.);
#199=ORIENTED_EDGE('',*,*,#198,.F.);
#200=EDGE_LOOP('',(#184,#191,#192,#199));
#201=FACE_OUTER_BOUND('',#200,.T.);
#202=ADVANCED_FACE('',(#201),#183,.F.);
#203=CARTESIAN_POINT('',(-0.437500000000001,-1.311999999999999,0.0));
#204=DIRECTION('',(1.0,-4.669659E-016,-1.836910E-016));
#205=DIRECTION('',(-2.003056E-016,-0.707106781186547,0.707106781186549));
#206=AXIS2_PLACEMENT_3D('',#203,#204,#205);
#207=CYLINDRICAL_SURFACE('',#206,0.188);
#208=CARTESIAN_POINT('',(0.437499999999999,-1.499999999999999,0.0));
#209=VERTEX_POINT('',#208);
#210=CARTESIAN_POINT('',(0.437499999999999,-1.311999999999999,0.188000000000001));
#211=VERTEX_POINT('',#210);
#212=CARTESIAN_POINT('',(0.437499999999999,-1.311999999999999,0.0));
#213=DIRECTION('',(-1.0,1.416375E-016,-1.416375E-016));
#214=DIRECTION('',(-2.003056E-016,-0.707106781186547,0.707106781186549));
#215=AXIS2_PLACEMENT_3D('',#212,#213,#214);
#216=CIRCLE('',#215,0.188);
#217=EDGE_CURVE('',#209,#211,#216,.T.);
#218=ORIENTED_EDGE('',*,*,#217,.T.);
#219=CARTESIAN_POINT('',(-0.437500000000001,-1.311999999999999,0.188000000000001));
#220=VERTEX_POINT('',#219);
#221=CARTESIAN_POINT('',(-0.437500000000001,-1.311999999999999,0.188000000000001));
#222=DIRECTION('',(1.0,0.0,0.0));
#223=VECTOR('',#222,0.875);
#224=LINE('',#221,#223);
#225=EDGE_CURVE('',#220,#211,#224,.T.);
#226=ORIENTED_EDGE('',*,*,#225,.F.);
#227=CARTESIAN_POINT('',(-0.437500000000002,-1.499999999999999,0.0));
#228=VERTEX_POINT('',#227);
#229=CARTESIAN_POINT('',(-0.437500000000001,-1.311999999999999,0.0));
#230=DIRECTION('',(1.0,-1.416375E-016,1.416375E-016));
#231=DIRECTION('',(-2.003056E-016,-0.707106781186547,0.707106781186549));
#232=AXIS2_PLACEMENT_3D('',#229,#230,#231);
#233=CIRCLE('',#232,0.188);
#234=EDGE_CURVE('',#220,#228,#233,.T.);
#235=ORIENTED_EDGE('',*,*,#234,.T.);
#236=CARTESIAN_POINT('',(-0.437500000000002,-1.499999999999999,0.0));
#237=DIRECTION('',(1.0,0.0,0.0));
#238=VECTOR('',#237,0.875000000000001);
#239=LINE('',#236,#238);
#240=EDGE_CURVE('',#228,#209,#239,.T.);
#241=ORIENTED_EDGE('',*,*,#240,.T.);
#242=EDGE_LOOP('',(#218,#226,#235,#241));
#243=FACE_OUTER_BOUND('',#242,.T.);
#244=ADVANCED_FACE('',(#243),#207,.T.);
#245=CARTESIAN_POINT('',(-0.437500000000001,-1.311999999999999,0.188000000000001));
#246=DIRECTION('',(0.0,0.0,1.0));
#247=DIRECTION('',(1.0,0.0,0.0));
#248=AXIS2_PLACEMENT_3D('',#245,#246,#247);
#249=PLANE('',#248);
#250=CARTESIAN_POINT('',(0.437499999999999,-0.375999999999999,0.188000000000002));
#251=VERTEX_POINT('',#250);
#252=CARTESIAN_POINT('',(0.437499999999999,-1.311999999999999,0.188000000000001));
#253=DIRECTION('',(0.0,1.0,0.0));
#254=VECTOR('',#253,0.936);
#255=LINE('',#252,#254);
#256=EDGE_CURVE('',#211,#251,#255,.T.);
#257=ORIENTED_EDGE('',*,*,#256,.T.);
#258=CARTESIAN_POINT('',(-0.437500000000001,-0.375999999999999,0.188000000000002));
#259=VERTEX_POINT('',#258);
#260=CARTESIAN_POINT('',(-0.437500000000001,-0.375999999999999,0.188000000000002));
#261=DIRECTION('',(1.0,0.0,0.0));
#262=VECTOR('',#261,0.875);
#263=LINE('',#260,#262);
#264=EDGE_CURVE('',#259,#251,#263,.T.);
#265=ORIENTED_EDGE('',*,*,#264,.F.);
#266=CARTESIAN_POINT('',(-0.437500000000001,-0.375999999999999,0.188000000000002));
#267=DIRECTION('',(0.0,-1.0,0.0));
#268=VECTOR('',#267,0.936);
#269=LINE('',#266,#268);
#270=EDGE_CURVE('',#259,#220,#269,.T.);
#271=ORIENTED_EDGE('',*,*,#270,.T.);
#272=ORIENTED_EDGE('',*,*,#225,.T.);
#273=EDGE_LOOP('',(#257,#265,#271,#272));
#274=FACE_OUTER_BOUND('',#273,.T.);
#275=ORIENTED_EDGE('',*,*,#150,.T.);
#276=ORIENTED_EDGE('',*,*,#166,.T.);
#277=EDGE_LOOP('',(#275,#276));
#278=FACE_BOUND('',#277,.T.);
#279=ADVANCED_FACE('',(#274,#278),#249,.T.);
#280=CARTESIAN_POINT('',(-0.437500000000001,-0.375999999999998,0.376000000000001));
#281=DIRECTION('',(1.0,-4.669659E-016,-1.836910E-016));
#282=DIRECTION('',(2.003056E-016,0.707106781186547,-0.707106781186548));
#283=AXIS2_PLACEMENT_3D('',#280,#281,#282);
#284=CYLINDRICAL_SURFACE('',#283,0.188);
#285=CARTESIAN_POINT('',(0.4375,-0.188,0.376000000000001));
#286=VERTEX_POINT('',#285);
#287=CARTESIAN_POINT('',(0.437499999999999,-0.375999999999999,0.376000000000001));
#288=DIRECTION('',(1.0,-1.416375E-016,1.416375E-016));
#289=DIRECTION('',(2.003056E-016,0.707106781186547,-0.707106781186548));
#290=AXIS2_PLACEMENT_3D('',#287,#288,#289);
#291=CIRCLE('',#290,0.188);
#292=EDGE_CURVE('',#251,#286,#291,.T.);
#293=ORIENTED_EDGE('',*,*,#292,.T.);
#294=CARTESIAN_POINT('',(-0.4375,-0.187999999999999,0.376000000000001));
#295=VERTEX_POINT('',#294);
#296=CARTESIAN_POINT('',(-0.4375,-0.187999999999999,0.376000000000001));
#297=DIRECTION('',(1.0,0.0,0.0));
#298=VECTOR('',#297,0.875);
#299=LINE('',#296,#298);
#300=EDGE_CURVE('',#295,#286,#299,.T.);
#301=ORIENTED_EDGE('',*,*,#300,.F.);
#302=CARTESIAN_POINT('',(-0.437500000000001,-0.375999999999998,0.376000000000001));
#303=DIRECTION('',(-1.0,1.416375E-016,-1.416375E-016));
#304=DIRECTION('',(2.003056E-016,0.707106781186547,-0.707106781186548));
#305=AXIS2_PLACEMENT_3D('',#302,#303,#304);
#306=CIRCLE('',#305,0.188);
#307=EDGE_CURVE('',#295,#259,#306,.T.);
#308=ORIENTED_EDGE('',*,*,#307,.T.);
#309=ORIENTED_EDGE('',*,*,#264,.T.);
#310=EDGE_LOOP('',(#293,#301,#308,#309));
#311=FACE_OUTER_BOUND('',#310,.T.);
#312=ADVANCED_FACE('',(#311),#284,.F.);
#313=CARTESIAN_POINT('',(-0.4375,-0.187999999999999,0.376000000000001));
#314=DIRECTION('',(0.0,-1.0,0.0));
#315=DIRECTION('',(1.0,0.0,0.0));
#316=AXIS2_PLACEMENT_3D('',#313,#314,#315);
#317=PLANE('',#316);
#318=CARTESIAN_POINT('',(0.4375,-0.188,1.312));
#319=VERTEX_POINT('',#318);
#320=CARTESIAN_POINT('',(0.4375,-0.188,0.376000000000001));
#321=DIRECTION('',(0.0,0.0,1.0));
#322=VECTOR('',#321,0.935999999999999);
#323=LINE('',#320,#322);
#324=EDGE_CURVE('',#286,#319,#323,.T.);
#325=ORIENTED_EDGE('',*,*,#324,.T.);
#326=CARTESIAN_POINT('',(-0.4375,-0.187999999999998,1.312));
#327=VERTEX_POINT('',#326);
#328=CARTESIAN_POINT('',(-0.4375,-0.187999999999998,1.312));
#329=DIRECTION('',(1.0,0.0,0.0));
#330=VECTOR('',#329,0.875);
#331=LINE('',#328,#330);
#332=EDGE_CURVE('',#327,#319,#331,.T.);
#333=ORIENTED_EDGE('',*,*,#332,.F.);
#334=CARTESIAN_POINT('',(-0.4375,-0.187999999999998,1.312));
#335=DIRECTION('',(0.0,0.0,-1.0));
#336=VECTOR('',#335,0.935999999999999);
#337=LINE('',#334,#336);
#338=EDGE_CURVE('',#327,#295,#337,.T.);
#339=ORIENTED_EDGE('',*,*,#338,.T.);
#340=ORIENTED_EDGE('',*,*,#300,.T.);
#341=EDGE_LOOP('',(#325,#333,#339,#340));
#342=FACE_OUTER_BOUND('',#341,.T.);
#343=ORIENTED_EDGE('',*,*,#108,.T.);
#344=ORIENTED_EDGE('',*,*,#190,.T.);
#345=EDGE_LOOP('',(#343,#344));
#346=FACE_BOUND('',#345,.T.);
#347=ADVANCED_FACE('',(#342,#346),#317,.T.);
#348=CARTESIAN_POINT('',(-0.4375,0.0,1.312000000000001));
#349=DIRECTION('',(1.0,-4.669659E-016,-1.836910E-016));
#350=DIRECTION('',(-2.003056E-016,-0.707106781186547,0.707106781186548));
#351=AXIS2_PLACEMENT_3D('',#348,#349,#350);
#352=CYLINDRICAL_SURFACE('',#351,0.188);
#353=CARTESIAN_POINT('',(0.4375,0.0,1.5));
#354=VERTEX_POINT('',#353);
#355=CARTESIAN_POINT('',(0.4375,-8.881784E-016,1.312000000000001));
#356=DIRECTION('',(-1.0,1.416375E-016,-1.416375E-016));
#357=DIRECTION('',(-2.003056E-016,-0.707106781186547,0.707106781186548));
#358=AXIS2_PLACEMENT_3D('',#355,#356,#357);
#359=CIRCLE('',#358,0.188);
#360=EDGE_CURVE('',#319,#354,#359,.T.);
#361=ORIENTED_EDGE('',*,*,#360,.T.);
#362=CARTESIAN_POINT('',(-0.4375,1.776357E-015,1.5));
#363=VERTEX_POINT('',#362);
#364=CARTESIAN_POINT('',(-0.4375,1.776357E-015,1.5));
#365=DIRECTION('',(1.0,0.0,0.0));
#366=VECTOR('',#365,0.875);
#367=LINE('',#364,#366);
#368=EDGE_CURVE('',#363,#354,#367,.T.);
#369=ORIENTED_EDGE('',*,*,#368,.F.);
#370=CARTESIAN_POINT('',(-0.4375,0.0,1.312000000000001));
#371=DIRECTION('',(1.0,-1.416375E-016,1.416375E-016));
#372=DIRECTION('',(-2.003056E-016,-0.707106781186547,0.707106781186548));
#373=AXIS2_PLACEMENT_3D('',#370,#371,#372);
#374=CIRCLE('',#373,0.188);
#375=EDGE_CURVE('',#363,#327,#374,.T.);
#376=ORIENTED_EDGE('',*,*,#375,.T.);
#377=ORIENTED_EDGE('',*,*,#332,.T.);
#378=EDGE_LOOP('',(#361,#369,#376,#377));
#379=FACE_OUTER_BOUND('',#378,.T.);
#380=ADVANCED_FACE('',(#379),#352,.T.);
#381=CARTESIAN_POINT('',(-0.4375,1.776357E-015,1.5));
#382=DIRECTION('',(0.0,1.0,0.0));
#383=DIRECTION('',(-1.0,0.0,0.0));
#384=AXIS2_PLACEMENT_3D('',#381,#382,#383);
#385=PLANE('',#384);
#386=CARTESIAN_POINT('',(0.4375,0.0,0.0));
#387=VERTEX_POINT('',#386);
#388=CARTESIAN_POINT('',(0.4375,4.249124E-016,1.5));
#389=DIRECTION('',(0.0,0.0,-1.0));
#390=VECTOR('',#389,1.5);
#391=LINE('',#388,#390);
#392=EDGE_CURVE('',#354,#387,#391,.T.);
#393=ORIENTED_EDGE('',*,*,#392,.T.);
#394=CARTESIAN_POINT('',(-0.4375,8.881784E-016,0.0));
#395=VERTEX_POINT('',#394);
#396=CARTESIAN_POINT('',(-0.4375,8.881784E-016,0.0));
#397=DIRECTION('',(1.0,0.0,0.0));
#398=VECTOR('',#397,0.875);
#399=LINE('',#396,#398);
#400=EDGE_CURVE('',#395,#387,#399,.T.);
#401=ORIENTED_EDGE('',*,*,#400,.F.);
#402=CARTESIAN_POINT('',(-0.4375,8.881784E-016,0.0));
#403=DIRECTION('',(0.0,0.0,1.0));
#404=VECTOR('',#403,1.5);
#405=LINE('',#402,#404);
#406=EDGE_CURVE('',#395,#363,#405,.T.);
#407=ORIENTED_EDGE('',*,*,#406,.T.);
#408=ORIENTED_EDGE('',*,*,#368,.T.);
#409=EDGE_LOOP('',(#393,#401,#407,#408));
#410=FACE_OUTER_BOUND('',#409,.T.);
#411=ORIENTED_EDGE('',*,*,#198,.T.);
#412=ORIENTED_EDGE('',*,*,#93,.T.);
#413=EDGE_LOOP('',(#411,#412));
#414=FACE_BOUND('',#413,.T.);
#415=ADVANCED_FACE('',(#410,#414),#385,.T.);
#416=CARTESIAN_POINT('',(-0.4375,8.881784E-016,0.0));
#417=DIRECTION('',(0.0,0.0,-1.0));
#418=DIRECTION('',(-1.0,0.0,0.0));
#419=AXIS2_PLACEMENT_3D('',#416,#417,#418);
#420=PLANE('',#419);
#421=CARTESIAN_POINT('',(0.4375,0.0,-4.249124E-016));
#422=DIRECTION('',(0.0,-1.0,0.0));
#423=VECTOR('',#422,1.499999999999999);
#424=LINE('',#421,#423);
#425=EDGE_CURVE('',#387,#209,#424,.T.);
#426=ORIENTED_EDGE('',*,*,#425,.T.);
#427=ORIENTED_EDGE('',*,*,#240,.F.);
#428=CARTESIAN_POINT('',(-0.437500000000002,-1.499999999999999,0.0));
#429=DIRECTION('',(0.0,1.0,0.0));
#430=VECTOR('',#429,1.5);
#431=LINE('',#428,#430);
#432=EDGE_CURVE('',#228,#395,#431,.T.);
#433=ORIENTED_EDGE('',*,*,#432,.T.);
#434=ORIENTED_EDGE('',*,*,#400,.T.);
#435=EDGE_LOOP('',(#426,#427,#433,#434));
#436=FACE_OUTER_BOUND('',#435,.T.);
#437=ORIENTED_EDGE('',*,*,#174,.T.);
#438=ORIENTED_EDGE('',*,*,#135,.T.);
#439=EDGE_LOOP('',(#437,#438));
#440=FACE_BOUND('',#439,.T.);
#441=ADVANCED_FACE('',(#436,#440),#420,.T.);
#442=CARTESIAN_POINT('',(-0.437500000000001,-0.538493607486305,0.538493607486308));
#443=DIRECTION('',(-1.0,0.0,0.0));
#444=DIRECTION('',(0.0,-1.0,0.0));
#445=AXIS2_PLACEMENT_3D('',#442,#443,#444);
#446=PLANE('',#445);
#447=ORIENTED_EDGE('',*,*,#432,.F.);
#448=ORIENTED_EDGE('',*,*,#234,.F.);
#449=ORIENTED_EDGE('',*,*,#270,.F.);
#450=ORIENTED_EDGE('',*,*,#307,.F.);
#451=ORIENTED_EDGE('',*,*,#338,.F.);
#452=ORIENTED_EDGE('',*,*,#375,.F.);
#453=ORIENTED_EDGE('',*,*,#406,.F.);
#454=EDGE_LOOP('',(#447,#448,#449,#450,#451,#452,#453));
#455=FACE_OUTER_BOUND('',#454,.T.);
#456=ADVANCED_FACE('',(#455),#446,.T.);
#457=CARTESIAN_POINT('',(0.437499999999999,-1.499999999999999,0.0));
#458=DIRECTION('',(-1.0,0.0,0.0));
#459=DIRECTION('',(0.0,-1.0,0.0));
#460=AXIS2_PLACEMENT_3D('',#457,#458,#459);
#461=PLANE('',#460);
#462=ORIENTED_EDGE('',*,*,#217,.F.);
#463=ORIENTED_EDGE('',*,*,#425,.F.);
#464=ORIENTED_EDGE('',*,*,#392,.F.);
#465=ORIENTED_EDGE('',*,*,#360,.F.);
#466=ORIENTED_EDGE('',*,*,#324,.F.);
#467=ORIENTED_EDGE('',*,*,#292,.F.);
#468=ORIENTED_EDGE('',*,*,#256,.F.);
#469=EDGE_LOOP('',(#462,#463,#464,#465,#466,#467,#468));
#470=FACE_OUTER_BOUND('',#469,.T.);
#471=ADVANCED_FACE('',(#470),#461,.F.);
#472=CLOSED_SHELL('',(#112,#154,#178,#202,#244,#279,#312,#347,#380,#415,#441,#456,#471));
#473=MANIFOLD_SOLID_BREP('2A',#472);
#474=DRAUGHTING_PRE_DEFINED_COLOUR('white');
#475=SURFACE_STYLE_USAGE(.BOTH.,#476);
#476=SURFACE_SIDE_STYLE('NONE',(#477));
#477=SURFACE_STYLE_FILL_AREA(#478);
#478=FILL_AREA_STYLE('NONE',(#479));
#479=FILL_AREA_STYLE_COLOUR('NONE',#474);
#480=PRESENTATION_STYLE_ASSIGNMENT((#475));
#481=STYLED_ITEM('NONE',(#480),#473);
#482=MECHANICAL_DESIGN_GEOMETRIC_PRESENTATION_REPRESENTATION('NONE',(#481),#34);
#483=PRESENTATION_LAYER_ASSIGNMENT('0','None',(#473));
#484=ADVANCED_BREP_SHAPE_REPRESENTATION('ABSR1',(#473),#34);
#485=SHAPE_REPRESENTATION_RELATIONSHIP('SRRPL1','',#484,#68);
ENDSEC;
END-ISO-10303-21;
