ISO-10303-21;
HEADER;
/****************************************************************
 * Generated by software with PDElib inside                    *
 * PDElib Version v51a, created Fri 09/10/2010                  *
 * ITI Transcendata (http://www.transcendata.com/)              *
 ****************************************************************/
FILE_DESCRIPTION((''),'2;1');
FILE_NAME('13AC7816.stp','2015-07-14T14:27:13',(''),(''),'Mechanical Desktop 2011','Mechanical Desktop 2011',', , ');
FILE_SCHEMA(('AUTOMOTIVE_DESIGN { 1 2 10303 214 1 1 1 1 }'));
ENDSEC;
DATA;
#10=(NAMED_UNIT(*)PLANE_ANGLE_UNIT()SI_UNIT($,.RADIAN.));
#11=DIMENSIONAL_EXPONENTS(0.0,0.0,0.0,0.0,0.0,0.0,0.0);
#12=PLANE_ANGLE_MEASURE_WITH_UNIT(PLANE_ANGLE_MEASURE(0.0174532925),#10);
#16=(CONVERSION_BASED_UNIT('DEGREE',#12)NAMED_UNIT(#11)PLANE_ANGLE_UNIT());
#20=(NAMED_UNIT(*)SI_UNIT($,.STERADIAN.)SOLID_ANGLE_UNIT());
#24=(LENGTH_UNIT()NAMED_UNIT(*)SI_UNIT(.CENTI.,.METRE.));
#25=DIMENSIONAL_EXPONENTS(1.0,0.0,0.0,0.0,0.0,0.0,0.0);
#26=LENGTH_MEASURE_WITH_UNIT(LENGTH_MEASURE(2.54),#24);
#30=(CONVERSION_BASED_UNIT('INCH',#26)LENGTH_UNIT()NAMED_UNIT(#25));
#32=UNCERTAINTY_MEASURE_WITH_UNIT(LENGTH_MEASURE(0.000001),#30,'DISTANCE_ACCURACY_VALUE','');
#34=(GEOMETRIC_REPRESENTATION_CONTEXT(3)GLOBAL_UNCERTAINTY_ASSIGNED_CONTEXT((#32))GLOBAL_UNIT_ASSIGNED_CONTEXT((#16,#20,#30))REPRESENTATION_CONTEXT('','3D'));
#35=APPLICATION_CONTEXT('automotive design');
#36=APPLICATION_PROTOCOL_DEFINITION('INTERNATIONAL_STANDARD','automotive_design',1998,#35);
#37=PRODUCT_CONTEXT('3D Mechanical Parts',#35,'mechanical');
#38=PRODUCT('Product','Product','',(#37));
#39=PRODUCT_RELATED_PRODUCT_CATEGORY('part',$,(#38));
#40=PRODUCT_CATEGORY('part',$);
#41=PERSON('1','Design','Joe',$,$,$);
#42=ORGANIZATION($,'None','None');
#43=PERSON_AND_ORGANIZATION(#41,#42);
#44=PERSON_AND_ORGANIZATION_ROLE('design_owner');
#45=APPLIED_PERSON_AND_ORGANIZATION_ASSIGNMENT(#43,#44,(#38));
#46=PRODUCT_DEFINITION_FORMATION_WITH_SPECIFIED_SOURCE('None','',#38,.BOUGHT.);
#47=PERSON('2','Creator','Joe',$,$,$);
#48=ORGANIZATION($,'None','None');
#49=PERSON_AND_ORGANIZATION(#47,#48);
#50=PERSON_AND_ORGANIZATION_ROLE('creator');
#51=APPLIED_PERSON_AND_ORGANIZATION_ASSIGNMENT(#49,#50,(#46));
#52=PERSON('3','Supplier','Joe',$,$,$);
#53=ORGANIZATION($,'None','None');
#54=PERSON_AND_ORGANIZATION(#52,#53);
#55=PERSON_AND_ORGANIZATION_ROLE('design_supplier');
#56=APPLIED_PERSON_AND_ORGANIZATION_ASSIGNMENT(#54,#55,(#46));
#57=PRODUCT_DEFINITION_CONTEXT('part definition',#35,'design');
#58=PRODUCT_DEFINITION('None','',#46,#57);
#59=PERSON('4','Creator','Joe',$,$,$);
#60=ORGANIZATION($,'None','None');
#61=PERSON_AND_ORGANIZATION(#59,#60);
#62=PERSON_AND_ORGANIZATION_ROLE('creator');
#63=APPLIED_PERSON_AND_ORGANIZATION_ASSIGNMENT(#61,#62,(#58));
#64=CARTESIAN_POINT('NONE',(0.0,0.0,0.0));
#65=DIRECTION('NONE',(0.0,0.0,1.0));
#66=DIRECTION('NONE',(1.0,0.0,0.0));
#67=AXIS2_PLACEMENT_3D('NONE',#64,#65,#66);
#68=SHAPE_REPRESENTATION('SR1',(#67),#34);
#69=PRODUCT_DEFINITION_SHAPE('PDS1','Test Part',#58);
#70=SHAPE_DEFINITION_REPRESENTATION(#69,#68);
#71=CARTESIAN_POINT('',(4.440892E-016,-0.75,0.0));
#72=DIRECTION('',(-1.224606E-016,1.224606E-016,-1.0));
#73=DIRECTION('',(0.0,1.0,0.0));
#74=AXIS2_PLACEMENT_3D('',#71,#72,#73);
#75=CYLINDRICAL_SURFACE('',#74,0.171875);
#76=CARTESIAN_POINT('',(2.220446E-016,-0.578125,0.0));
#77=VERTEX_POINT('',#76);
#78=CARTESIAN_POINT('',(3.266223E-016,-0.578125,-0.25));
#79=VERTEX_POINT('',#78);
#80=CARTESIAN_POINT('',(3.572374E-016,-0.578125,-1.540744E-032));
#81=DIRECTION('',(0.0,0.0,-1.0));
#82=VECTOR('',#81,0.25);
#83=LINE('',#80,#82);
#84=EDGE_CURVE('',#77,#79,#83,.T.);
#85=ORIENTED_EDGE('',*,*,#84,.F.);
#86=CARTESIAN_POINT('',(5.098924E-016,-0.921875,-2.104792E-017));
#87=VERTEX_POINT('',#86);
#88=CARTESIAN_POINT('',(4.440892E-016,-0.75,0.0));
#89=DIRECTION('',(0.0,0.0,-1.0));
#90=DIRECTION('',(0.0,1.0,0.0));
#91=AXIS2_PLACEMENT_3D('',#88,#89,#90);
#92=CIRCLE('',#91,0.171875);
#93=EDGE_CURVE('',#87,#77,#92,.T.);
#94=ORIENTED_EDGE('',*,*,#93,.F.);
#95=CARTESIAN_POINT('',(-8.881784E-016,-0.921875,-0.25));
#96=VERTEX_POINT('',#95);
#97=CARTESIAN_POINT('',(5.098924E-016,-0.921875,-2.104792E-017));
#98=DIRECTION('',(0.0,0.0,-1.0));
#99=VECTOR('',#98,0.25);
#100=LINE('',#97,#99);
#101=EDGE_CURVE('',#87,#96,#100,.T.);
#102=ORIENTED_EDGE('',*,*,#101,.T.);
#103=CARTESIAN_POINT('',(4.440892E-016,-0.75,-0.25));
#104=DIRECTION('',(0.0,0.0,1.0));
#105=DIRECTION('',(0.0,1.0,0.0));
#106=AXIS2_PLACEMENT_3D('',#103,#104,#105);
#107=CIRCLE('',#106,0.171875);
#108=EDGE_CURVE('',#79,#96,#107,.T.);
#109=ORIENTED_EDGE('',*,*,#108,.F.);
#110=EDGE_LOOP('',(#85,#94,#102,#109));
#111=FACE_OUTER_BOUND('',#110,.T.);
#112=ADVANCED_FACE('',(#111),#75,.F.);
#113=CARTESIAN_POINT('',(0.0,-0.3,-0.5));
#114=DIRECTION('',(-5.053195E-016,1.0,1.224606E-016));
#115=DIRECTION('',(0.0,0.0,1.0));
#116=AXIS2_PLACEMENT_3D('',#113,#114,#115);
#117=CYLINDRICAL_SURFACE('',#116,0.171875);
#118=CARTESIAN_POINT('',(-0.171875,-0.256222302971587,-0.5));
#119=VERTEX_POINT('',#118);
#120=CARTESIAN_POINT('',(-0.171875,0.0,-0.5));
#121=VERTEX_POINT('',#120);
#122=CARTESIAN_POINT('',(-0.171875,-0.256222302971587,-0.5));
#123=DIRECTION('',(0.0,1.0,0.0));
#124=VECTOR('',#123,0.256222302971587);
#125=LINE('',#122,#124);
#126=EDGE_CURVE('',#119,#121,#125,.T.);
#127=ORIENTED_EDGE('',*,*,#126,.T.);
#128=CARTESIAN_POINT('',(0.171875,4.440892E-016,-0.5));
#129=VERTEX_POINT('',#128);
#130=CARTESIAN_POINT('',(0.0,0.0,-0.5));
#131=DIRECTION('',(0.0,-1.0,0.0));
#132=DIRECTION('',(0.0,0.0,1.0));
#133=AXIS2_PLACEMENT_3D('',#130,#131,#132);
#134=CIRCLE('',#133,0.171875);
#135=EDGE_CURVE('',#129,#121,#134,.T.);
#136=ORIENTED_EDGE('',*,*,#135,.F.);
#137=CARTESIAN_POINT('',(0.171875,-0.256222302971587,-0.5));
#138=VERTEX_POINT('',#137);
#139=CARTESIAN_POINT('',(0.171875,-0.256222302971587,-0.5));
#140=DIRECTION('',(0.0,1.0,0.0));
#141=VECTOR('',#140,0.256222302971587);
#142=LINE('',#139,#141);
#143=EDGE_CURVE('',#138,#129,#142,.T.);
#144=ORIENTED_EDGE('',*,*,#143,.F.);
#145=CARTESIAN_POINT('',(0.134178790478081,-0.3,-0.392589256539026));
#146=VERTEX_POINT('',#145);
#147=CARTESIAN_POINT('',(0.134178790478081,-0.3,-0.392589256539026));
#148=CARTESIAN_POINT('',(0.14336547970884,-0.292579471586595,-0.404065379036298));
#149=CARTESIAN_POINT('',(0.151383098013842,-0.285218807600401,-0.417156741543689));
#150=CARTESIAN_POINT('',(0.166866605745612,-0.268834440817797,-0.452679194226192));
#151=CARTESIAN_POINT('',(0.171875,-0.260965368123396,-0.476607684855226));
#152=CARTESIAN_POINT('',(0.171875,-0.256222302971587,-0.5));
#153=B_SPLINE_CURVE_WITH_KNOTS('',3,(#147,#148,#149,#150,#151,#152),.UNSPECIFIED.,.F.,.U.,(4,2,4),(0.701223507766213,0.748725043034557,0.820330026616711),.UNSPECIFIED.);
#154=EDGE_CURVE('',#146,#138,#153,.T.);
#155=ORIENTED_EDGE('',*,*,#154,.F.);
#156=CARTESIAN_POINT('',(-0.134178790478081,-0.3,-0.392589256539026));
#157=VERTEX_POINT('',#156);
#158=CARTESIAN_POINT('',(-0.134178790478081,-0.3,-0.392589256539026));
#159=CARTESIAN_POINT('',(-0.129517238218818,-0.303765358783948,-0.386765989482639));
#160=CARTESIAN_POINT('',(-0.124558841071795,-0.307542285774357,-0.381352779539217));
#161=CARTESIAN_POINT('',(-0.104885227163825,-0.321609520456276,-0.36234627809808));
#162=CARTESIAN_POINT('',(-0.086628722568415,-0.332863623784692,-0.349899352406526));
#163=CARTESIAN_POINT('',(-0.055863944546334,-0.345688827433411,-0.33707774384501));
#164=CARTESIAN_POINT('',(-0.045036018636894,-0.349273320827483,-0.333741540286411));
#165=CARTESIAN_POINT('',(-0.022786206158319,-0.354177546496121,-0.329265567842294));
#166=CARTESIAN_POINT('',(-0.011362820974674,-0.35548974753054,-0.328125));
#167=CARTESIAN_POINT('',(0.011362820974674,-0.35548974753054,-0.328125));
#168=CARTESIAN_POINT('',(0.022786206158319,-0.354177546496121,-0.329265567842294));
#169=CARTESIAN_POINT('',(0.045036018636895,-0.349273320827483,-0.333741540286412));
#170=CARTESIAN_POINT('',(0.055863944546334,-0.345688827433411,-0.33707774384501));
#171=CARTESIAN_POINT('',(0.086628722568415,-0.332863623784692,-0.349899352406526));
#172=CARTESIAN_POINT('',(0.104885227163825,-0.321609520456276,-0.36234627809808));
#173=CARTESIAN_POINT('',(0.124558841071796,-0.307542285774357,-0.381352779539217));
#174=CARTESIAN_POINT('',(0.129517238218818,-0.303765358783948,-0.386765989482639));
#175=CARTESIAN_POINT('',(0.134178790478081,-0.3,-0.392589256539026));
#176=B_SPLINE_CURVE_WITH_KNOTS('',3,(#158,#159,#160,#161,#162,#163,#164,#165,#166,#167,#168,#169,#170,#171,#172,#173,#174,#175),.UNSPECIFIED.,.F.,.U.,(4,2,2,2,2,2,2,2,4),(0.380308907746409,0.40441235606022,0.472589281908265,0.506677744832288,0.540766207756311,0.574854670680334,0.608943133604357,0.677120059452403,0.701223507766213),.UNSPECIFIED.);
#177=EDGE_CURVE('',#157,#146,#176,.T.);
#178=ORIENTED_EDGE('',*,*,#177,.F.);
#179=CARTESIAN_POINT('',(-0.171875,-0.256222302971587,-0.5));
#180=CARTESIAN_POINT('',(-0.171875,-0.260965368123396,-0.476607684855226));
#181=CARTESIAN_POINT('',(-0.166866605745611,-0.268834440817797,-0.452679194226192));
#182=CARTESIAN_POINT('',(-0.151383098013842,-0.285218807600401,-0.417156741543689));
#183=CARTESIAN_POINT('',(-0.14336547970884,-0.292579471586595,-0.404065379036298));
#184=CARTESIAN_POINT('',(-0.134178790478081,-0.3,-0.392589256539026));
#185=B_SPLINE_CURVE_WITH_KNOTS('',3,(#179,#180,#181,#182,#183,#184),.UNSPECIFIED.,.F.,.U.,(4,2,4),(0.261202388895912,0.332807372478066,0.380308907746409),.UNSPECIFIED.);
#186=EDGE_CURVE('',#119,#157,#185,.T.);
#187=ORIENTED_EDGE('',*,*,#186,.F.);
#188=EDGE_LOOP('',(#127,#136,#144,#155,#178,#187));
#189=FACE_OUTER_BOUND('',#188,.T.);
#190=ADVANCED_FACE('',(#189),#117,.F.);
#191=CARTESIAN_POINT('',(-0.171875,-0.3,-0.5));
#192=DIRECTION('',(-1.0,0.0,0.0));
#193=DIRECTION('',(0.0,0.0,1.0));
#194=AXIS2_PLACEMENT_3D('',#191,#192,#193);
#195=PLANE('',#194);
#196=CARTESIAN_POINT('',(-0.171875,-0.25,-1.0));
#197=VERTEX_POINT('',#196);
#198=CARTESIAN_POINT('',(-0.171875,4.440892E-016,-1.0));
#199=VERTEX_POINT('',#198);
#200=CARTESIAN_POINT('',(-0.171875,-0.25,-1.0));
#201=DIRECTION('',(0.0,1.0,0.0));
#202=VECTOR('',#201,0.25);
#203=LINE('',#200,#202);
#204=EDGE_CURVE('',#197,#199,#203,.T.);
#205=ORIENTED_EDGE('',*,*,#204,.T.);
#206=CARTESIAN_POINT('',(-0.171875,-6.123032E-017,-0.5));
#207=DIRECTION('',(0.0,0.0,-1.0));
#208=VECTOR('',#207,0.5);
#209=LINE('',#206,#208);
#210=EDGE_CURVE('',#121,#199,#209,.T.);
#211=ORIENTED_EDGE('',*,*,#210,.F.);
#212=ORIENTED_EDGE('',*,*,#126,.F.);
#213=CARTESIAN_POINT('',(-0.171875,-0.25,-0.562));
#214=VERTEX_POINT('',#213);
#215=CARTESIAN_POINT('',(-0.171874999999999,-0.562,-0.562));
#216=DIRECTION('',(1.0,2.760179E-016,2.760179E-016));
#217=DIRECTION('',(-3.903482E-016,0.707106781186547,0.707106781186548));
#218=AXIS2_PLACEMENT_3D('',#215,#216,#217);
#219=CIRCLE('',#218,0.312);
#220=EDGE_CURVE('',#214,#119,#219,.T.);
#221=ORIENTED_EDGE('',*,*,#220,.F.);
#222=CARTESIAN_POINT('',(-0.171875,-0.25,-1.0));
#223=DIRECTION('',(0.0,0.0,1.0));
#224=VECTOR('',#223,0.438000000000001);
#225=LINE('',#222,#224);
#226=EDGE_CURVE('',#197,#214,#225,.T.);
#227=ORIENTED_EDGE('',*,*,#226,.F.);
#228=EDGE_LOOP('',(#205,#211,#212,#221,#227));
#229=FACE_OUTER_BOUND('',#228,.T.);
#230=ADVANCED_FACE('',(#229),#195,.F.);
#231=CARTESIAN_POINT('',(0.0,-0.3,-1.0));
#232=DIRECTION('',(-5.053195E-016,1.0,1.224606E-016));
#233=DIRECTION('',(0.0,0.0,-1.0));
#234=AXIS2_PLACEMENT_3D('',#231,#232,#233);
#235=CYLINDRICAL_SURFACE('',#234,0.171875);
#236=CARTESIAN_POINT('',(0.171875,-0.25,-1.0));
#237=VERTEX_POINT('',#236);
#238=CARTESIAN_POINT('',(0.171875,4.440892E-016,-1.0));
#239=VERTEX_POINT('',#238);
#240=CARTESIAN_POINT('',(0.171875,-0.25,-1.0));
#241=DIRECTION('',(0.0,1.0,0.0));
#242=VECTOR('',#241,0.25);
#243=LINE('',#240,#242);
#244=EDGE_CURVE('',#237,#239,#243,.T.);
#245=ORIENTED_EDGE('',*,*,#244,.T.);
#246=CARTESIAN_POINT('',(0.0,0.0,-1.0));
#247=DIRECTION('',(0.0,-1.0,0.0));
#248=DIRECTION('',(0.0,0.0,-1.0));
#249=AXIS2_PLACEMENT_3D('',#246,#247,#248);
#250=CIRCLE('',#249,0.171875);
#251=EDGE_CURVE('',#199,#239,#250,.T.);
#252=ORIENTED_EDGE('',*,*,#251,.F.);
#253=ORIENTED_EDGE('',*,*,#204,.F.);
#254=CARTESIAN_POINT('',(0.0,-0.25,-1.0));
#255=DIRECTION('',(0.0,1.0,0.0));
#256=DIRECTION('',(0.0,0.0,-1.0));
#257=AXIS2_PLACEMENT_3D('',#254,#255,#256);
#258=CIRCLE('',#257,0.171875);
#259=EDGE_CURVE('',#237,#197,#258,.T.);
#260=ORIENTED_EDGE('',*,*,#259,.F.);
#261=EDGE_LOOP('',(#245,#252,#253,#260));
#262=FACE_OUTER_BOUND('',#261,.T.);
#263=ADVANCED_FACE('',(#262),#235,.F.);
#264=CARTESIAN_POINT('',(0.171875,-0.3,-1.0));
#265=DIRECTION('',(1.0,0.0,0.0));
#266=DIRECTION('',(0.0,0.0,-1.0));
#267=AXIS2_PLACEMENT_3D('',#264,#265,#266);
#268=PLANE('',#267);
#269=ORIENTED_EDGE('',*,*,#143,.T.);
#270=CARTESIAN_POINT('',(0.171875,-3.061516E-017,-1.0));
#271=DIRECTION('',(0.0,0.0,1.0));
#272=VECTOR('',#271,0.5);
#273=LINE('',#270,#272);
#274=EDGE_CURVE('',#239,#129,#273,.T.);
#275=ORIENTED_EDGE('',*,*,#274,.F.);
#276=ORIENTED_EDGE('',*,*,#244,.F.);
#277=CARTESIAN_POINT('',(0.171875,-0.25,-0.562));
#278=VERTEX_POINT('',#277);
#279=CARTESIAN_POINT('',(0.171875,-0.25,-0.562));
#280=DIRECTION('',(0.0,0.0,-1.0));
#281=VECTOR('',#280,0.438);
#282=LINE('',#279,#281);
#283=EDGE_CURVE('',#278,#237,#282,.T.);
#284=ORIENTED_EDGE('',*,*,#283,.F.);
#285=CARTESIAN_POINT('',(0.171875,-0.562,-0.562));
#286=DIRECTION('',(-1.0,-2.760179E-016,-2.760179E-016));
#287=DIRECTION('',(-3.903482E-016,0.707106781186547,0.707106781186548));
#288=AXIS2_PLACEMENT_3D('',#285,#286,#287);
#289=CIRCLE('',#288,0.312);
#290=EDGE_CURVE('',#138,#278,#289,.T.);
#291=ORIENTED_EDGE('',*,*,#290,.F.);
#292=EDGE_LOOP('',(#269,#275,#276,#284,#291));
#293=FACE_OUTER_BOUND('',#292,.T.);
#294=ADVANCED_FACE('',(#293),#268,.F.);
#295=CARTESIAN_POINT('',(0.65625,-0.25,-0.562));
#296=DIRECTION('',(0.0,-1.0,0.0));
#297=DIRECTION('',(0.0,0.0,-1.0));
#298=AXIS2_PLACEMENT_3D('',#295,#296,#297);
#299=PLANE('',#298);
#300=ORIENTED_EDGE('',*,*,#283,.T.);
#301=ORIENTED_EDGE('',*,*,#259,.T.);
#302=ORIENTED_EDGE('',*,*,#226,.T.);
#303=CARTESIAN_POINT('',(-0.65625,-0.25,-0.562));
#304=VERTEX_POINT('',#303);
#305=CARTESIAN_POINT('',(-0.171875,-0.25,-0.562));
#306=DIRECTION('',(-1.0,0.0,0.0));
#307=VECTOR('',#306,0.484375);
#308=LINE('',#305,#307);
#309=EDGE_CURVE('',#214,#304,#308,.T.);
#310=ORIENTED_EDGE('',*,*,#309,.T.);
#311=CARTESIAN_POINT('',(-0.65625,-0.25,-1.25));
#312=VERTEX_POINT('',#311);
#313=CARTESIAN_POINT('',(-0.65625,-0.25,-0.562));
#314=DIRECTION('',(0.0,0.0,-1.0));
#315=VECTOR('',#314,0.688);
#316=LINE('',#313,#315);
#317=EDGE_CURVE('',#304,#312,#316,.T.);
#318=ORIENTED_EDGE('',*,*,#317,.T.);
#319=CARTESIAN_POINT('',(0.65625,-0.25,-1.25));
#320=VERTEX_POINT('',#319);
#321=CARTESIAN_POINT('',(0.65625,-0.25,-1.25));
#322=DIRECTION('',(-1.0,0.0,0.0));
#323=VECTOR('',#322,1.3125);
#324=LINE('',#321,#323);
#325=EDGE_CURVE('',#320,#312,#324,.T.);
#326=ORIENTED_EDGE('',*,*,#325,.F.);
#327=CARTESIAN_POINT('',(0.65625,-0.25,-0.562));
#328=VERTEX_POINT('',#327);
#329=CARTESIAN_POINT('',(0.65625,-0.25,-1.25));
#330=DIRECTION('',(0.0,0.0,1.0));
#331=VECTOR('',#330,0.688);
#332=LINE('',#329,#331);
#333=EDGE_CURVE('',#320,#328,#332,.T.);
#334=ORIENTED_EDGE('',*,*,#333,.T.);
#335=CARTESIAN_POINT('',(0.65625,-0.25,-0.562));
#336=DIRECTION('',(-1.0,0.0,0.0));
#337=VECTOR('',#336,0.484375);
#338=LINE('',#335,#337);
#339=EDGE_CURVE('',#328,#278,#338,.T.);
#340=ORIENTED_EDGE('',*,*,#339,.T.);
#341=EDGE_LOOP('',(#300,#301,#302,#310,#318,#326,#334,#340));
#342=FACE_OUTER_BOUND('',#341,.T.);
#343=ADVANCED_FACE('',(#342),#299,.T.);
#344=CARTESIAN_POINT('',(4.440892E-016,-0.75,0.0));
#345=DIRECTION('',(-1.224606E-016,1.224606E-016,-1.0));
#346=DIRECTION('',(0.0,1.0,0.0));
#347=AXIS2_PLACEMENT_3D('',#344,#345,#346);
#348=CYLINDRICAL_SURFACE('',#347,0.171875);
#349=ORIENTED_EDGE('',*,*,#84,.T.);
#350=CARTESIAN_POINT('',(4.440892E-016,-0.75,-0.25));
#351=DIRECTION('',(0.0,0.0,1.0));
#352=DIRECTION('',(0.0,1.0,0.0));
#353=AXIS2_PLACEMENT_3D('',#350,#351,#352);
#354=CIRCLE('',#353,0.171875);
#355=EDGE_CURVE('',#96,#79,#354,.T.);
#356=ORIENTED_EDGE('',*,*,#355,.F.);
#357=ORIENTED_EDGE('',*,*,#101,.F.);
#358=CARTESIAN_POINT('',(4.440892E-016,-0.75,0.0));
#359=DIRECTION('',(0.0,0.0,-1.0));
#360=DIRECTION('',(0.0,1.0,0.0));
#361=AXIS2_PLACEMENT_3D('',#358,#359,#360);
#362=CIRCLE('',#361,0.171875);
#363=EDGE_CURVE('',#77,#87,#362,.T.);
#364=ORIENTED_EDGE('',*,*,#363,.F.);
#365=EDGE_LOOP('',(#349,#356,#357,#364));
#366=FACE_OUTER_BOUND('',#365,.T.);
#367=ADVANCED_FACE('',(#366),#348,.F.);
#368=CARTESIAN_POINT('',(0.65625,4.440892E-016,-1.5));
#369=DIRECTION('',(0.0,1.0,0.0));
#370=DIRECTION('',(0.0,0.0,1.0));
#371=AXIS2_PLACEMENT_3D('',#368,#369,#370);
#372=PLANE('',#371);
#373=CARTESIAN_POINT('',(-0.65625,-4.440892E-016,-1.5));
#374=VERTEX_POINT('',#373);
#375=CARTESIAN_POINT('',(-0.65625,-4.440892E-016,0.0));
#376=VERTEX_POINT('',#375);
#377=CARTESIAN_POINT('',(-0.65625,-2.603983E-016,-1.5));
#378=DIRECTION('',(0.0,0.0,1.0));
#379=VECTOR('',#378,1.5);
#380=LINE('',#377,#379);
#381=EDGE_CURVE('',#374,#376,#380,.T.);
#382=ORIENTED_EDGE('',*,*,#381,.T.);
#383=CARTESIAN_POINT('',(0.65625,0.0,0.0));
#384=VERTEX_POINT('',#383);
#385=CARTESIAN_POINT('',(0.65625,0.0,0.0));
#386=DIRECTION('',(-1.0,0.0,0.0));
#387=VECTOR('',#386,1.3125);
#388=LINE('',#385,#387);
#389=EDGE_CURVE('',#384,#376,#388,.T.);
#390=ORIENTED_EDGE('',*,*,#389,.F.);
#391=CARTESIAN_POINT('',(0.65625,4.440892E-016,-1.5));
#392=VERTEX_POINT('',#391);
#393=CARTESIAN_POINT('',(0.65625,0.0,0.0));
#394=DIRECTION('',(0.0,0.0,-1.0));
#395=VECTOR('',#394,1.5);
#396=LINE('',#393,#395);
#397=EDGE_CURVE('',#384,#392,#396,.T.);
#398=ORIENTED_EDGE('',*,*,#397,.T.);
#399=CARTESIAN_POINT('',(0.65625,4.440892E-016,-1.5));
#400=DIRECTION('',(-1.0,0.0,0.0));
#401=VECTOR('',#400,1.3125);
#402=LINE('',#399,#401);
#403=EDGE_CURVE('',#392,#374,#402,.T.);
#404=ORIENTED_EDGE('',*,*,#403,.T.);
#405=EDGE_LOOP('',(#382,#390,#398,#404));
#406=FACE_OUTER_BOUND('',#405,.T.);
#407=ORIENTED_EDGE('',*,*,#274,.T.);
#408=ORIENTED_EDGE('',*,*,#135,.T.);
#409=ORIENTED_EDGE('',*,*,#210,.T.);
#410=ORIENTED_EDGE('',*,*,#251,.T.);
#411=EDGE_LOOP('',(#407,#408,#409,#410));
#412=FACE_BOUND('',#411,.T.);
#413=ADVANCED_FACE('',(#406,#412),#372,.T.);
#414=CARTESIAN_POINT('',(0.65625,0.0,0.0));
#415=DIRECTION('',(0.0,0.0,1.0));
#416=DIRECTION('',(0.0,-1.0,0.0));
#417=AXIS2_PLACEMENT_3D('',#414,#415,#416);
#418=PLANE('',#417);
#419=CARTESIAN_POINT('',(-0.656249999999999,-1.500000000000001,0.0));
#420=VERTEX_POINT('',#419);
#421=CARTESIAN_POINT('',(-0.65625,-4.440892E-016,1.836910E-016));
#422=DIRECTION('',(0.0,-1.0,0.0));
#423=VECTOR('',#422,1.5);
#424=LINE('',#421,#423);
#425=EDGE_CURVE('',#376,#420,#424,.T.);
#426=ORIENTED_EDGE('',*,*,#425,.T.);
#427=CARTESIAN_POINT('',(0.656250000000001,-1.5,0.0));
#428=VERTEX_POINT('',#427);
#429=CARTESIAN_POINT('',(0.656250000000001,-1.5,0.0));
#430=DIRECTION('',(-1.0,0.0,0.0));
#431=VECTOR('',#430,1.3125);
#432=LINE('',#429,#431);
#433=EDGE_CURVE('',#428,#420,#432,.T.);
#434=ORIENTED_EDGE('',*,*,#433,.F.);
#435=CARTESIAN_POINT('',(0.656250000000001,-1.5,0.0));
#436=DIRECTION('',(0.0,1.0,0.0));
#437=VECTOR('',#436,1.5);
#438=LINE('',#435,#437);
#439=EDGE_CURVE('',#428,#384,#438,.T.);
#440=ORIENTED_EDGE('',*,*,#439,.T.);
#441=ORIENTED_EDGE('',*,*,#389,.T.);
#442=EDGE_LOOP('',(#426,#434,#440,#441));
#443=FACE_OUTER_BOUND('',#442,.T.);
#444=ORIENTED_EDGE('',*,*,#363,.T.);
#445=ORIENTED_EDGE('',*,*,#93,.T.);
#446=EDGE_LOOP('',(#444,#445));
#447=FACE_BOUND('',#446,.T.);
#448=ADVANCED_FACE('',(#443,#447),#418,.T.);
#449=CARTESIAN_POINT('',(0.656250000000001,-1.25,-4.440892E-016));
#450=DIRECTION('',(-1.0,-5.053195E-016,-4.671621E-017));
#451=DIRECTION('',(3.903482E-016,-0.707106781186547,-0.707106781186548));
#452=AXIS2_PLACEMENT_3D('',#449,#450,#451);
#453=CYLINDRICAL_SURFACE('',#452,0.25);
#454=CARTESIAN_POINT('',(-0.65625,-1.25,-0.25));
#455=VERTEX_POINT('',#454);
#456=CARTESIAN_POINT('',(-0.65625,-1.250000000000001,0.0));
#457=DIRECTION('',(1.0,3.024517E-016,3.024517E-016));
#458=DIRECTION('',(4.277314E-016,-0.707106781186547,-0.707106781186548));
#459=AXIS2_PLACEMENT_3D('',#456,#457,#458);
#460=CIRCLE('',#459,0.25);
#461=EDGE_CURVE('',#420,#455,#460,.T.);
#462=ORIENTED_EDGE('',*,*,#461,.T.);
#463=CARTESIAN_POINT('',(0.656250000000001,-1.25,-0.25));
#464=VERTEX_POINT('',#463);
#465=CARTESIAN_POINT('',(0.656250000000001,-1.25,-0.25));
#466=DIRECTION('',(-1.0,0.0,0.0));
#467=VECTOR('',#466,1.3125);
#468=LINE('',#465,#467);
#469=EDGE_CURVE('',#464,#455,#468,.T.);
#470=ORIENTED_EDGE('',*,*,#469,.F.);
#471=CARTESIAN_POINT('',(0.656250000000001,-1.25,-4.440892E-016));
#472=DIRECTION('',(-1.0,-3.024517E-016,-3.024517E-016));
#473=DIRECTION('',(4.277314E-016,-0.707106781186547,-0.707106781186548));
#474=AXIS2_PLACEMENT_3D('',#471,#472,#473);
#475=CIRCLE('',#474,0.25);
#476=EDGE_CURVE('',#464,#428,#475,.T.);
#477=ORIENTED_EDGE('',*,*,#476,.T.);
#478=ORIENTED_EDGE('',*,*,#433,.T.);
#479=EDGE_LOOP('',(#462,#470,#477,#478));
#480=FACE_OUTER_BOUND('',#479,.T.);
#481=ADVANCED_FACE('',(#480),#453,.T.);
#482=CARTESIAN_POINT('',(0.656250000000001,-1.25,-0.25));
#483=DIRECTION('',(0.0,0.0,-1.0));
#484=DIRECTION('',(0.0,1.0,0.0));
#485=AXIS2_PLACEMENT_3D('',#482,#483,#484);
#486=PLANE('',#485);
#487=CARTESIAN_POINT('',(-0.65625,-0.562,-0.25));
#488=VERTEX_POINT('',#487);
#489=CARTESIAN_POINT('',(-0.65625,-1.25,-0.25));
#490=DIRECTION('',(0.0,1.0,0.0));
#491=VECTOR('',#490,0.688);
#492=LINE('',#489,#491);
#493=EDGE_CURVE('',#455,#488,#492,.T.);
#494=ORIENTED_EDGE('',*,*,#493,.T.);
#495=CARTESIAN_POINT('',(0.65625,-0.561999999999999,-0.25));
#496=VERTEX_POINT('',#495);
#497=CARTESIAN_POINT('',(0.65625,-0.561999999999999,-0.25));
#498=DIRECTION('',(-1.0,0.0,0.0));
#499=VECTOR('',#498,1.3125);
#500=LINE('',#497,#499);
#501=EDGE_CURVE('',#496,#488,#500,.T.);
#502=ORIENTED_EDGE('',*,*,#501,.F.);
#503=CARTESIAN_POINT('',(0.65625,-0.561999999999999,-0.25));
#504=DIRECTION('',(0.0,-1.0,0.0));
#505=VECTOR('',#504,0.688);
#506=LINE('',#503,#505);
#507=EDGE_CURVE('',#496,#464,#506,.T.);
#508=ORIENTED_EDGE('',*,*,#507,.T.);
#509=ORIENTED_EDGE('',*,*,#469,.T.);
#510=EDGE_LOOP('',(#494,#502,#508,#509));
#511=FACE_OUTER_BOUND('',#510,.T.);
#512=ORIENTED_EDGE('',*,*,#355,.T.);
#513=ORIENTED_EDGE('',*,*,#108,.T.);
#514=EDGE_LOOP('',(#512,#513));
#515=FACE_BOUND('',#514,.T.);
#516=ADVANCED_FACE('',(#511,#515),#486,.T.);
#517=CARTESIAN_POINT('',(0.65625,-0.561999999999999,-0.562));
#518=DIRECTION('',(-1.0,-5.053195E-016,-4.671621E-017));
#519=DIRECTION('',(-3.903482E-016,0.707106781186547,0.707106781186548));
#520=AXIS2_PLACEMENT_3D('',#517,#518,#519);
#521=CYLINDRICAL_SURFACE('',#520,0.312);
#522=ORIENTED_EDGE('',*,*,#177,.T.);
#523=ORIENTED_EDGE('',*,*,#154,.T.);
#524=ORIENTED_EDGE('',*,*,#290,.T.);
#525=ORIENTED_EDGE('',*,*,#339,.F.);
#526=CARTESIAN_POINT('',(0.65625,-0.561999999999999,-0.562));
#527=DIRECTION('',(1.0,3.024517E-016,3.024517E-016));
#528=DIRECTION('',(-4.277314E-016,0.707106781186547,0.707106781186548));
#529=AXIS2_PLACEMENT_3D('',#526,#527,#528);
#530=CIRCLE('',#529,0.312);
#531=EDGE_CURVE('',#328,#496,#530,.T.);
#532=ORIENTED_EDGE('',*,*,#531,.T.);
#533=ORIENTED_EDGE('',*,*,#501,.T.);
#534=CARTESIAN_POINT('',(-0.65625,-0.562,-0.562));
#535=DIRECTION('',(-1.0,-3.024517E-016,-3.024517E-016));
#536=DIRECTION('',(-4.277314E-016,0.707106781186547,0.707106781186548));
#537=AXIS2_PLACEMENT_3D('',#534,#535,#536);
#538=CIRCLE('',#537,0.312);
#539=EDGE_CURVE('',#488,#304,#538,.T.);
#540=ORIENTED_EDGE('',*,*,#539,.T.);
#541=ORIENTED_EDGE('',*,*,#309,.F.);
#542=ORIENTED_EDGE('',*,*,#220,.T.);
#543=ORIENTED_EDGE('',*,*,#186,.T.);
#544=EDGE_LOOP('',(#522,#523,#524,#525,#532,#533,#540,#541,#542,#543));
#545=FACE_OUTER_BOUND('',#544,.T.);
#546=ADVANCED_FACE('',(#545),#521,.F.);
#547=CARTESIAN_POINT('',(0.65625,0.0,-1.25));
#548=DIRECTION('',(-1.0,-5.053195E-016,-4.671621E-017));
#549=DIRECTION('',(3.903482E-016,-0.707106781186547,-0.707106781186548));
#550=AXIS2_PLACEMENT_3D('',#547,#548,#549);
#551=CYLINDRICAL_SURFACE('',#550,0.25);
#552=CARTESIAN_POINT('',(-0.65625,-4.440892E-016,-1.25));
#553=DIRECTION('',(1.0,3.024517E-016,3.024517E-016));
#554=DIRECTION('',(4.277314E-016,-0.707106781186547,-0.707106781186548));
#555=AXIS2_PLACEMENT_3D('',#552,#553,#554);
#556=CIRCLE('',#555,0.25);
#557=EDGE_CURVE('',#312,#374,#556,.T.);
#558=ORIENTED_EDGE('',*,*,#557,.T.);
#559=ORIENTED_EDGE('',*,*,#403,.F.);
#560=CARTESIAN_POINT('',(0.65625,0.0,-1.25));
#561=DIRECTION('',(-1.0,-3.024517E-016,-3.024517E-016));
#562=DIRECTION('',(4.277314E-016,-0.707106781186547,-0.707106781186548));
#563=AXIS2_PLACEMENT_3D('',#560,#561,#562);
#564=CIRCLE('',#563,0.25);
#565=EDGE_CURVE('',#392,#320,#564,.T.);
#566=ORIENTED_EDGE('',*,*,#565,.T.);
#567=ORIENTED_EDGE('',*,*,#325,.T.);
#568=EDGE_LOOP('',(#558,#559,#566,#567));
#569=FACE_OUTER_BOUND('',#568,.T.);
#570=ADVANCED_FACE('',(#569),#551,.T.);
#571=CARTESIAN_POINT('',(0.65625,-0.575693607486307,-0.575693607486307));
#572=DIRECTION('',(-1.0,0.0,0.0));
#573=DIRECTION('',(0.0,0.0,1.0));
#574=AXIS2_PLACEMENT_3D('',#571,#572,#573);
#575=PLANE('',#574);
#576=ORIENTED_EDGE('',*,*,#565,.F.);
#577=ORIENTED_EDGE('',*,*,#397,.F.);
#578=ORIENTED_EDGE('',*,*,#439,.F.);
#579=ORIENTED_EDGE('',*,*,#476,.F.);
#580=ORIENTED_EDGE('',*,*,#507,.F.);
#581=ORIENTED_EDGE('',*,*,#531,.F.);
#582=ORIENTED_EDGE('',*,*,#333,.F.);
#583=EDGE_LOOP('',(#576,#577,#578,#579,#580,#581,#582));
#584=FACE_OUTER_BOUND('',#583,.T.);
#585=ADVANCED_FACE('',(#584),#575,.F.);
#586=CARTESIAN_POINT('',(-0.65625,-4.440892E-016,-1.5));
#587=DIRECTION('',(-1.0,0.0,0.0));
#588=DIRECTION('',(0.0,0.0,1.0));
#589=AXIS2_PLACEMENT_3D('',#586,#587,#588);
#590=PLANE('',#589);
#591=ORIENTED_EDGE('',*,*,#381,.F.);
#592=ORIENTED_EDGE('',*,*,#557,.F.);
#593=ORIENTED_EDGE('',*,*,#317,.F.);
#594=ORIENTED_EDGE('',*,*,#539,.F.);
#595=ORIENTED_EDGE('',*,*,#493,.F.);
#596=ORIENTED_EDGE('',*,*,#461,.F.);
#597=ORIENTED_EDGE('',*,*,#425,.F.);
#598=EDGE_LOOP('',(#591,#592,#593,#594,#595,#596,#597));
#599=FACE_OUTER_BOUND('',#598,.T.);
#600=ADVANCED_FACE('',(#599),#590,.T.);
#601=CLOSED_SHELL('',(#112,#190,#230,#263,#294,#343,#367,#413,#448,#481,#516,#546,#570,#585,#600));
#602=MANIFOLD_SOLID_BREP('2C',#601);
#603=COLOUR_RGB('253',0.732,0.732,0.732);
#604=SURFACE_STYLE_USAGE(.BOTH.,#605);
#605=SURFACE_SIDE_STYLE('NONE',(#606));
#606=SURFACE_STYLE_FILL_AREA(#607);
#607=FILL_AREA_STYLE('NONE',(#608));
#608=FILL_AREA_STYLE_COLOUR('NONE',#603);
#609=PRESENTATION_STYLE_ASSIGNMENT((#604));
#610=STYLED_ITEM('NONE',(#609),#602);
#611=MECHANICAL_DESIGN_GEOMETRIC_PRESENTATION_REPRESENTATION('NONE',(#610),#34);
#612=PRESENTATION_LAYER_ASSIGNMENT('15cb4000','None',(#602));
#613=ADVANCED_BREP_SHAPE_REPRESENTATION('ABSR1',(#602),#34);
#614=SHAPE_REPRESENTATION_RELATIONSHIP('SRRPL1','',#613,#68);
ENDSEC;
END-ISO-10303-21;
