ISO-10303-21;
HEADER;
/****************************************************************
 * Generated by software with PDElib inside                    *
 * PDElib Version v51a, created Fri 09/10/2010                  *
 * ITI Transcendata (http://www.transcendata.com/)              *
 ****************************************************************/
FILE_DESCRIPTION((''),'2;1');
FILE_NAME('13AC2102.stp','2015-07-14T10:32:32',(''),(''),'Mechanical Desktop 2011','Mechanical Desktop 2011',', , ');
FILE_SCHEMA(('CONFIG_CONTROL_DESIGN'));
ENDSEC;
DATA;
#10=(NAMED_UNIT(*)PLANE_ANGLE_UNIT()SI_UNIT($,.RADIAN.));
#11=DIMENSIONAL_EXPONENTS(0.0,0.0,0.0,0.0,0.0,0.0,0.0);
#12=PLANE_ANGLE_MEASURE_WITH_UNIT(PLANE_ANGLE_MEASURE(0.0174532925),#10);
#16=(CONVERSION_BASED_UNIT('DEGREE',#12)NAMED_UNIT(#11)PLANE_ANGLE_UNIT());
#20=(NAMED_UNIT(*)SI_UNIT($,.STERADIAN.)SOLID_ANGLE_UNIT());
#24=(LENGTH_UNIT()NAMED_UNIT(*)SI_UNIT(.MILLI.,.METRE.));
#26=UNCERTAINTY_MEASURE_WITH_UNIT(LENGTH_MEASURE(0.000001),#24,'DISTANCE_ACCURACY_VALUE','');
#28=(GEOMETRIC_REPRESENTATION_CONTEXT(3)GLOBAL_UNCERTAINTY_ASSIGNED_CONTEXT((#26))GLOBAL_UNIT_ASSIGNED_CONTEXT((#16,#20,#24))REPRESENTATION_CONTEXT('','3D'));
#29=APPLICATION_CONTEXT('CONFIGURATION CONTROLLED 3D DESIGNS OF MECHANICAL PARTS AND ASSEMBLIES');
#30=APPLICATION_PROTOCOL_DEFINITION('INTERNATIONAL STANDARD','config_control_design',1995,#29);
#31=MECHANICAL_CONTEXT('3D Mechanical Parts',#29,'mechanical');
#32=PRODUCT('Product','Product',' ',(#31));
#33=PRODUCT_RELATED_PRODUCT_CATEGORY('detail',$,(#32));
#34=PRODUCT_CATEGORY('part',$);
#35=PRODUCT_CATEGORY_RELATIONSHIP('None','None',#34,#33);
#36=PERSON('1','Design','Joe',$,$,$);
#37=ORGANIZATION($,'None','None');
#38=PERSON_AND_ORGANIZATION(#36,#37);
#39=PERSON_AND_ORGANIZATION_ROLE('design_owner');
#40=CC_DESIGN_PERSON_AND_ORGANIZATION_ASSIGNMENT(#38,#39,(#32));
#41=PRODUCT_DEFINITION_FORMATION_WITH_SPECIFIED_SOURCE('None','None',#32,.BOUGHT.);
#42=PERSON('2','Creator','Joe',$,$,$);
#43=ORGANIZATION($,'None','None');
#44=PERSON_AND_ORGANIZATION(#42,#43);
#45=PERSON_AND_ORGANIZATION_ROLE('creator');
#46=CC_DESIGN_PERSON_AND_ORGANIZATION_ASSIGNMENT(#44,#45,(#41));
#47=PERSON('3','Supplier','Joe',$,$,$);
#48=ORGANIZATION($,'None','None');
#49=PERSON_AND_ORGANIZATION(#47,#48);
#50=PERSON_AND_ORGANIZATION_ROLE('design_supplier');
#51=CC_DESIGN_PERSON_AND_ORGANIZATION_ASSIGNMENT(#49,#50,(#41));
#52=APPROVAL_STATUS('approved');
#53=APPROVAL(#52,'None');
#54=PERSON('4','Approver','Joe',$,$,$);
#55=ORGANIZATION($,'None','None');
#56=PERSON_AND_ORGANIZATION(#54,#55);
#57=APPROVAL_ROLE('approver');
#58=APPROVAL_PERSON_ORGANIZATION(#56,#53,#57);
#59=COORDINATED_UNIVERSAL_TIME_OFFSET(8,$,.EXACT.);
#60=CALENDAR_DATE(1996,29,5);
#61=LOCAL_TIME(12,0,0.0,#59);
#62=DATE_AND_TIME(#60,#61);
#63=APPROVAL_DATE_TIME(#62,#53);
#64=CC_DESIGN_APPROVAL(#53,(#41));
#65=SECURITY_CLASSIFICATION_LEVEL('unclassified');
#66=SECURITY_CLASSIFICATION('security','None',#65);
#67=CC_DESIGN_SECURITY_CLASSIFICATION(#66,(#41));
#68=APPROVAL_STATUS('approved');
#69=APPROVAL(#68,'None');
#70=PERSON('5','Approver','Joe',$,$,$);
#71=ORGANIZATION($,'None','None');
#72=PERSON_AND_ORGANIZATION(#70,#71);
#73=APPROVAL_ROLE('approver');
#74=APPROVAL_PERSON_ORGANIZATION(#72,#69,#73);
#75=COORDINATED_UNIVERSAL_TIME_OFFSET(8,$,.EXACT.);
#76=CALENDAR_DATE(1996,29,5);
#77=LOCAL_TIME(12,0,0.0,#75);
#78=DATE_AND_TIME(#76,#77);
#79=APPROVAL_DATE_TIME(#78,#69);
#80=CC_DESIGN_APPROVAL(#69,(#66));
#81=PERSON('6','Classifier','Joe',$,$,$);
#82=ORGANIZATION($,'None','None');
#83=PERSON_AND_ORGANIZATION(#81,#82);
#84=PERSON_AND_ORGANIZATION_ROLE('classification_officer');
#85=CC_DESIGN_PERSON_AND_ORGANIZATION_ASSIGNMENT(#83,#84,(#66));
#86=COORDINATED_UNIVERSAL_TIME_OFFSET(8,$,.EXACT.);
#87=CALENDAR_DATE(1996,29,5);
#88=LOCAL_TIME(12,0,0.0,#86);
#89=DATE_AND_TIME(#87,#88);
#90=DATE_TIME_ROLE('classification_date');
#91=CC_DESIGN_DATE_AND_TIME_ASSIGNMENT(#89,#90,(#66));
#92=DESIGN_CONTEXT('Design Context',#29,'design');
#93=PRODUCT_DEFINITION('None','None',#41,#92);
#94=PERSON('7','Creator','Joe',$,$,$);
#95=ORGANIZATION($,'None','None');
#96=PERSON_AND_ORGANIZATION(#94,#95);
#97=PERSON_AND_ORGANIZATION_ROLE('creator');
#98=CC_DESIGN_PERSON_AND_ORGANIZATION_ASSIGNMENT(#96,#97,(#93));
#99=COORDINATED_UNIVERSAL_TIME_OFFSET(8,$,.EXACT.);
#100=CALENDAR_DATE(1996,29,5);
#101=LOCAL_TIME(12,0,0.0,#99);
#102=DATE_AND_TIME(#100,#101);
#103=DATE_TIME_ROLE('creation_date');
#104=CC_DESIGN_DATE_AND_TIME_ASSIGNMENT(#102,#103,(#93));
#105=APPROVAL_STATUS('approved');
#106=APPROVAL(#105,'None');
#107=PERSON('8','Approver','Joe',$,$,$);
#108=ORGANIZATION($,'None','None');
#109=PERSON_AND_ORGANIZATION(#107,#108);
#110=APPROVAL_ROLE('approver');
#111=APPROVAL_PERSON_ORGANIZATION(#109,#106,#110);
#112=COORDINATED_UNIVERSAL_TIME_OFFSET(8,$,.EXACT.);
#113=CALENDAR_DATE(1996,29,5);
#114=LOCAL_TIME(12,0,0.0,#112);
#115=DATE_AND_TIME(#113,#114);
#116=APPROVAL_DATE_TIME(#115,#106);
#117=CC_DESIGN_APPROVAL(#106,(#93));
#118=CARTESIAN_POINT('NONE',(0.0,0.0,0.0));
#119=DIRECTION('NONE',(0.0,0.0,1.0));
#120=DIRECTION('NONE',(1.0,0.0,0.0));
#121=AXIS2_PLACEMENT_3D('NONE',#118,#119,#120);
#122=SHAPE_REPRESENTATION('SR1',(#121),#28);
#123=PRODUCT_DEFINITION_SHAPE('PDS1','Test Part',#93);
#124=SHAPE_DEFINITION_REPRESENTATION(#123,#122);
#125=CARTESIAN_POINT('',(-10.0,-0.048788093021607,0.75));
#126=DIRECTION('',(6.991478E-016,1.0,-2.287667E-017));
#127=DIRECTION('',(0.0,0.0,1.0));
#128=AXIS2_PLACEMENT_3D('',#125,#126,#127);
#129=CYLINDRICAL_SURFACE('',#128,0.133);
#130=CARTESIAN_POINT('',(-10.0,-0.097576186043215,0.883));
#131=VERTEX_POINT('',#130);
#132=CARTESIAN_POINT('',(-10.0,1.026956E-015,0.883));
#133=VERTEX_POINT('',#132);
#134=CARTESIAN_POINT('',(-10.0,-0.097576186043215,0.883));
#135=DIRECTION('',(0.0,1.0,0.0));
#136=VECTOR('',#135,0.097576186043216);
#137=LINE('',#134,#136);
#138=EDGE_CURVE('',#131,#133,#137,.T.);
#139=ORIENTED_EDGE('',*,*,#138,.F.);
#140=CARTESIAN_POINT('',(-10.0,-0.097576186043215,0.617));
#141=VERTEX_POINT('',#140);
#142=CARTESIAN_POINT('',(-10.0,-0.097576186043215,0.75));
#143=DIRECTION('',(0.0,1.0,0.0));
#144=DIRECTION('',(0.0,0.0,1.0));
#145=AXIS2_PLACEMENT_3D('',#142,#143,#144);
#146=CIRCLE('',#145,0.133);
#147=EDGE_CURVE('',#141,#131,#146,.T.);
#148=ORIENTED_EDGE('',*,*,#147,.F.);
#149=CARTESIAN_POINT('',(-10.0,2.803313E-015,0.617));
#150=VERTEX_POINT('',#149);
#151=CARTESIAN_POINT('',(-10.0,-0.097576186043215,0.617));
#152=DIRECTION('',(0.0,1.0,0.0));
#153=VECTOR('',#152,0.097576186043218);
#154=LINE('',#151,#153);
#155=EDGE_CURVE('',#141,#150,#154,.T.);
#156=ORIENTED_EDGE('',*,*,#155,.T.);
#157=CARTESIAN_POINT('',(-10.0,2.803313E-015,0.75));
#158=DIRECTION('',(0.0,-1.0,0.0));
#159=DIRECTION('',(0.0,0.0,1.0));
#160=AXIS2_PLACEMENT_3D('',#157,#158,#159);
#161=CIRCLE('',#160,0.133);
#162=EDGE_CURVE('',#133,#150,#161,.T.);
#163=ORIENTED_EDGE('',*,*,#162,.F.);
#164=EDGE_LOOP('',(#139,#148,#156,#163));
#165=FACE_OUTER_BOUND('',#164,.T.);
#166=ADVANCED_FACE('',(#165),#129,.F.);
#167=CARTESIAN_POINT('',(-10.0,-0.173788093021607,0.75));
#168=DIRECTION('',(-6.991478E-016,-1.0,2.287667E-017));
#169=DIRECTION('',(0.0,0.0,1.0));
#170=AXIS2_PLACEMENT_3D('',#167,#168,#169);
#171=CONICAL_SURFACE('',#170,0.19925,41.000000000000007);
#172=CARTESIAN_POINT('',(-10.0,-0.249999999999999,1.0155));
#173=VERTEX_POINT('',#172);
#174=CARTESIAN_POINT('',(-10.0,-0.249999999999997,1.015499999999999));
#175=DIRECTION('',(0.0,0.754709580222772,-0.656059028990508));
#176=VECTOR('',#175,0.201963533988518);
#177=LINE('',#174,#176);
#178=EDGE_CURVE('',#173,#131,#177,.T.);
#179=ORIENTED_EDGE('',*,*,#178,.F.);
#180=CARTESIAN_POINT('',(-10.0,-0.249999999999997,0.484500000000001));
#181=VERTEX_POINT('',#180);
#182=CARTESIAN_POINT('',(-10.0,-0.249999999999997,0.75));
#183=DIRECTION('',(0.0,1.0,0.0));
#184=DIRECTION('',(0.0,0.0,1.0));
#185=AXIS2_PLACEMENT_3D('',#182,#183,#184);
#186=CIRCLE('',#185,0.265499999999999);
#187=EDGE_CURVE('',#181,#173,#186,.T.);
#188=ORIENTED_EDGE('',*,*,#187,.F.);
#189=CARTESIAN_POINT('',(-10.0,-0.249999999999997,0.484500000000001));
#190=DIRECTION('',(0.0,0.754709580222772,0.656059028990507));
#191=VECTOR('',#190,0.201963533988518);
#192=LINE('',#189,#191);
#193=EDGE_CURVE('',#181,#141,#192,.T.);
#194=ORIENTED_EDGE('',*,*,#193,.T.);
#195=ORIENTED_EDGE('',*,*,#147,.T.);
#196=EDGE_LOOP('',(#179,#188,#194,#195));
#197=FACE_OUTER_BOUND('',#196,.T.);
#198=ADVANCED_FACE('',(#197),#171,.F.);
#199=CARTESIAN_POINT('',(-6.0,-0.048788093021609,0.75));
#200=DIRECTION('',(6.991478E-016,1.0,-2.287667E-017));
#201=DIRECTION('',(0.0,0.0,1.0));
#202=AXIS2_PLACEMENT_3D('',#199,#200,#201);
#203=CYLINDRICAL_SURFACE('',#202,0.133);
#204=CARTESIAN_POINT('',(-6.0,-0.097576186043217,0.883));
#205=VERTEX_POINT('',#204);
#206=CARTESIAN_POINT('',(-6.0,-8.881784E-016,0.883));
#207=VERTEX_POINT('',#206);
#208=CARTESIAN_POINT('',(-6.0,-0.097576186043217,0.883));
#209=DIRECTION('',(0.0,1.0,0.0));
#210=VECTOR('',#209,0.097576186043216);
#211=LINE('',#208,#210);
#212=EDGE_CURVE('',#205,#207,#211,.T.);
#213=ORIENTED_EDGE('',*,*,#212,.F.);
#214=CARTESIAN_POINT('',(-6.0,-0.097576186043217,0.617));
#215=VERTEX_POINT('',#214);
#216=CARTESIAN_POINT('',(-6.0,-0.097576186043217,0.75));
#217=DIRECTION('',(0.0,1.0,0.0));
#218=DIRECTION('',(0.0,0.0,1.0));
#219=AXIS2_PLACEMENT_3D('',#216,#217,#218);
#220=CIRCLE('',#219,0.133);
#221=EDGE_CURVE('',#215,#205,#220,.T.);
#222=ORIENTED_EDGE('',*,*,#221,.F.);
#223=CARTESIAN_POINT('',(-6.0,0.0,0.617));
#224=VERTEX_POINT('',#223);
#225=CARTESIAN_POINT('',(-6.0,-0.097576186043217,0.617));
#226=DIRECTION('',(0.0,1.0,0.0));
#227=VECTOR('',#226,0.097576186043217);
#228=LINE('',#225,#227);
#229=EDGE_CURVE('',#215,#224,#228,.T.);
#230=ORIENTED_EDGE('',*,*,#229,.T.);
#231=CARTESIAN_POINT('',(-6.0,0.0,0.75));
#232=DIRECTION('',(0.0,-1.0,0.0));
#233=DIRECTION('',(0.0,0.0,1.0));
#234=AXIS2_PLACEMENT_3D('',#231,#232,#233);
#235=CIRCLE('',#234,0.133);
#236=EDGE_CURVE('',#207,#224,#235,.T.);
#237=ORIENTED_EDGE('',*,*,#236,.F.);
#238=EDGE_LOOP('',(#213,#222,#230,#237));
#239=FACE_OUTER_BOUND('',#238,.T.);
#240=ADVANCED_FACE('',(#239),#203,.F.);
#241=CARTESIAN_POINT('',(-6.0,-0.173788093021609,0.75));
#242=DIRECTION('',(-6.991478E-016,-1.0,2.287667E-017));
#243=DIRECTION('',(0.0,0.0,1.0));
#244=AXIS2_PLACEMENT_3D('',#241,#242,#243);
#245=CONICAL_SURFACE('',#244,0.19925,41.000000000000007);
#246=CARTESIAN_POINT('',(-6.0,-0.250000000000001,1.0155));
#247=VERTEX_POINT('',#246);
#248=CARTESIAN_POINT('',(-6.0,-0.25,1.015499999999999));
#249=DIRECTION('',(0.0,0.754709580222772,-0.656059028990508));
#250=VECTOR('',#249,0.201963533988519);
#251=LINE('',#248,#250);
#252=EDGE_CURVE('',#247,#205,#251,.T.);
#253=ORIENTED_EDGE('',*,*,#252,.F.);
#254=CARTESIAN_POINT('',(-6.0,-0.25,0.484500000000001));
#255=VERTEX_POINT('',#254);
#256=CARTESIAN_POINT('',(-6.0,-0.25,0.75));
#257=DIRECTION('',(0.0,1.0,0.0));
#258=DIRECTION('',(0.0,0.0,1.0));
#259=AXIS2_PLACEMENT_3D('',#256,#257,#258);
#260=CIRCLE('',#259,0.265499999999999);
#261=EDGE_CURVE('',#255,#247,#260,.T.);
#262=ORIENTED_EDGE('',*,*,#261,.F.);
#263=CARTESIAN_POINT('',(-6.0,-0.25,0.484500000000001));
#264=DIRECTION('',(0.0,0.754709580222772,0.656059028990508));
#265=VECTOR('',#264,0.201963533988519);
#266=LINE('',#263,#265);
#267=EDGE_CURVE('',#255,#215,#266,.T.);
#268=ORIENTED_EDGE('',*,*,#267,.T.);
#269=ORIENTED_EDGE('',*,*,#221,.T.);
#270=EDGE_LOOP('',(#253,#262,#268,#269));
#271=FACE_OUTER_BOUND('',#270,.T.);
#272=ADVANCED_FACE('',(#271),#245,.F.);
#273=CARTESIAN_POINT('',(-2.0,-0.048788093021611,0.75));
#274=DIRECTION('',(6.991478E-016,1.0,-2.287667E-017));
#275=DIRECTION('',(0.0,0.0,1.0));
#276=AXIS2_PLACEMENT_3D('',#273,#274,#275);
#277=CYLINDRICAL_SURFACE('',#276,0.133);
#278=CARTESIAN_POINT('',(-2.0,-0.097576186043219,0.883));
#279=VERTEX_POINT('',#278);
#280=CARTESIAN_POINT('',(-2.0,-2.775558E-015,0.883));
#281=VERTEX_POINT('',#280);
#282=CARTESIAN_POINT('',(-2.0,-0.097576186043219,0.883));
#283=DIRECTION('',(0.0,1.0,0.0));
#284=VECTOR('',#283,0.097576186043216);
#285=LINE('',#282,#284);
#286=EDGE_CURVE('',#279,#281,#285,.T.);
#287=ORIENTED_EDGE('',*,*,#286,.F.);
#288=CARTESIAN_POINT('',(-2.0,-0.097576186043219,0.617));
#289=VERTEX_POINT('',#288);
#290=CARTESIAN_POINT('',(-2.0,-0.097576186043219,0.75));
#291=DIRECTION('',(0.0,1.0,0.0));
#292=DIRECTION('',(0.0,0.0,1.0));
#293=AXIS2_PLACEMENT_3D('',#290,#291,#292);
#294=CIRCLE('',#293,0.133);
#295=EDGE_CURVE('',#289,#279,#294,.T.);
#296=ORIENTED_EDGE('',*,*,#295,.F.);
#297=CARTESIAN_POINT('',(-2.0,-2.803313E-015,0.617));
#298=VERTEX_POINT('',#297);
#299=CARTESIAN_POINT('',(-2.0,-0.097576186043219,0.617));
#300=DIRECTION('',(0.0,1.0,0.0));
#301=VECTOR('',#300,0.097576186043216);
#302=LINE('',#299,#301);
#303=EDGE_CURVE('',#289,#298,#302,.T.);
#304=ORIENTED_EDGE('',*,*,#303,.T.);
#305=CARTESIAN_POINT('',(-2.0,-2.803313E-015,0.75));
#306=DIRECTION('',(0.0,-1.0,0.0));
#307=DIRECTION('',(0.0,0.0,1.0));
#308=AXIS2_PLACEMENT_3D('',#305,#306,#307);
#309=CIRCLE('',#308,0.133);
#310=EDGE_CURVE('',#281,#298,#309,.T.);
#311=ORIENTED_EDGE('',*,*,#310,.F.);
#312=EDGE_LOOP('',(#287,#296,#304,#311));
#313=FACE_OUTER_BOUND('',#312,.T.);
#314=ADVANCED_FACE('',(#313),#277,.F.);
#315=CARTESIAN_POINT('',(-2.0,-0.173788093021611,0.75));
#316=DIRECTION('',(-6.991478E-016,-1.0,2.287667E-017));
#317=DIRECTION('',(0.0,0.0,1.0));
#318=AXIS2_PLACEMENT_3D('',#315,#316,#317);
#319=CONICAL_SURFACE('',#318,0.19925,41.000000000000007);
#320=CARTESIAN_POINT('',(-2.0,-0.250000000000003,1.0155));
#321=VERTEX_POINT('',#320);
#322=CARTESIAN_POINT('',(-2.0,-0.250000000000003,1.0155));
#323=DIRECTION('',(0.0,0.754709580222772,-0.656059028990508));
#324=VECTOR('',#323,0.20196353398852);
#325=LINE('',#322,#324);
#326=EDGE_CURVE('',#321,#279,#325,.T.);
#327=ORIENTED_EDGE('',*,*,#326,.F.);
#328=CARTESIAN_POINT('',(-2.0,-0.250000000000003,0.4845));
#329=VERTEX_POINT('',#328);
#330=CARTESIAN_POINT('',(-2.0,-0.250000000000003,0.75));
#331=DIRECTION('',(0.0,1.0,0.0));
#332=DIRECTION('',(0.0,0.0,1.0));
#333=AXIS2_PLACEMENT_3D('',#330,#331,#332);
#334=CIRCLE('',#333,0.2655);
#335=EDGE_CURVE('',#329,#321,#334,.T.);
#336=ORIENTED_EDGE('',*,*,#335,.F.);
#337=CARTESIAN_POINT('',(-2.0,-0.250000000000003,0.4845));
#338=DIRECTION('',(0.0,0.754709580222772,0.656059028990508));
#339=VECTOR('',#338,0.201963533988521);
#340=LINE('',#337,#339);
#341=EDGE_CURVE('',#329,#289,#340,.T.);
#342=ORIENTED_EDGE('',*,*,#341,.T.);
#343=ORIENTED_EDGE('',*,*,#295,.T.);
#344=EDGE_LOOP('',(#327,#336,#342,#343));
#345=FACE_OUTER_BOUND('',#344,.T.);
#346=ADVANCED_FACE('',(#345),#319,.F.);
#347=CARTESIAN_POINT('',(-2.0,-0.173788093021611,0.75));
#348=DIRECTION('',(-6.991478E-016,-1.0,2.287667E-017));
#349=DIRECTION('',(0.0,0.0,1.0));
#350=AXIS2_PLACEMENT_3D('',#347,#348,#349);
#351=CONICAL_SURFACE('',#350,0.19925,41.000000000000007);
#352=ORIENTED_EDGE('',*,*,#326,.T.);
#353=CARTESIAN_POINT('',(-2.0,-0.097576186043219,0.75));
#354=DIRECTION('',(0.0,1.0,0.0));
#355=DIRECTION('',(0.0,0.0,1.0));
#356=AXIS2_PLACEMENT_3D('',#353,#354,#355);
#357=CIRCLE('',#356,0.133);
#358=EDGE_CURVE('',#279,#289,#357,.T.);
#359=ORIENTED_EDGE('',*,*,#358,.T.);
#360=ORIENTED_EDGE('',*,*,#341,.F.);
#361=CARTESIAN_POINT('',(-2.0,-0.250000000000003,0.75));
#362=DIRECTION('',(0.0,1.0,0.0));
#363=DIRECTION('',(0.0,0.0,1.0));
#364=AXIS2_PLACEMENT_3D('',#361,#362,#363);
#365=CIRCLE('',#364,0.2655);
#366=EDGE_CURVE('',#321,#329,#365,.T.);
#367=ORIENTED_EDGE('',*,*,#366,.F.);
#368=EDGE_LOOP('',(#352,#359,#360,#367));
#369=FACE_OUTER_BOUND('',#368,.T.);
#370=ADVANCED_FACE('',(#369),#351,.F.);
#371=CARTESIAN_POINT('',(-2.0,-0.048788093021611,0.75));
#372=DIRECTION('',(6.991478E-016,1.0,-2.287667E-017));
#373=DIRECTION('',(0.0,0.0,1.0));
#374=AXIS2_PLACEMENT_3D('',#371,#372,#373);
#375=CYLINDRICAL_SURFACE('',#374,0.133);
#376=ORIENTED_EDGE('',*,*,#286,.T.);
#377=CARTESIAN_POINT('',(-2.0,-2.803313E-015,0.75));
#378=DIRECTION('',(0.0,-1.0,0.0));
#379=DIRECTION('',(0.0,0.0,1.0));
#380=AXIS2_PLACEMENT_3D('',#377,#378,#379);
#381=CIRCLE('',#380,0.133);
#382=EDGE_CURVE('',#298,#281,#381,.T.);
#383=ORIENTED_EDGE('',*,*,#382,.F.);
#384=ORIENTED_EDGE('',*,*,#303,.F.);
#385=ORIENTED_EDGE('',*,*,#358,.F.);
#386=EDGE_LOOP('',(#376,#383,#384,#385));
#387=FACE_OUTER_BOUND('',#386,.T.);
#388=ADVANCED_FACE('',(#387),#375,.F.);
#389=CARTESIAN_POINT('',(-6.0,-0.173788093021609,0.75));
#390=DIRECTION('',(-6.991478E-016,-1.0,2.287667E-017));
#391=DIRECTION('',(0.0,0.0,1.0));
#392=AXIS2_PLACEMENT_3D('',#389,#390,#391);
#393=CONICAL_SURFACE('',#392,0.19925,41.000000000000007);
#394=ORIENTED_EDGE('',*,*,#252,.T.);
#395=CARTESIAN_POINT('',(-6.0,-0.097576186043217,0.75));
#396=DIRECTION('',(0.0,1.0,0.0));
#397=DIRECTION('',(0.0,0.0,1.0));
#398=AXIS2_PLACEMENT_3D('',#395,#396,#397);
#399=CIRCLE('',#398,0.133);
#400=EDGE_CURVE('',#205,#215,#399,.T.);
#401=ORIENTED_EDGE('',*,*,#400,.T.);
#402=ORIENTED_EDGE('',*,*,#267,.F.);
#403=CARTESIAN_POINT('',(-6.0,-0.25,0.75));
#404=DIRECTION('',(0.0,1.0,0.0));
#405=DIRECTION('',(0.0,0.0,1.0));
#406=AXIS2_PLACEMENT_3D('',#403,#404,#405);
#407=CIRCLE('',#406,0.265499999999999);
#408=EDGE_CURVE('',#247,#255,#407,.T.);
#409=ORIENTED_EDGE('',*,*,#408,.F.);
#410=EDGE_LOOP('',(#394,#401,#402,#409));
#411=FACE_OUTER_BOUND('',#410,.T.);
#412=ADVANCED_FACE('',(#411),#393,.F.);
#413=CARTESIAN_POINT('',(-6.0,-0.048788093021609,0.75));
#414=DIRECTION('',(6.991478E-016,1.0,-2.287667E-017));
#415=DIRECTION('',(0.0,0.0,1.0));
#416=AXIS2_PLACEMENT_3D('',#413,#414,#415);
#417=CYLINDRICAL_SURFACE('',#416,0.133);
#418=ORIENTED_EDGE('',*,*,#212,.T.);
#419=CARTESIAN_POINT('',(-6.0,0.0,0.75));
#420=DIRECTION('',(0.0,-1.0,0.0));
#421=DIRECTION('',(0.0,0.0,1.0));
#422=AXIS2_PLACEMENT_3D('',#419,#420,#421);
#423=CIRCLE('',#422,0.133);
#424=EDGE_CURVE('',#224,#207,#423,.T.);
#425=ORIENTED_EDGE('',*,*,#424,.F.);
#426=ORIENTED_EDGE('',*,*,#229,.F.);
#427=ORIENTED_EDGE('',*,*,#400,.F.);
#428=EDGE_LOOP('',(#418,#425,#426,#427));
#429=FACE_OUTER_BOUND('',#428,.T.);
#430=ADVANCED_FACE('',(#429),#417,.F.);
#431=CARTESIAN_POINT('',(-10.0,-0.173788093021607,0.75));
#432=DIRECTION('',(-6.991478E-016,-1.0,2.287667E-017));
#433=DIRECTION('',(0.0,0.0,1.0));
#434=AXIS2_PLACEMENT_3D('',#431,#432,#433);
#435=CONICAL_SURFACE('',#434,0.19925,41.000000000000007);
#436=ORIENTED_EDGE('',*,*,#178,.T.);
#437=CARTESIAN_POINT('',(-10.0,-0.097576186043215,0.75));
#438=DIRECTION('',(0.0,1.0,0.0));
#439=DIRECTION('',(0.0,0.0,1.0));
#440=AXIS2_PLACEMENT_3D('',#437,#438,#439);
#441=CIRCLE('',#440,0.133);
#442=EDGE_CURVE('',#131,#141,#441,.T.);
#443=ORIENTED_EDGE('',*,*,#442,.T.);
#444=ORIENTED_EDGE('',*,*,#193,.F.);
#445=CARTESIAN_POINT('',(-10.0,-0.249999999999997,0.75));
#446=DIRECTION('',(0.0,1.0,0.0));
#447=DIRECTION('',(0.0,0.0,1.0));
#448=AXIS2_PLACEMENT_3D('',#445,#446,#447);
#449=CIRCLE('',#448,0.265499999999999);
#450=EDGE_CURVE('',#173,#181,#449,.T.);
#451=ORIENTED_EDGE('',*,*,#450,.F.);
#452=EDGE_LOOP('',(#436,#443,#444,#451));
#453=FACE_OUTER_BOUND('',#452,.T.);
#454=ADVANCED_FACE('',(#453),#435,.F.);
#455=CARTESIAN_POINT('',(-10.0,-0.048788093021607,0.75));
#456=DIRECTION('',(6.991478E-016,1.0,-2.287667E-017));
#457=DIRECTION('',(0.0,0.0,1.0));
#458=AXIS2_PLACEMENT_3D('',#455,#456,#457);
#459=CYLINDRICAL_SURFACE('',#458,0.133);
#460=ORIENTED_EDGE('',*,*,#138,.T.);
#461=CARTESIAN_POINT('',(-10.0,2.803313E-015,0.75));
#462=DIRECTION('',(0.0,-1.0,0.0));
#463=DIRECTION('',(0.0,0.0,1.0));
#464=AXIS2_PLACEMENT_3D('',#461,#462,#463);
#465=CIRCLE('',#464,0.133);
#466=EDGE_CURVE('',#150,#133,#465,.T.);
#467=ORIENTED_EDGE('',*,*,#466,.F.);
#468=ORIENTED_EDGE('',*,*,#155,.F.);
#469=ORIENTED_EDGE('',*,*,#442,.F.);
#470=EDGE_LOOP('',(#460,#467,#468,#469));
#471=FACE_OUTER_BOUND('',#470,.T.);
#472=ADVANCED_FACE('',(#471),#459,.F.);
#473=CARTESIAN_POINT('',(0.0,-0.250000000000004,0.0));
#474=DIRECTION('',(1.0,0.0,0.0));
#475=DIRECTION('',(0.0,0.0,1.0));
#476=AXIS2_PLACEMENT_3D('',#473,#474,#475);
#477=PLANE('',#476);
#478=CARTESIAN_POINT('',(0.0,-0.250000000000004,0.0));
#479=VERTEX_POINT('',#478);
#480=CARTESIAN_POINT('',(0.0,-0.250000000000004,1.5));
#481=VERTEX_POINT('',#480);
#482=CARTESIAN_POINT('',(0.0,-0.250000000000004,0.0));
#483=DIRECTION('',(0.0,0.0,1.0));
#484=VECTOR('',#483,1.5);
#485=LINE('',#482,#484);
#486=EDGE_CURVE('',#479,#481,#485,.T.);
#487=ORIENTED_EDGE('',*,*,#486,.F.);
#488=CARTESIAN_POINT('',(0.0,-3.719247E-015,0.0));
#489=VERTEX_POINT('',#488);
#490=CARTESIAN_POINT('',(0.0,-3.719247E-015,0.0));
#491=DIRECTION('',(0.0,-1.0,0.0));
#492=VECTOR('',#491,0.25);
#493=LINE('',#490,#492);
#494=EDGE_CURVE('',#489,#479,#493,.T.);
#495=ORIENTED_EDGE('',*,*,#494,.F.);
#496=CARTESIAN_POINT('',(0.0,-3.663736E-015,1.125));
#497=VERTEX_POINT('',#496);
#498=CARTESIAN_POINT('',(0.0,-3.663736E-015,1.125));
#499=DIRECTION('',(0.0,0.0,-1.0));
#500=VECTOR('',#499,1.125);
#501=LINE('',#498,#500);
#502=EDGE_CURVE('',#497,#489,#501,.T.);
#503=ORIENTED_EDGE('',*,*,#502,.F.);
#504=CARTESIAN_POINT('',(0.0,-0.160000000000004,1.125));
#505=VERTEX_POINT('',#504);
#506=CARTESIAN_POINT('',(0.0,-0.160000000000004,1.125));
#507=DIRECTION('',(0.0,1.0,0.0));
#508=VECTOR('',#507,0.16);
#509=LINE('',#506,#508);
#510=EDGE_CURVE('',#505,#497,#509,.T.);
#511=ORIENTED_EDGE('',*,*,#510,.F.);
#512=CARTESIAN_POINT('',(0.0,-0.160000000000004,1.5));
#513=VERTEX_POINT('',#512);
#514=CARTESIAN_POINT('',(0.0,-0.160000000000004,1.5));
#515=DIRECTION('',(0.0,0.0,-1.0));
#516=VECTOR('',#515,0.375);
#517=LINE('',#514,#516);
#518=EDGE_CURVE('',#513,#505,#517,.T.);
#519=ORIENTED_EDGE('',*,*,#518,.F.);
#520=CARTESIAN_POINT('',(0.0,-0.250000000000004,1.5));
#521=DIRECTION('',(0.0,1.0,0.0));
#522=VECTOR('',#521,0.09);
#523=LINE('',#520,#522);
#524=EDGE_CURVE('',#481,#513,#523,.T.);
#525=ORIENTED_EDGE('',*,*,#524,.F.);
#526=EDGE_LOOP('',(#487,#495,#503,#511,#519,#525));
#527=FACE_OUTER_BOUND('',#526,.T.);
#528=ADVANCED_FACE('',(#527),#477,.T.);
#529=CARTESIAN_POINT('',(-12.0,-0.249999999999996,0.0));
#530=DIRECTION('',(0.0,-1.0,0.0));
#531=DIRECTION('',(0.0,0.0,1.0));
#532=AXIS2_PLACEMENT_3D('',#529,#530,#531);
#533=PLANE('',#532);
#534=CARTESIAN_POINT('',(-12.0,-0.249999999999996,1.5));
#535=VERTEX_POINT('',#534);
#536=CARTESIAN_POINT('',(-12.0,-0.249999999999996,1.5));
#537=DIRECTION('',(1.0,0.0,0.0));
#538=VECTOR('',#537,12.0);
#539=LINE('',#536,#538);
#540=EDGE_CURVE('',#535,#481,#539,.T.);
#541=ORIENTED_EDGE('',*,*,#540,.F.);
#542=CARTESIAN_POINT('',(-12.0,-0.249999999999996,0.0));
#543=VERTEX_POINT('',#542);
#544=CARTESIAN_POINT('',(-12.0,-0.249999999999996,0.0));
#545=DIRECTION('',(0.0,0.0,1.0));
#546=VECTOR('',#545,1.5);
#547=LINE('',#544,#546);
#548=EDGE_CURVE('',#543,#535,#547,.T.);
#549=ORIENTED_EDGE('',*,*,#548,.F.);
#550=CARTESIAN_POINT('',(-12.0,-0.249999999999996,0.0));
#551=DIRECTION('',(1.0,0.0,0.0));
#552=VECTOR('',#551,12.0);
#553=LINE('',#550,#552);
#554=EDGE_CURVE('',#543,#479,#553,.T.);
#555=ORIENTED_EDGE('',*,*,#554,.T.);
#556=ORIENTED_EDGE('',*,*,#486,.T.);
#557=EDGE_LOOP('',(#541,#549,#555,#556));
#558=FACE_OUTER_BOUND('',#557,.T.);
#559=ORIENTED_EDGE('',*,*,#366,.T.);
#560=ORIENTED_EDGE('',*,*,#335,.T.);
#561=EDGE_LOOP('',(#559,#560));
#562=FACE_BOUND('',#561,.T.);
#563=ORIENTED_EDGE('',*,*,#408,.T.);
#564=ORIENTED_EDGE('',*,*,#261,.T.);
#565=EDGE_LOOP('',(#563,#564));
#566=FACE_BOUND('',#565,.T.);
#567=ORIENTED_EDGE('',*,*,#450,.T.);
#568=ORIENTED_EDGE('',*,*,#187,.T.);
#569=EDGE_LOOP('',(#567,#568));
#570=FACE_BOUND('',#569,.T.);
#571=ADVANCED_FACE('',(#558,#562,#566,#570),#533,.T.);
#572=CARTESIAN_POINT('',(-12.0,-0.249999999999996,1.5));
#573=DIRECTION('',(0.0,0.0,1.0));
#574=DIRECTION('',(-1.0,0.0,0.0));
#575=AXIS2_PLACEMENT_3D('',#572,#573,#574);
#576=PLANE('',#575);
#577=CARTESIAN_POINT('',(-12.0,-0.159999999999996,1.5));
#578=VERTEX_POINT('',#577);
#579=CARTESIAN_POINT('',(-12.0,-0.159999999999996,1.5));
#580=DIRECTION('',(1.0,0.0,0.0));
#581=VECTOR('',#580,12.0);
#582=LINE('',#579,#581);
#583=EDGE_CURVE('',#578,#513,#582,.T.);
#584=ORIENTED_EDGE('',*,*,#583,.F.);
#585=CARTESIAN_POINT('',(-12.0,-0.249999999999996,1.5));
#586=DIRECTION('',(0.0,1.0,0.0));
#587=VECTOR('',#586,0.09);
#588=LINE('',#585,#587);
#589=EDGE_CURVE('',#535,#578,#588,.T.);
#590=ORIENTED_EDGE('',*,*,#589,.F.);
#591=ORIENTED_EDGE('',*,*,#540,.T.);
#592=ORIENTED_EDGE('',*,*,#524,.T.);
#593=EDGE_LOOP('',(#584,#590,#591,#592));
#594=FACE_OUTER_BOUND('',#593,.T.);
#595=ADVANCED_FACE('',(#594),#576,.T.);
#596=CARTESIAN_POINT('',(-12.0,-0.159999999999996,1.5));
#597=DIRECTION('',(0.0,1.0,0.0));
#598=DIRECTION('',(0.0,0.0,-1.0));
#599=AXIS2_PLACEMENT_3D('',#596,#597,#598);
#600=PLANE('',#599);
#601=CARTESIAN_POINT('',(-12.0,-0.159999999999996,1.125));
#602=VERTEX_POINT('',#601);
#603=CARTESIAN_POINT('',(-12.0,-0.159999999999996,1.125));
#604=DIRECTION('',(1.0,0.0,0.0));
#605=VECTOR('',#604,12.0);
#606=LINE('',#603,#605);
#607=EDGE_CURVE('',#602,#505,#606,.T.);
#608=ORIENTED_EDGE('',*,*,#607,.F.);
#609=CARTESIAN_POINT('',(-12.0,-0.159999999999996,1.5));
#610=DIRECTION('',(0.0,0.0,-1.0));
#611=VECTOR('',#610,0.375);
#612=LINE('',#609,#611);
#613=EDGE_CURVE('',#578,#602,#612,.T.);
#614=ORIENTED_EDGE('',*,*,#613,.F.);
#615=ORIENTED_EDGE('',*,*,#583,.T.);
#616=ORIENTED_EDGE('',*,*,#518,.T.);
#617=EDGE_LOOP('',(#608,#614,#615,#616));
#618=FACE_OUTER_BOUND('',#617,.T.);
#619=ADVANCED_FACE('',(#618),#600,.T.);
#620=CARTESIAN_POINT('',(-12.0,-0.159999999999996,1.125));
#621=DIRECTION('',(0.0,0.0,1.0));
#622=DIRECTION('',(-1.0,0.0,0.0));
#623=AXIS2_PLACEMENT_3D('',#620,#621,#622);
#624=PLANE('',#623);
#625=CARTESIAN_POINT('',(-12.0,4.191092E-015,1.125));
#626=VERTEX_POINT('',#625);
#627=CARTESIAN_POINT('',(-12.0,4.191092E-015,1.125));
#628=DIRECTION('',(1.0,0.0,0.0));
#629=VECTOR('',#628,12.0);
#630=LINE('',#627,#629);
#631=EDGE_CURVE('',#626,#497,#630,.T.);
#632=ORIENTED_EDGE('',*,*,#631,.F.);
#633=CARTESIAN_POINT('',(-12.0,-0.159999999999996,1.125));
#634=DIRECTION('',(0.0,1.0,0.0));
#635=VECTOR('',#634,0.16);
#636=LINE('',#633,#635);
#637=EDGE_CURVE('',#602,#626,#636,.T.);
#638=ORIENTED_EDGE('',*,*,#637,.F.);
#639=ORIENTED_EDGE('',*,*,#607,.T.);
#640=ORIENTED_EDGE('',*,*,#510,.T.);
#641=EDGE_LOOP('',(#632,#638,#639,#640));
#642=FACE_OUTER_BOUND('',#641,.T.);
#643=ADVANCED_FACE('',(#642),#624,.T.);
#644=CARTESIAN_POINT('',(-12.0,4.191092E-015,1.125));
#645=DIRECTION('',(0.0,1.0,0.0));
#646=DIRECTION('',(0.0,0.0,-1.0));
#647=AXIS2_PLACEMENT_3D('',#644,#645,#646);
#648=PLANE('',#647);
#649=CARTESIAN_POINT('',(-12.0,4.024558E-015,0.0));
#650=VERTEX_POINT('',#649);
#651=CARTESIAN_POINT('',(-12.0,4.024558E-015,0.0));
#652=DIRECTION('',(1.0,0.0,0.0));
#653=VECTOR('',#652,12.0);
#654=LINE('',#651,#653);
#655=EDGE_CURVE('',#650,#489,#654,.T.);
#656=ORIENTED_EDGE('',*,*,#655,.F.);
#657=CARTESIAN_POINT('',(-12.0,4.191092E-015,1.125));
#658=DIRECTION('',(0.0,0.0,-1.0));
#659=VECTOR('',#658,1.125);
#660=LINE('',#657,#659);
#661=EDGE_CURVE('',#626,#650,#660,.T.);
#662=ORIENTED_EDGE('',*,*,#661,.F.);
#663=ORIENTED_EDGE('',*,*,#631,.T.);
#664=ORIENTED_EDGE('',*,*,#502,.T.);
#665=EDGE_LOOP('',(#656,#662,#663,#664));
#666=FACE_OUTER_BOUND('',#665,.T.);
#667=ORIENTED_EDGE('',*,*,#310,.T.);
#668=ORIENTED_EDGE('',*,*,#382,.T.);
#669=EDGE_LOOP('',(#667,#668));
#670=FACE_BOUND('',#669,.T.);
#671=ORIENTED_EDGE('',*,*,#236,.T.);
#672=ORIENTED_EDGE('',*,*,#424,.T.);
#673=EDGE_LOOP('',(#671,#672));
#674=FACE_BOUND('',#673,.T.);
#675=ORIENTED_EDGE('',*,*,#162,.T.);
#676=ORIENTED_EDGE('',*,*,#466,.T.);
#677=EDGE_LOOP('',(#675,#676));
#678=FACE_BOUND('',#677,.T.);
#679=ADVANCED_FACE('',(#666,#670,#674,#678),#648,.T.);
#680=CARTESIAN_POINT('',(-12.0,4.024558E-015,0.0));
#681=DIRECTION('',(0.0,0.0,-1.0));
#682=DIRECTION('',(1.0,0.0,0.0));
#683=AXIS2_PLACEMENT_3D('',#680,#681,#682);
#684=PLANE('',#683);
#685=ORIENTED_EDGE('',*,*,#554,.F.);
#686=CARTESIAN_POINT('',(-12.0,4.024558E-015,0.0));
#687=DIRECTION('',(0.0,-1.0,0.0));
#688=VECTOR('',#687,0.25);
#689=LINE('',#686,#688);
#690=EDGE_CURVE('',#650,#543,#689,.T.);
#691=ORIENTED_EDGE('',*,*,#690,.F.);
#692=ORIENTED_EDGE('',*,*,#655,.T.);
#693=ORIENTED_EDGE('',*,*,#494,.T.);
#694=EDGE_LOOP('',(#685,#691,#692,#693));
#695=FACE_OUTER_BOUND('',#694,.T.);
#696=ADVANCED_FACE('',(#695),#684,.T.);
#697=CARTESIAN_POINT('',(-12.0,-0.136666666666663,0.875));
#698=DIRECTION('',(1.0,0.0,0.0));
#699=DIRECTION('',(0.0,0.0,1.0));
#700=AXIS2_PLACEMENT_3D('',#697,#698,#699);
#701=PLANE('',#700);
#702=ORIENTED_EDGE('',*,*,#690,.T.);
#703=ORIENTED_EDGE('',*,*,#548,.T.);
#704=ORIENTED_EDGE('',*,*,#589,.T.);
#705=ORIENTED_EDGE('',*,*,#613,.T.);
#706=ORIENTED_EDGE('',*,*,#637,.T.);
#707=ORIENTED_EDGE('',*,*,#661,.T.);
#708=EDGE_LOOP('',(#702,#703,#704,#705,#706,#707));
#709=FACE_OUTER_BOUND('',#708,.T.);
#710=ADVANCED_FACE('',(#709),#701,.F.);
#711=CLOSED_SHELL('',(#166,#198,#240,#272,#314,#346,#370,#388,#412,#430,#454,#472,#528,#571,#595,#619,#643,#679,#696,#710));
#712=MANIFOLD_SOLID_BREP('FA',#711);
#713=ADVANCED_BREP_SHAPE_REPRESENTATION('ABSR1',(#712),#28);
#714=SHAPE_REPRESENTATION_RELATIONSHIP('SRRPL1','',#713,#122);
ENDSEC;
END-ISO-10303-21;
