ISO-10303-21;
HEADER;
/****************************************************************
 * Generated by software with PDElib inside                    *
 * PDElib Version v51a, created Fri 09/10/2010                  *
 * ITI Transcendata (http://www.transcendata.com/)              *
 ****************************************************************/
FILE_DESCRIPTION((''),'2;1');
FILE_NAME('13AC2101.stp','2015-07-14T10:31:34',(''),(''),'Mechanical Desktop 2011','Mechanical Desktop 2011',', , ');
FILE_SCHEMA(('AUTOMOTIVE_DESIGN { 1 2 10303 214 1 1 1 1 }'));
ENDSEC;
DATA;
#10=(NAMED_UNIT(*)PLANE_ANGLE_UNIT()SI_UNIT($,.RADIAN.));
#11=DIMENSIONAL_EXPONENTS(0.0,0.0,0.0,0.0,0.0,0.0,0.0);
#12=PLANE_ANGLE_MEASURE_WITH_UNIT(PLANE_ANGLE_MEASURE(0.0174532925),#10);
#16=(CONVERSION_BASED_UNIT('DEGREE',#12)NAMED_UNIT(#11)PLANE_ANGLE_UNIT());
#20=(NAMED_UNIT(*)SI_UNIT($,.STERADIAN.)SOLID_ANGLE_UNIT());
#24=(LENGTH_UNIT()NAMED_UNIT(*)SI_UNIT(.CENTI.,.METRE.));
#25=DIMENSIONAL_EXPONENTS(1.0,0.0,0.0,0.0,0.0,0.0,0.0);
#26=LENGTH_MEASURE_WITH_UNIT(LENGTH_MEASURE(2.54),#24);
#30=(CONVERSION_BASED_UNIT('INCH',#26)LENGTH_UNIT()NAMED_UNIT(#25));
#32=UNCERTAINTY_MEASURE_WITH_UNIT(LENGTH_MEASURE(0.000001),#30,'DISTANCE_ACCURACY_VALUE','');
#34=(GEOMETRIC_REPRESENTATION_CONTEXT(3)GLOBAL_UNCERTAINTY_ASSIGNED_CONTEXT((#32))GLOBAL_UNIT_ASSIGNED_CONTEXT((#16,#20,#30))REPRESENTATION_CONTEXT('','3D'));
#35=APPLICATION_CONTEXT('automotive design');
#36=APPLICATION_PROTOCOL_DEFINITION('INTERNATIONAL_STANDARD','automotive_design',1998,#35);
#37=PRODUCT_CONTEXT('3D Mechanical Parts',#35,'mechanical');
#38=PRODUCT('Product','Product','',(#37));
#39=PRODUCT_RELATED_PRODUCT_CATEGORY('part',$,(#38));
#40=PRODUCT_CATEGORY('part',$);
#41=PERSON('1','Design','Joe',$,$,$);
#42=ORGANIZATION($,'None','None');
#43=PERSON_AND_ORGANIZATION(#41,#42);
#44=PERSON_AND_ORGANIZATION_ROLE('design_owner');
#45=APPLIED_PERSON_AND_ORGANIZATION_ASSIGNMENT(#43,#44,(#38));
#46=PRODUCT_DEFINITION_FORMATION_WITH_SPECIFIED_SOURCE('None','',#38,.BOUGHT.);
#47=PERSON('2','Creator','Joe',$,$,$);
#48=ORGANIZATION($,'None','None');
#49=PERSON_AND_ORGANIZATION(#47,#48);
#50=PERSON_AND_ORGANIZATION_ROLE('creator');
#51=APPLIED_PERSON_AND_ORGANIZATION_ASSIGNMENT(#49,#50,(#46));
#52=PERSON('3','Supplier','Joe',$,$,$);
#53=ORGANIZATION($,'None','None');
#54=PERSON_AND_ORGANIZATION(#52,#53);
#55=PERSON_AND_ORGANIZATION_ROLE('design_supplier');
#56=APPLIED_PERSON_AND_ORGANIZATION_ASSIGNMENT(#54,#55,(#46));
#57=PRODUCT_DEFINITION_CONTEXT('part definition',#35,'design');
#58=PRODUCT_DEFINITION('None','',#46,#57);
#59=PERSON('4','Creator','Joe',$,$,$);
#60=ORGANIZATION($,'None','None');
#61=PERSON_AND_ORGANIZATION(#59,#60);
#62=PERSON_AND_ORGANIZATION_ROLE('creator');
#63=APPLIED_PERSON_AND_ORGANIZATION_ASSIGNMENT(#61,#62,(#58));
#64=CARTESIAN_POINT('NONE',(0.0,0.0,0.0));
#65=DIRECTION('NONE',(0.0,0.0,1.0));
#66=DIRECTION('NONE',(1.0,0.0,0.0));
#67=AXIS2_PLACEMENT_3D('NONE',#64,#65,#66);
#68=SHAPE_REPRESENTATION('SR1',(#67),#34);
#69=PRODUCT_DEFINITION_SHAPE('PDS1','Test Part',#58);
#70=SHAPE_DEFINITION_REPRESENTATION(#69,#68);
#71=CARTESIAN_POINT('',(-4.75,-0.04878809302161,0.75));
#72=DIRECTION('',(1.408433E-015,1.0,-2.287667E-017));
#73=DIRECTION('',(0.0,0.0,1.0));
#74=AXIS2_PLACEMENT_3D('',#71,#72,#73);
#75=CYLINDRICAL_SURFACE('',#74,0.133);
#76=CARTESIAN_POINT('',(-4.75,-0.097576186043218,0.883));
#77=VERTEX_POINT('',#76);
#78=CARTESIAN_POINT('',(-4.75,-1.609823E-015,0.883));
#79=VERTEX_POINT('',#78);
#80=CARTESIAN_POINT('',(-4.75,-0.097576186043218,0.883));
#81=DIRECTION('',(0.0,1.0,0.0));
#82=VECTOR('',#81,0.097576186043216);
#83=LINE('',#80,#82);
#84=EDGE_CURVE('',#77,#79,#83,.T.);
#85=ORIENTED_EDGE('',*,*,#84,.F.);
#86=CARTESIAN_POINT('',(-4.75,-0.097576186043218,0.617));
#87=VERTEX_POINT('',#86);
#88=CARTESIAN_POINT('',(-4.75,-0.097576186043218,0.75));
#89=DIRECTION('',(0.0,1.0,0.0));
#90=DIRECTION('',(0.0,0.0,1.0));
#91=AXIS2_PLACEMENT_3D('',#88,#89,#90);
#92=CIRCLE('',#91,0.133);
#93=EDGE_CURVE('',#87,#77,#92,.T.);
#94=ORIENTED_EDGE('',*,*,#93,.F.);
#95=CARTESIAN_POINT('',(-4.75,0.0,0.617));
#96=VERTEX_POINT('',#95);
#97=CARTESIAN_POINT('',(-4.75,-0.097576186043218,0.617));
#98=DIRECTION('',(0.0,1.0,0.0));
#99=VECTOR('',#98,0.097576186043218);
#100=LINE('',#97,#99);
#101=EDGE_CURVE('',#87,#96,#100,.T.);
#102=ORIENTED_EDGE('',*,*,#101,.T.);
#103=CARTESIAN_POINT('',(-4.75,0.0,0.75));
#104=DIRECTION('',(0.0,-1.0,0.0));
#105=DIRECTION('',(0.0,0.0,1.0));
#106=AXIS2_PLACEMENT_3D('',#103,#104,#105);
#107=CIRCLE('',#106,0.133);
#108=EDGE_CURVE('',#79,#96,#107,.T.);
#109=ORIENTED_EDGE('',*,*,#108,.F.);
#110=EDGE_LOOP('',(#85,#94,#102,#109));
#111=FACE_OUTER_BOUND('',#110,.T.);
#112=ADVANCED_FACE('',(#111),#75,.F.);
#113=CARTESIAN_POINT('',(-4.75,-0.17378809302161,0.75));
#114=DIRECTION('',(-1.408433E-015,-1.0,2.287667E-017));
#115=DIRECTION('',(0.0,0.0,1.0));
#116=AXIS2_PLACEMENT_3D('',#113,#114,#115);
#117=CONICAL_SURFACE('',#116,0.19925,41.000000000000007);
#118=CARTESIAN_POINT('',(-4.75,-0.250000000000002,1.0155));
#119=VERTEX_POINT('',#118);
#120=CARTESIAN_POINT('',(-4.75,-0.25,1.015499999999999));
#121=DIRECTION('',(0.0,0.754709580222772,-0.656059028990507));
#122=VECTOR('',#121,0.201963533988518);
#123=LINE('',#120,#122);
#124=EDGE_CURVE('',#119,#77,#123,.T.);
#125=ORIENTED_EDGE('',*,*,#124,.F.);
#126=CARTESIAN_POINT('',(-4.75,-0.25,0.484500000000001));
#127=VERTEX_POINT('',#126);
#128=CARTESIAN_POINT('',(-4.75,-0.25,0.75));
#129=DIRECTION('',(0.0,1.0,0.0));
#130=DIRECTION('',(0.0,0.0,1.0));
#131=AXIS2_PLACEMENT_3D('',#128,#129,#130);
#132=CIRCLE('',#131,0.265499999999999);
#133=EDGE_CURVE('',#127,#119,#132,.T.);
#134=ORIENTED_EDGE('',*,*,#133,.F.);
#135=CARTESIAN_POINT('',(-4.75,-0.25,0.484500000000001));
#136=DIRECTION('',(0.0,0.754709580222772,0.656059028990507));
#137=VECTOR('',#136,0.201963533988518);
#138=LINE('',#135,#137);
#139=EDGE_CURVE('',#127,#87,#138,.T.);
#140=ORIENTED_EDGE('',*,*,#139,.T.);
#141=ORIENTED_EDGE('',*,*,#93,.T.);
#142=EDGE_LOOP('',(#125,#134,#140,#141));
#143=FACE_OUTER_BOUND('',#142,.T.);
#144=ADVANCED_FACE('',(#143),#117,.F.);
#145=CARTESIAN_POINT('',(-1.25,-0.04878809302161,0.75));
#146=DIRECTION('',(1.408433E-015,1.0,-2.287667E-017));
#147=DIRECTION('',(0.0,0.0,1.0));
#148=AXIS2_PLACEMENT_3D('',#145,#146,#147);
#149=CYLINDRICAL_SURFACE('',#148,0.133);
#150=CARTESIAN_POINT('',(-1.25,-0.097576186043218,0.883));
#151=VERTEX_POINT('',#150);
#152=CARTESIAN_POINT('',(-1.25,-2.053913E-015,0.883));
#153=VERTEX_POINT('',#152);
#154=CARTESIAN_POINT('',(-1.25,-0.097576186043218,0.883));
#155=DIRECTION('',(0.0,1.0,0.0));
#156=VECTOR('',#155,0.097576186043213);
#157=LINE('',#154,#156);
#158=EDGE_CURVE('',#151,#153,#157,.T.);
#159=ORIENTED_EDGE('',*,*,#158,.F.);
#160=CARTESIAN_POINT('',(-1.25,-0.097576186043218,0.617));
#161=VERTEX_POINT('',#160);
#162=CARTESIAN_POINT('',(-1.25,-0.097576186043218,0.75));
#163=DIRECTION('',(0.0,1.0,0.0));
#164=DIRECTION('',(0.0,0.0,1.0));
#165=AXIS2_PLACEMENT_3D('',#162,#163,#164);
#166=CIRCLE('',#165,0.133);
#167=EDGE_CURVE('',#161,#151,#166,.T.);
#168=ORIENTED_EDGE('',*,*,#167,.F.);
#169=CARTESIAN_POINT('',(-1.25,-4.829470E-015,0.617));
#170=VERTEX_POINT('',#169);
#171=CARTESIAN_POINT('',(-1.25,-0.097576186043218,0.617));
#172=DIRECTION('',(0.0,1.0,0.0));
#173=VECTOR('',#172,0.097576186043213);
#174=LINE('',#171,#173);
#175=EDGE_CURVE('',#161,#170,#174,.T.);
#176=ORIENTED_EDGE('',*,*,#175,.T.);
#177=CARTESIAN_POINT('',(-1.25,-4.829470E-015,0.75));
#178=DIRECTION('',(0.0,-1.0,0.0));
#179=DIRECTION('',(0.0,0.0,1.0));
#180=AXIS2_PLACEMENT_3D('',#177,#178,#179);
#181=CIRCLE('',#180,0.133);
#182=EDGE_CURVE('',#153,#170,#181,.T.);
#183=ORIENTED_EDGE('',*,*,#182,.F.);
#184=EDGE_LOOP('',(#159,#168,#176,#183));
#185=FACE_OUTER_BOUND('',#184,.T.);
#186=ADVANCED_FACE('',(#185),#149,.F.);
#187=CARTESIAN_POINT('',(-1.25,-0.17378809302161,0.75));
#188=DIRECTION('',(-1.408433E-015,-1.0,2.287667E-017));
#189=DIRECTION('',(0.0,0.0,1.0));
#190=AXIS2_PLACEMENT_3D('',#187,#188,#189);
#191=CONICAL_SURFACE('',#190,0.19925,41.000000000000007);
#192=CARTESIAN_POINT('',(-1.25,-0.250000000000002,1.0155));
#193=VERTEX_POINT('',#192);
#194=CARTESIAN_POINT('',(-1.25,-0.250000000000002,1.0155));
#195=DIRECTION('',(0.0,0.754709580222772,-0.656059028990507));
#196=VECTOR('',#195,0.20196353398852);
#197=LINE('',#194,#196);
#198=EDGE_CURVE('',#193,#151,#197,.T.);
#199=ORIENTED_EDGE('',*,*,#198,.F.);
#200=CARTESIAN_POINT('',(-1.25,-0.250000000000005,0.484499999999997));
#201=VERTEX_POINT('',#200);
#202=CARTESIAN_POINT('',(-1.25,-0.250000000000005,0.75));
#203=DIRECTION('',(0.0,1.0,0.0));
#204=DIRECTION('',(0.0,0.0,1.0));
#205=AXIS2_PLACEMENT_3D('',#202,#203,#204);
#206=CIRCLE('',#205,0.265500000000003);
#207=EDGE_CURVE('',#201,#193,#206,.T.);
#208=ORIENTED_EDGE('',*,*,#207,.F.);
#209=CARTESIAN_POINT('',(-1.25,-0.250000000000005,0.484499999999997));
#210=DIRECTION('',(2.198858E-015,0.754709580222772,0.656059028990508));
#211=VECTOR('',#210,0.201963533988524);
#212=LINE('',#209,#211);
#213=EDGE_CURVE('',#201,#161,#212,.T.);
#214=ORIENTED_EDGE('',*,*,#213,.T.);
#215=ORIENTED_EDGE('',*,*,#167,.T.);
#216=EDGE_LOOP('',(#199,#208,#214,#215));
#217=FACE_OUTER_BOUND('',#216,.T.);
#218=ADVANCED_FACE('',(#217),#191,.F.);
#219=CARTESIAN_POINT('',(-1.25,-0.17378809302161,0.75));
#220=DIRECTION('',(-1.408433E-015,-1.0,2.287667E-017));
#221=DIRECTION('',(0.0,0.0,1.0));
#222=AXIS2_PLACEMENT_3D('',#219,#220,#221);
#223=CONICAL_SURFACE('',#222,0.19925,41.000000000000007);
#224=ORIENTED_EDGE('',*,*,#198,.T.);
#225=CARTESIAN_POINT('',(-1.25,-0.097576186043218,0.75));
#226=DIRECTION('',(0.0,1.0,0.0));
#227=DIRECTION('',(0.0,0.0,1.0));
#228=AXIS2_PLACEMENT_3D('',#225,#226,#227);
#229=CIRCLE('',#228,0.133);
#230=EDGE_CURVE('',#151,#161,#229,.T.);
#231=ORIENTED_EDGE('',*,*,#230,.T.);
#232=ORIENTED_EDGE('',*,*,#213,.F.);
#233=CARTESIAN_POINT('',(-1.25,-0.250000000000005,0.75));
#234=DIRECTION('',(0.0,1.0,0.0));
#235=DIRECTION('',(0.0,0.0,1.0));
#236=AXIS2_PLACEMENT_3D('',#233,#234,#235);
#237=CIRCLE('',#236,0.265500000000003);
#238=EDGE_CURVE('',#193,#201,#237,.T.);
#239=ORIENTED_EDGE('',*,*,#238,.F.);
#240=EDGE_LOOP('',(#224,#231,#232,#239));
#241=FACE_OUTER_BOUND('',#240,.T.);
#242=ADVANCED_FACE('',(#241),#223,.F.);
#243=CARTESIAN_POINT('',(-1.25,-0.04878809302161,0.75));
#244=DIRECTION('',(1.408433E-015,1.0,-2.287667E-017));
#245=DIRECTION('',(0.0,0.0,1.0));
#246=AXIS2_PLACEMENT_3D('',#243,#244,#245);
#247=CYLINDRICAL_SURFACE('',#246,0.133);
#248=ORIENTED_EDGE('',*,*,#158,.T.);
#249=CARTESIAN_POINT('',(-1.25,-4.829470E-015,0.75));
#250=DIRECTION('',(0.0,-1.0,0.0));
#251=DIRECTION('',(0.0,0.0,1.0));
#252=AXIS2_PLACEMENT_3D('',#249,#250,#251);
#253=CIRCLE('',#252,0.133);
#254=EDGE_CURVE('',#170,#153,#253,.T.);
#255=ORIENTED_EDGE('',*,*,#254,.F.);
#256=ORIENTED_EDGE('',*,*,#175,.F.);
#257=ORIENTED_EDGE('',*,*,#230,.F.);
#258=EDGE_LOOP('',(#248,#255,#256,#257));
#259=FACE_OUTER_BOUND('',#258,.T.);
#260=ADVANCED_FACE('',(#259),#247,.F.);
#261=CARTESIAN_POINT('',(-4.75,-0.17378809302161,0.75));
#262=DIRECTION('',(-1.408433E-015,-1.0,2.287667E-017));
#263=DIRECTION('',(0.0,0.0,1.0));
#264=AXIS2_PLACEMENT_3D('',#261,#262,#263);
#265=CONICAL_SURFACE('',#264,0.19925,41.000000000000007);
#266=ORIENTED_EDGE('',*,*,#124,.T.);
#267=CARTESIAN_POINT('',(-4.75,-0.097576186043218,0.75));
#268=DIRECTION('',(0.0,1.0,0.0));
#269=DIRECTION('',(0.0,0.0,1.0));
#270=AXIS2_PLACEMENT_3D('',#267,#268,#269);
#271=CIRCLE('',#270,0.133);
#272=EDGE_CURVE('',#77,#87,#271,.T.);
#273=ORIENTED_EDGE('',*,*,#272,.T.);
#274=ORIENTED_EDGE('',*,*,#139,.F.);
#275=CARTESIAN_POINT('',(-4.75,-0.25,0.75));
#276=DIRECTION('',(0.0,1.0,0.0));
#277=DIRECTION('',(0.0,0.0,1.0));
#278=AXIS2_PLACEMENT_3D('',#275,#276,#277);
#279=CIRCLE('',#278,0.265499999999999);
#280=EDGE_CURVE('',#119,#127,#279,.T.);
#281=ORIENTED_EDGE('',*,*,#280,.F.);
#282=EDGE_LOOP('',(#266,#273,#274,#281));
#283=FACE_OUTER_BOUND('',#282,.T.);
#284=ADVANCED_FACE('',(#283),#265,.F.);
#285=CARTESIAN_POINT('',(-4.75,-0.04878809302161,0.75));
#286=DIRECTION('',(1.408433E-015,1.0,-2.287667E-017));
#287=DIRECTION('',(0.0,0.0,1.0));
#288=AXIS2_PLACEMENT_3D('',#285,#286,#287);
#289=CYLINDRICAL_SURFACE('',#288,0.133);
#290=ORIENTED_EDGE('',*,*,#84,.T.);
#291=CARTESIAN_POINT('',(-4.75,0.0,0.75));
#292=DIRECTION('',(0.0,-1.0,0.0));
#293=DIRECTION('',(0.0,0.0,1.0));
#294=AXIS2_PLACEMENT_3D('',#291,#292,#293);
#295=CIRCLE('',#294,0.133);
#296=EDGE_CURVE('',#96,#79,#295,.T.);
#297=ORIENTED_EDGE('',*,*,#296,.F.);
#298=ORIENTED_EDGE('',*,*,#101,.F.);
#299=ORIENTED_EDGE('',*,*,#272,.F.);
#300=EDGE_LOOP('',(#290,#297,#298,#299));
#301=FACE_OUTER_BOUND('',#300,.T.);
#302=ADVANCED_FACE('',(#301),#289,.F.);
#303=CARTESIAN_POINT('',(-6.0,-0.249999999999998,1.110223E-016));
#304=DIRECTION('',(0.0,-1.0,0.0));
#305=DIRECTION('',(0.0,0.0,1.0));
#306=AXIS2_PLACEMENT_3D('',#303,#304,#305);
#307=PLANE('',#306);
#308=CARTESIAN_POINT('',(-8.881784E-016,-0.250000000000002,1.110223E-016));
#309=VERTEX_POINT('',#308);
#310=CARTESIAN_POINT('',(-8.881784E-016,-0.250000000000002,1.5));
#311=VERTEX_POINT('',#310);
#312=CARTESIAN_POINT('',(-8.881784E-016,-0.250000000000002,1.110223E-016));
#313=DIRECTION('',(0.0,0.0,1.0));
#314=VECTOR('',#313,1.5);
#315=LINE('',#312,#314);
#316=EDGE_CURVE('',#309,#311,#315,.T.);
#317=ORIENTED_EDGE('',*,*,#316,.T.);
#318=CARTESIAN_POINT('',(-6.0,-0.249999999999998,1.5));
#319=VERTEX_POINT('',#318);
#320=CARTESIAN_POINT('',(-6.0,-0.249999999999998,1.5));
#321=DIRECTION('',(1.0,0.0,0.0));
#322=VECTOR('',#321,5.999999999999999);
#323=LINE('',#320,#322);
#324=EDGE_CURVE('',#319,#311,#323,.T.);
#325=ORIENTED_EDGE('',*,*,#324,.F.);
#326=CARTESIAN_POINT('',(-6.0,-0.249999999999998,1.110223E-016));
#327=VERTEX_POINT('',#326);
#328=CARTESIAN_POINT('',(-6.0,-0.249999999999998,1.110223E-016));
#329=DIRECTION('',(0.0,0.0,1.0));
#330=VECTOR('',#329,1.5);
#331=LINE('',#328,#330);
#332=EDGE_CURVE('',#327,#319,#331,.T.);
#333=ORIENTED_EDGE('',*,*,#332,.F.);
#334=CARTESIAN_POINT('',(-6.0,-0.249999999999998,1.110223E-016));
#335=DIRECTION('',(1.0,0.0,0.0));
#336=VECTOR('',#335,5.999999999999999);
#337=LINE('',#334,#336);
#338=EDGE_CURVE('',#327,#309,#337,.T.);
#339=ORIENTED_EDGE('',*,*,#338,.T.);
#340=EDGE_LOOP('',(#317,#325,#333,#339));
#341=FACE_OUTER_BOUND('',#340,.T.);
#342=ORIENTED_EDGE('',*,*,#238,.T.);
#343=ORIENTED_EDGE('',*,*,#207,.T.);
#344=EDGE_LOOP('',(#342,#343));
#345=FACE_BOUND('',#344,.T.);
#346=ORIENTED_EDGE('',*,*,#280,.T.);
#347=ORIENTED_EDGE('',*,*,#133,.T.);
#348=EDGE_LOOP('',(#346,#347));
#349=FACE_BOUND('',#348,.T.);
#350=ADVANCED_FACE('',(#341,#345,#349),#307,.T.);
#351=CARTESIAN_POINT('',(-6.0,-0.249999999999998,1.5));
#352=DIRECTION('',(0.0,0.0,1.0));
#353=DIRECTION('',(-1.0,0.0,0.0));
#354=AXIS2_PLACEMENT_3D('',#351,#352,#353);
#355=PLANE('',#354);
#356=CARTESIAN_POINT('',(-8.881784E-016,-0.160000000000002,1.5));
#357=VERTEX_POINT('',#356);
#358=CARTESIAN_POINT('',(-8.881784E-016,-0.250000000000002,1.5));
#359=DIRECTION('',(0.0,1.0,0.0));
#360=VECTOR('',#359,0.09);
#361=LINE('',#358,#360);
#362=EDGE_CURVE('',#311,#357,#361,.T.);
#363=ORIENTED_EDGE('',*,*,#362,.T.);
#364=CARTESIAN_POINT('',(-6.0,-0.159999999999998,1.5));
#365=VERTEX_POINT('',#364);
#366=CARTESIAN_POINT('',(-6.0,-0.159999999999998,1.5));
#367=DIRECTION('',(1.0,0.0,0.0));
#368=VECTOR('',#367,5.999999999999999);
#369=LINE('',#366,#368);
#370=EDGE_CURVE('',#365,#357,#369,.T.);
#371=ORIENTED_EDGE('',*,*,#370,.F.);
#372=CARTESIAN_POINT('',(-6.0,-0.249999999999998,1.5));
#373=DIRECTION('',(0.0,1.0,0.0));
#374=VECTOR('',#373,0.09);
#375=LINE('',#372,#374);
#376=EDGE_CURVE('',#319,#365,#375,.T.);
#377=ORIENTED_EDGE('',*,*,#376,.F.);
#378=ORIENTED_EDGE('',*,*,#324,.T.);
#379=EDGE_LOOP('',(#363,#371,#377,#378));
#380=FACE_OUTER_BOUND('',#379,.T.);
#381=ADVANCED_FACE('',(#380),#355,.T.);
#382=CARTESIAN_POINT('',(-6.0,-0.159999999999998,1.5));
#383=DIRECTION('',(0.0,1.0,0.0));
#384=DIRECTION('',(0.0,0.0,-1.0));
#385=AXIS2_PLACEMENT_3D('',#382,#383,#384);
#386=PLANE('',#385);
#387=CARTESIAN_POINT('',(-8.881784E-016,-0.160000000000002,1.125));
#388=VERTEX_POINT('',#387);
#389=CARTESIAN_POINT('',(-8.881784E-016,-0.160000000000002,1.5));
#390=DIRECTION('',(0.0,0.0,-1.0));
#391=VECTOR('',#390,0.375);
#392=LINE('',#389,#391);
#393=EDGE_CURVE('',#357,#388,#392,.T.);
#394=ORIENTED_EDGE('',*,*,#393,.T.);
#395=CARTESIAN_POINT('',(-6.0,-0.159999999999998,1.125));
#396=VERTEX_POINT('',#395);
#397=CARTESIAN_POINT('',(-6.0,-0.159999999999998,1.125));
#398=DIRECTION('',(1.0,0.0,0.0));
#399=VECTOR('',#398,5.999999999999999);
#400=LINE('',#397,#399);
#401=EDGE_CURVE('',#396,#388,#400,.T.);
#402=ORIENTED_EDGE('',*,*,#401,.F.);
#403=CARTESIAN_POINT('',(-6.0,-0.159999999999998,1.5));
#404=DIRECTION('',(0.0,0.0,-1.0));
#405=VECTOR('',#404,0.375);
#406=LINE('',#403,#405);
#407=EDGE_CURVE('',#365,#396,#406,.T.);
#408=ORIENTED_EDGE('',*,*,#407,.F.);
#409=ORIENTED_EDGE('',*,*,#370,.T.);
#410=EDGE_LOOP('',(#394,#402,#408,#409));
#411=FACE_OUTER_BOUND('',#410,.T.);
#412=ADVANCED_FACE('',(#411),#386,.T.);
#413=CARTESIAN_POINT('',(-6.0,-0.159999999999998,1.125));
#414=DIRECTION('',(0.0,0.0,1.0));
#415=DIRECTION('',(-1.0,0.0,0.0));
#416=AXIS2_PLACEMENT_3D('',#413,#414,#415);
#417=PLANE('',#416);
#418=CARTESIAN_POINT('',(-8.881784E-016,-2.164935E-015,1.125));
#419=VERTEX_POINT('',#418);
#420=CARTESIAN_POINT('',(-8.881784E-016,-0.160000000000002,1.125));
#421=DIRECTION('',(0.0,1.0,0.0));
#422=VECTOR('',#421,0.16);
#423=LINE('',#420,#422);
#424=EDGE_CURVE('',#388,#419,#423,.T.);
#425=ORIENTED_EDGE('',*,*,#424,.T.);
#426=CARTESIAN_POINT('',(-6.0,1.831868E-015,1.125));
#427=VERTEX_POINT('',#426);
#428=CARTESIAN_POINT('',(-6.0,1.831868E-015,1.125));
#429=DIRECTION('',(1.0,0.0,0.0));
#430=VECTOR('',#429,5.999999999999999);
#431=LINE('',#428,#430);
#432=EDGE_CURVE('',#427,#419,#431,.T.);
#433=ORIENTED_EDGE('',*,*,#432,.F.);
#434=CARTESIAN_POINT('',(-6.0,-0.159999999999998,1.125));
#435=DIRECTION('',(0.0,1.0,0.0));
#436=VECTOR('',#435,0.16);
#437=LINE('',#434,#436);
#438=EDGE_CURVE('',#396,#427,#437,.T.);
#439=ORIENTED_EDGE('',*,*,#438,.F.);
#440=ORIENTED_EDGE('',*,*,#401,.T.);
#441=EDGE_LOOP('',(#425,#433,#439,#440));
#442=FACE_OUTER_BOUND('',#441,.T.);
#443=ADVANCED_FACE('',(#442),#417,.T.);
#444=CARTESIAN_POINT('',(-6.0,1.831868E-015,1.125));
#445=DIRECTION('',(0.0,1.0,0.0));
#446=DIRECTION('',(0.0,0.0,-1.0));
#447=AXIS2_PLACEMENT_3D('',#444,#445,#446);
#448=PLANE('',#447);
#449=CARTESIAN_POINT('',(-8.881784E-016,-2.164935E-015,2.220446E-016));
#450=VERTEX_POINT('',#449);
#451=CARTESIAN_POINT('',(-8.881784E-016,-2.164935E-015,1.125));
#452=DIRECTION('',(0.0,0.0,-1.0));
#453=VECTOR('',#452,1.125);
#454=LINE('',#451,#453);
#455=EDGE_CURVE('',#419,#450,#454,.T.);
#456=ORIENTED_EDGE('',*,*,#455,.T.);
#457=CARTESIAN_POINT('',(-6.0,1.609823E-015,2.220446E-016));
#458=VERTEX_POINT('',#457);
#459=CARTESIAN_POINT('',(-6.0,1.609823E-015,2.220446E-016));
#460=DIRECTION('',(1.0,0.0,0.0));
#461=VECTOR('',#460,5.999999999999999);
#462=LINE('',#459,#461);
#463=EDGE_CURVE('',#458,#450,#462,.T.);
#464=ORIENTED_EDGE('',*,*,#463,.F.);
#465=CARTESIAN_POINT('',(-6.0,1.831868E-015,1.125));
#466=DIRECTION('',(0.0,0.0,-1.0));
#467=VECTOR('',#466,1.125);
#468=LINE('',#465,#467);
#469=EDGE_CURVE('',#427,#458,#468,.T.);
#470=ORIENTED_EDGE('',*,*,#469,.F.);
#471=ORIENTED_EDGE('',*,*,#432,.T.);
#472=EDGE_LOOP('',(#456,#464,#470,#471));
#473=FACE_OUTER_BOUND('',#472,.T.);
#474=ORIENTED_EDGE('',*,*,#182,.T.);
#475=ORIENTED_EDGE('',*,*,#254,.T.);
#476=EDGE_LOOP('',(#474,#475));
#477=FACE_BOUND('',#476,.T.);
#478=ORIENTED_EDGE('',*,*,#108,.T.);
#479=ORIENTED_EDGE('',*,*,#296,.T.);
#480=EDGE_LOOP('',(#478,#479));
#481=FACE_BOUND('',#480,.T.);
#482=ADVANCED_FACE('',(#473,#477,#481),#448,.T.);
#483=CARTESIAN_POINT('',(-6.0,1.609823E-015,2.220446E-016));
#484=DIRECTION('',(0.0,0.0,-1.0));
#485=DIRECTION('',(1.0,0.0,0.0));
#486=AXIS2_PLACEMENT_3D('',#483,#484,#485);
#487=PLANE('',#486);
#488=CARTESIAN_POINT('',(-8.881784E-016,-2.164935E-015,2.220446E-016));
#489=DIRECTION('',(0.0,-1.0,0.0));
#490=VECTOR('',#489,0.25);
#491=LINE('',#488,#490);
#492=EDGE_CURVE('',#450,#309,#491,.T.);
#493=ORIENTED_EDGE('',*,*,#492,.T.);
#494=ORIENTED_EDGE('',*,*,#338,.F.);
#495=CARTESIAN_POINT('',(-6.0,1.609823E-015,2.220446E-016));
#496=DIRECTION('',(0.0,-1.0,0.0));
#497=VECTOR('',#496,0.25);
#498=LINE('',#495,#497);
#499=EDGE_CURVE('',#458,#327,#498,.T.);
#500=ORIENTED_EDGE('',*,*,#499,.F.);
#501=ORIENTED_EDGE('',*,*,#463,.T.);
#502=EDGE_LOOP('',(#493,#494,#500,#501));
#503=FACE_OUTER_BOUND('',#502,.T.);
#504=ADVANCED_FACE('',(#503),#487,.T.);
#505=CARTESIAN_POINT('',(-6.0,-0.136666666666665,0.875));
#506=DIRECTION('',(1.0,0.0,0.0));
#507=DIRECTION('',(0.0,0.0,1.0));
#508=AXIS2_PLACEMENT_3D('',#505,#506,#507);
#509=PLANE('',#508);
#510=ORIENTED_EDGE('',*,*,#499,.T.);
#511=ORIENTED_EDGE('',*,*,#332,.T.);
#512=ORIENTED_EDGE('',*,*,#376,.T.);
#513=ORIENTED_EDGE('',*,*,#407,.T.);
#514=ORIENTED_EDGE('',*,*,#438,.T.);
#515=ORIENTED_EDGE('',*,*,#469,.T.);
#516=EDGE_LOOP('',(#510,#511,#512,#513,#514,#515));
#517=FACE_OUTER_BOUND('',#516,.T.);
#518=ADVANCED_FACE('',(#517),#509,.F.);
#519=CARTESIAN_POINT('',(-8.881784E-016,-0.250000000000002,1.110223E-016));
#520=DIRECTION('',(1.0,0.0,0.0));
#521=DIRECTION('',(0.0,0.0,1.0));
#522=AXIS2_PLACEMENT_3D('',#519,#520,#521);
#523=PLANE('',#522);
#524=ORIENTED_EDGE('',*,*,#316,.F.);
#525=ORIENTED_EDGE('',*,*,#492,.F.);
#526=ORIENTED_EDGE('',*,*,#455,.F.);
#527=ORIENTED_EDGE('',*,*,#424,.F.);
#528=ORIENTED_EDGE('',*,*,#393,.F.);
#529=ORIENTED_EDGE('',*,*,#362,.F.);
#530=EDGE_LOOP('',(#524,#525,#526,#527,#528,#529));
#531=FACE_OUTER_BOUND('',#530,.T.);
#532=ADVANCED_FACE('',(#531),#523,.T.);
#533=CLOSED_SHELL('',(#112,#144,#186,#218,#242,#260,#284,#302,#350,#381,#412,#443,#482,#504,#518,#532));
#534=MANIFOLD_SOLID_BREP('E2',#533);
#535=COLOUR_RGB('252',0.598,0.598,0.598);
#536=SURFACE_STYLE_USAGE(.BOTH.,#537);
#537=SURFACE_SIDE_STYLE('NONE',(#538));
#538=SURFACE_STYLE_FILL_AREA(#539);
#539=FILL_AREA_STYLE('NONE',(#540));
#540=FILL_AREA_STYLE_COLOUR('NONE',#535);
#541=PRESENTATION_STYLE_ASSIGNMENT((#536));
#542=STYLED_ITEM('NONE',(#541),#534);
#543=MECHANICAL_DESIGN_GEOMETRIC_PRESENTATION_REPRESENTATION('NONE',(#542),#34);
#544=PRESENTATION_LAYER_ASSIGNMENT('13ac2101','None',(#534));
#545=ADVANCED_BREP_SHAPE_REPRESENTATION('ABSR1',(#534),#34);
#546=SHAPE_REPRESENTATION_RELATIONSHIP('SRRPL1','',#545,#68);
ENDSEC;
END-ISO-10303-21;
