ISO-10303-21;
HEADER;
/****************************************************************
 * Generated by software with PDElib inside                    *
 * PDElib Version v51a, created Fri 09/10/2010                  *
 * ITI Transcendata (http://www.transcendata.com/)              *
 ****************************************************************/
FILE_DESCRIPTION((''),'2;1');
FILE_NAME('10JP4229.stp','2015-07-14T08:51:03',(''),(''),'Mechanical Desktop 2011','Mechanical Desktop 2011',', , ');
FILE_SCHEMA(('AUTOMOTIVE_DESIGN { 1 2 10303 214 1 1 1 1 }'));
ENDSEC;
DATA;
#10=(NAMED_UNIT(*)PLANE_ANGLE_UNIT()SI_UNIT($,.RADIAN.));
#11=DIMENSIONAL_EXPONENTS(0.0,0.0,0.0,0.0,0.0,0.0,0.0);
#12=PLANE_ANGLE_MEASURE_WITH_UNIT(PLANE_ANGLE_MEASURE(0.0174532925),#10);
#16=(CONVERSION_BASED_UNIT('DEGREE',#12)NAMED_UNIT(#11)PLANE_ANGLE_UNIT());
#20=(NAMED_UNIT(*)SI_UNIT($,.STERADIAN.)SOLID_ANGLE_UNIT());
#24=(LENGTH_UNIT()NAMED_UNIT(*)SI_UNIT(.CENTI.,.METRE.));
#25=DIMENSIONAL_EXPONENTS(1.0,0.0,0.0,0.0,0.0,0.0,0.0);
#26=LENGTH_MEASURE_WITH_UNIT(LENGTH_MEASURE(2.54),#24);
#30=(CONVERSION_BASED_UNIT('INCH',#26)LENGTH_UNIT()NAMED_UNIT(#25));
#32=UNCERTAINTY_MEASURE_WITH_UNIT(LENGTH_MEASURE(0.000001),#30,'DISTANCE_ACCURACY_VALUE','');
#34=(GEOMETRIC_REPRESENTATION_CONTEXT(3)GLOBAL_UNCERTAINTY_ASSIGNED_CONTEXT((#32))GLOBAL_UNIT_ASSIGNED_CONTEXT((#16,#20,#30))REPRESENTATION_CONTEXT('','3D'));
#35=APPLICATION_CONTEXT('automotive design');
#36=APPLICATION_PROTOCOL_DEFINITION('INTERNATIONAL_STANDARD','automotive_design',1998,#35);
#37=PRODUCT_CONTEXT('3D Mechanical Parts',#35,'mechanical');
#38=PRODUCT('Product','Product','',(#37));
#39=PRODUCT_RELATED_PRODUCT_CATEGORY('part',$,(#38));
#40=PRODUCT_CATEGORY('part',$);
#41=PERSON('1','Design','Joe',$,$,$);
#42=ORGANIZATION($,'None','None');
#43=PERSON_AND_ORGANIZATION(#41,#42);
#44=PERSON_AND_ORGANIZATION_ROLE('design_owner');
#45=APPLIED_PERSON_AND_ORGANIZATION_ASSIGNMENT(#43,#44,(#38));
#46=PRODUCT_DEFINITION_FORMATION_WITH_SPECIFIED_SOURCE('None','',#38,.BOUGHT.);
#47=PERSON('2','Creator','Joe',$,$,$);
#48=ORGANIZATION($,'None','None');
#49=PERSON_AND_ORGANIZATION(#47,#48);
#50=PERSON_AND_ORGANIZATION_ROLE('creator');
#51=APPLIED_PERSON_AND_ORGANIZATION_ASSIGNMENT(#49,#50,(#46));
#52=PERSON('3','Supplier','Joe',$,$,$);
#53=ORGANIZATION($,'None','None');
#54=PERSON_AND_ORGANIZATION(#52,#53);
#55=PERSON_AND_ORGANIZATION_ROLE('design_supplier');
#56=APPLIED_PERSON_AND_ORGANIZATION_ASSIGNMENT(#54,#55,(#46));
#57=PRODUCT_DEFINITION_CONTEXT('part definition',#35,'design');
#58=PRODUCT_DEFINITION('None','',#46,#57);
#59=PERSON('4','Creator','Joe',$,$,$);
#60=ORGANIZATION($,'None','None');
#61=PERSON_AND_ORGANIZATION(#59,#60);
#62=PERSON_AND_ORGANIZATION_ROLE('creator');
#63=APPLIED_PERSON_AND_ORGANIZATION_ASSIGNMENT(#61,#62,(#58));
#64=CARTESIAN_POINT('NONE',(0.0,0.0,0.0));
#65=DIRECTION('NONE',(0.0,0.0,1.0));
#66=DIRECTION('NONE',(1.0,0.0,0.0));
#67=AXIS2_PLACEMENT_3D('NONE',#64,#65,#66);
#68=SHAPE_REPRESENTATION('SR1',(#67),#34);
#69=PRODUCT_DEFINITION_SHAPE('PDS1','Test Part',#58);
#70=SHAPE_DEFINITION_REPRESENTATION(#69,#68);
#71=CARTESIAN_POINT('',(0.0,1.0,0.0));
#72=DIRECTION('',(0.0,0.0,1.0));
#73=DIRECTION('',(1.0,0.0,0.0));
#74=AXIS2_PLACEMENT_3D('',#71,#72,#73);
#75=CYLINDRICAL_SURFACE('',#74,0.14);
#76=CARTESIAN_POINT('',(0.14,1.0,0.0));
#77=VERTEX_POINT('',#76);
#78=CARTESIAN_POINT('',(0.14,1.0,0.188));
#79=VERTEX_POINT('',#78);
#80=CARTESIAN_POINT('',(0.14,1.0,0.0));
#81=DIRECTION('',(0.0,0.0,1.0));
#82=VECTOR('',#81,0.188);
#83=LINE('',#80,#82);
#84=EDGE_CURVE('',#77,#79,#83,.T.);
#85=ORIENTED_EDGE('',*,*,#84,.F.);
#86=CARTESIAN_POINT('',(-0.14,1.0,0.0));
#87=VERTEX_POINT('',#86);
#88=CARTESIAN_POINT('',(0.0,1.0,0.0));
#89=DIRECTION('',(0.0,0.0,1.0));
#90=DIRECTION('',(1.0,0.0,0.0));
#91=AXIS2_PLACEMENT_3D('',#88,#89,#90);
#92=CIRCLE('',#91,0.14);
#93=EDGE_CURVE('',#87,#77,#92,.T.);
#94=ORIENTED_EDGE('',*,*,#93,.F.);
#95=CARTESIAN_POINT('',(-0.14,1.0,0.188));
#96=VERTEX_POINT('',#95);
#97=CARTESIAN_POINT('',(-0.14,1.0,0.0));
#98=DIRECTION('',(0.0,0.0,1.0));
#99=VECTOR('',#98,0.188);
#100=LINE('',#97,#99);
#101=EDGE_CURVE('',#87,#96,#100,.T.);
#102=ORIENTED_EDGE('',*,*,#101,.T.);
#103=CARTESIAN_POINT('',(0.0,1.0,0.188));
#104=DIRECTION('',(0.0,0.0,-1.0));
#105=DIRECTION('',(1.0,0.0,0.0));
#106=AXIS2_PLACEMENT_3D('',#103,#104,#105);
#107=CIRCLE('',#106,0.14);
#108=EDGE_CURVE('',#79,#96,#107,.T.);
#109=ORIENTED_EDGE('',*,*,#108,.F.);
#110=EDGE_LOOP('',(#85,#94,#102,#109));
#111=FACE_OUTER_BOUND('',#110,.T.);
#112=ADVANCED_FACE('',(#111),#75,.F.);
#113=CARTESIAN_POINT('',(0.0,0.0,0.0));
#114=DIRECTION('',(0.0,0.0,1.0));
#115=DIRECTION('',(1.0,0.0,0.0));
#116=AXIS2_PLACEMENT_3D('',#113,#114,#115);
#117=CYLINDRICAL_SURFACE('',#116,0.14);
#118=CARTESIAN_POINT('',(0.14,0.0,0.0));
#119=VERTEX_POINT('',#118);
#120=CARTESIAN_POINT('',(0.14,0.0,0.188));
#121=VERTEX_POINT('',#120);
#122=CARTESIAN_POINT('',(0.14,0.0,0.0));
#123=DIRECTION('',(0.0,0.0,1.0));
#124=VECTOR('',#123,0.188);
#125=LINE('',#122,#124);
#126=EDGE_CURVE('',#119,#121,#125,.T.);
#127=ORIENTED_EDGE('',*,*,#126,.F.);
#128=CARTESIAN_POINT('',(-0.14,-1.714506E-017,0.0));
#129=VERTEX_POINT('',#128);
#130=CARTESIAN_POINT('',(0.0,0.0,0.0));
#131=DIRECTION('',(0.0,0.0,1.0));
#132=DIRECTION('',(1.0,0.0,0.0));
#133=AXIS2_PLACEMENT_3D('',#130,#131,#132);
#134=CIRCLE('',#133,0.14);
#135=EDGE_CURVE('',#129,#119,#134,.T.);
#136=ORIENTED_EDGE('',*,*,#135,.F.);
#137=CARTESIAN_POINT('',(-0.14,-1.714506E-017,0.188));
#138=VERTEX_POINT('',#137);
#139=CARTESIAN_POINT('',(-0.14,-1.714506E-017,0.0));
#140=DIRECTION('',(0.0,0.0,1.0));
#141=VECTOR('',#140,0.188);
#142=LINE('',#139,#141);
#143=EDGE_CURVE('',#129,#138,#142,.T.);
#144=ORIENTED_EDGE('',*,*,#143,.T.);
#145=CARTESIAN_POINT('',(0.0,0.0,0.188));
#146=DIRECTION('',(0.0,0.0,-1.0));
#147=DIRECTION('',(1.0,0.0,0.0));
#148=AXIS2_PLACEMENT_3D('',#145,#146,#147);
#149=CIRCLE('',#148,0.14);
#150=EDGE_CURVE('',#121,#138,#149,.T.);
#151=ORIENTED_EDGE('',*,*,#150,.F.);
#152=EDGE_LOOP('',(#127,#136,#144,#151));
#153=FACE_OUTER_BOUND('',#152,.T.);
#154=ADVANCED_FACE('',(#153),#117,.F.);
#155=CARTESIAN_POINT('',(1.0,0.0,0.0));
#156=DIRECTION('',(0.0,0.0,1.0));
#157=DIRECTION('',(1.0,0.0,0.0));
#158=AXIS2_PLACEMENT_3D('',#155,#156,#157);
#159=CYLINDRICAL_SURFACE('',#158,0.14);
#160=CARTESIAN_POINT('',(1.14,0.0,0.0));
#161=VERTEX_POINT('',#160);
#162=CARTESIAN_POINT('',(1.14,0.0,0.188));
#163=VERTEX_POINT('',#162);
#164=CARTESIAN_POINT('',(1.14,0.0,0.0));
#165=DIRECTION('',(0.0,0.0,1.0));
#166=VECTOR('',#165,0.188);
#167=LINE('',#164,#166);
#168=EDGE_CURVE('',#161,#163,#167,.T.);
#169=ORIENTED_EDGE('',*,*,#168,.F.);
#170=CARTESIAN_POINT('',(0.86,-1.714506E-017,0.0));
#171=VERTEX_POINT('',#170);
#172=CARTESIAN_POINT('',(1.0,0.0,0.0));
#173=DIRECTION('',(0.0,0.0,1.0));
#174=DIRECTION('',(1.0,0.0,0.0));
#175=AXIS2_PLACEMENT_3D('',#172,#173,#174);
#176=CIRCLE('',#175,0.14);
#177=EDGE_CURVE('',#171,#161,#176,.T.);
#178=ORIENTED_EDGE('',*,*,#177,.F.);
#179=CARTESIAN_POINT('',(0.86,-1.714506E-017,0.188));
#180=VERTEX_POINT('',#179);
#181=CARTESIAN_POINT('',(0.86,-1.714506E-017,0.0));
#182=DIRECTION('',(0.0,0.0,1.0));
#183=VECTOR('',#182,0.188);
#184=LINE('',#181,#183);
#185=EDGE_CURVE('',#171,#180,#184,.T.);
#186=ORIENTED_EDGE('',*,*,#185,.T.);
#187=CARTESIAN_POINT('',(1.0,0.0,0.188));
#188=DIRECTION('',(0.0,0.0,-1.0));
#189=DIRECTION('',(1.0,0.0,0.0));
#190=AXIS2_PLACEMENT_3D('',#187,#188,#189);
#191=CIRCLE('',#190,0.14);
#192=EDGE_CURVE('',#163,#180,#191,.T.);
#193=ORIENTED_EDGE('',*,*,#192,.F.);
#194=EDGE_LOOP('',(#169,#178,#186,#193));
#195=FACE_OUTER_BOUND('',#194,.T.);
#196=ADVANCED_FACE('',(#195),#159,.F.);
#197=CARTESIAN_POINT('',(1.0,1.0,0.0));
#198=DIRECTION('',(0.0,0.0,1.0));
#199=DIRECTION('',(1.0,0.0,0.0));
#200=AXIS2_PLACEMENT_3D('',#197,#198,#199);
#201=CYLINDRICAL_SURFACE('',#200,0.14);
#202=CARTESIAN_POINT('',(1.14,1.0,0.0));
#203=VERTEX_POINT('',#202);
#204=CARTESIAN_POINT('',(1.14,1.0,0.188));
#205=VERTEX_POINT('',#204);
#206=CARTESIAN_POINT('',(1.14,1.0,0.0));
#207=DIRECTION('',(0.0,0.0,1.0));
#208=VECTOR('',#207,0.188);
#209=LINE('',#206,#208);
#210=EDGE_CURVE('',#203,#205,#209,.T.);
#211=ORIENTED_EDGE('',*,*,#210,.F.);
#212=CARTESIAN_POINT('',(0.86,1.0,0.0));
#213=VERTEX_POINT('',#212);
#214=CARTESIAN_POINT('',(1.0,1.0,0.0));
#215=DIRECTION('',(0.0,0.0,1.0));
#216=DIRECTION('',(1.0,0.0,0.0));
#217=AXIS2_PLACEMENT_3D('',#214,#215,#216);
#218=CIRCLE('',#217,0.14);
#219=EDGE_CURVE('',#213,#203,#218,.T.);
#220=ORIENTED_EDGE('',*,*,#219,.F.);
#221=CARTESIAN_POINT('',(0.86,1.0,0.188));
#222=VERTEX_POINT('',#221);
#223=CARTESIAN_POINT('',(0.86,1.0,0.0));
#224=DIRECTION('',(0.0,0.0,1.0));
#225=VECTOR('',#224,0.188);
#226=LINE('',#223,#225);
#227=EDGE_CURVE('',#213,#222,#226,.T.);
#228=ORIENTED_EDGE('',*,*,#227,.T.);
#229=CARTESIAN_POINT('',(1.0,1.0,0.188));
#230=DIRECTION('',(0.0,0.0,-1.0));
#231=DIRECTION('',(1.0,0.0,0.0));
#232=AXIS2_PLACEMENT_3D('',#229,#230,#231);
#233=CIRCLE('',#232,0.14);
#234=EDGE_CURVE('',#205,#222,#233,.T.);
#235=ORIENTED_EDGE('',*,*,#234,.F.);
#236=EDGE_LOOP('',(#211,#220,#228,#235));
#237=FACE_OUTER_BOUND('',#236,.T.);
#238=ADVANCED_FACE('',(#237),#201,.F.);
#239=CARTESIAN_POINT('',(0.0,2.0,0.0));
#240=DIRECTION('',(0.0,0.0,1.0));
#241=DIRECTION('',(1.0,0.0,0.0));
#242=AXIS2_PLACEMENT_3D('',#239,#240,#241);
#243=CYLINDRICAL_SURFACE('',#242,0.14);
#244=CARTESIAN_POINT('',(0.14,2.0,0.0));
#245=VERTEX_POINT('',#244);
#246=CARTESIAN_POINT('',(0.14,2.0,0.188));
#247=VERTEX_POINT('',#246);
#248=CARTESIAN_POINT('',(0.14,2.0,0.0));
#249=DIRECTION('',(0.0,0.0,1.0));
#250=VECTOR('',#249,0.188);
#251=LINE('',#248,#250);
#252=EDGE_CURVE('',#245,#247,#251,.T.);
#253=ORIENTED_EDGE('',*,*,#252,.F.);
#254=CARTESIAN_POINT('',(-0.14,2.0,0.0));
#255=VERTEX_POINT('',#254);
#256=CARTESIAN_POINT('',(0.0,2.0,0.0));
#257=DIRECTION('',(0.0,0.0,1.0));
#258=DIRECTION('',(1.0,0.0,0.0));
#259=AXIS2_PLACEMENT_3D('',#256,#257,#258);
#260=CIRCLE('',#259,0.14);
#261=EDGE_CURVE('',#255,#245,#260,.T.);
#262=ORIENTED_EDGE('',*,*,#261,.F.);
#263=CARTESIAN_POINT('',(-0.14,2.0,0.188));
#264=VERTEX_POINT('',#263);
#265=CARTESIAN_POINT('',(-0.14,2.0,0.0));
#266=DIRECTION('',(0.0,0.0,1.0));
#267=VECTOR('',#266,0.188);
#268=LINE('',#265,#267);
#269=EDGE_CURVE('',#255,#264,#268,.T.);
#270=ORIENTED_EDGE('',*,*,#269,.T.);
#271=CARTESIAN_POINT('',(0.0,2.0,0.188));
#272=DIRECTION('',(0.0,0.0,-1.0));
#273=DIRECTION('',(1.0,0.0,0.0));
#274=AXIS2_PLACEMENT_3D('',#271,#272,#273);
#275=CIRCLE('',#274,0.14);
#276=EDGE_CURVE('',#247,#264,#275,.T.);
#277=ORIENTED_EDGE('',*,*,#276,.F.);
#278=EDGE_LOOP('',(#253,#262,#270,#277));
#279=FACE_OUTER_BOUND('',#278,.T.);
#280=ADVANCED_FACE('',(#279),#243,.F.);
#281=CARTESIAN_POINT('',(1.0,2.0,0.0));
#282=DIRECTION('',(0.0,0.0,1.0));
#283=DIRECTION('',(1.0,0.0,0.0));
#284=AXIS2_PLACEMENT_3D('',#281,#282,#283);
#285=CYLINDRICAL_SURFACE('',#284,0.14);
#286=CARTESIAN_POINT('',(1.14,2.0,0.0));
#287=VERTEX_POINT('',#286);
#288=CARTESIAN_POINT('',(1.14,2.0,0.188));
#289=VERTEX_POINT('',#288);
#290=CARTESIAN_POINT('',(1.14,2.0,0.0));
#291=DIRECTION('',(0.0,0.0,1.0));
#292=VECTOR('',#291,0.188);
#293=LINE('',#290,#292);
#294=EDGE_CURVE('',#287,#289,#293,.T.);
#295=ORIENTED_EDGE('',*,*,#294,.F.);
#296=CARTESIAN_POINT('',(0.86,2.0,0.0));
#297=VERTEX_POINT('',#296);
#298=CARTESIAN_POINT('',(1.0,2.0,0.0));
#299=DIRECTION('',(0.0,0.0,1.0));
#300=DIRECTION('',(1.0,0.0,0.0));
#301=AXIS2_PLACEMENT_3D('',#298,#299,#300);
#302=CIRCLE('',#301,0.14);
#303=EDGE_CURVE('',#297,#287,#302,.T.);
#304=ORIENTED_EDGE('',*,*,#303,.F.);
#305=CARTESIAN_POINT('',(0.86,2.0,0.188));
#306=VERTEX_POINT('',#305);
#307=CARTESIAN_POINT('',(0.86,2.0,0.0));
#308=DIRECTION('',(0.0,0.0,1.0));
#309=VECTOR('',#308,0.188);
#310=LINE('',#307,#309);
#311=EDGE_CURVE('',#297,#306,#310,.T.);
#312=ORIENTED_EDGE('',*,*,#311,.T.);
#313=CARTESIAN_POINT('',(1.0,2.0,0.188));
#314=DIRECTION('',(0.0,0.0,-1.0));
#315=DIRECTION('',(1.0,0.0,0.0));
#316=AXIS2_PLACEMENT_3D('',#313,#314,#315);
#317=CIRCLE('',#316,0.14);
#318=EDGE_CURVE('',#289,#306,#317,.T.);
#319=ORIENTED_EDGE('',*,*,#318,.F.);
#320=EDGE_LOOP('',(#295,#304,#312,#319));
#321=FACE_OUTER_BOUND('',#320,.T.);
#322=ADVANCED_FACE('',(#321),#285,.F.);
#323=CARTESIAN_POINT('',(1.0,2.0,0.0));
#324=DIRECTION('',(0.0,0.0,1.0));
#325=DIRECTION('',(1.0,0.0,0.0));
#326=AXIS2_PLACEMENT_3D('',#323,#324,#325);
#327=CYLINDRICAL_SURFACE('',#326,0.14);
#328=ORIENTED_EDGE('',*,*,#294,.T.);
#329=CARTESIAN_POINT('',(1.0,2.0,0.188));
#330=DIRECTION('',(0.0,0.0,-1.0));
#331=DIRECTION('',(1.0,0.0,0.0));
#332=AXIS2_PLACEMENT_3D('',#329,#330,#331);
#333=CIRCLE('',#332,0.14);
#334=EDGE_CURVE('',#306,#289,#333,.T.);
#335=ORIENTED_EDGE('',*,*,#334,.F.);
#336=ORIENTED_EDGE('',*,*,#311,.F.);
#337=CARTESIAN_POINT('',(1.0,2.0,0.0));
#338=DIRECTION('',(0.0,0.0,1.0));
#339=DIRECTION('',(1.0,0.0,0.0));
#340=AXIS2_PLACEMENT_3D('',#337,#338,#339);
#341=CIRCLE('',#340,0.14);
#342=EDGE_CURVE('',#287,#297,#341,.T.);
#343=ORIENTED_EDGE('',*,*,#342,.F.);
#344=EDGE_LOOP('',(#328,#335,#336,#343));
#345=FACE_OUTER_BOUND('',#344,.T.);
#346=ADVANCED_FACE('',(#345),#327,.F.);
#347=CARTESIAN_POINT('',(0.0,2.0,0.0));
#348=DIRECTION('',(0.0,0.0,1.0));
#349=DIRECTION('',(1.0,0.0,0.0));
#350=AXIS2_PLACEMENT_3D('',#347,#348,#349);
#351=CYLINDRICAL_SURFACE('',#350,0.14);
#352=ORIENTED_EDGE('',*,*,#252,.T.);
#353=CARTESIAN_POINT('',(0.0,2.0,0.188));
#354=DIRECTION('',(0.0,0.0,-1.0));
#355=DIRECTION('',(1.0,0.0,0.0));
#356=AXIS2_PLACEMENT_3D('',#353,#354,#355);
#357=CIRCLE('',#356,0.14);
#358=EDGE_CURVE('',#264,#247,#357,.T.);
#359=ORIENTED_EDGE('',*,*,#358,.F.);
#360=ORIENTED_EDGE('',*,*,#269,.F.);
#361=CARTESIAN_POINT('',(0.0,2.0,0.0));
#362=DIRECTION('',(0.0,0.0,1.0));
#363=DIRECTION('',(1.0,0.0,0.0));
#364=AXIS2_PLACEMENT_3D('',#361,#362,#363);
#365=CIRCLE('',#364,0.14);
#366=EDGE_CURVE('',#245,#255,#365,.T.);
#367=ORIENTED_EDGE('',*,*,#366,.F.);
#368=EDGE_LOOP('',(#352,#359,#360,#367));
#369=FACE_OUTER_BOUND('',#368,.T.);
#370=ADVANCED_FACE('',(#369),#351,.F.);
#371=CARTESIAN_POINT('',(1.0,1.0,0.0));
#372=DIRECTION('',(0.0,0.0,1.0));
#373=DIRECTION('',(1.0,0.0,0.0));
#374=AXIS2_PLACEMENT_3D('',#371,#372,#373);
#375=CYLINDRICAL_SURFACE('',#374,0.14);
#376=ORIENTED_EDGE('',*,*,#210,.T.);
#377=CARTESIAN_POINT('',(1.0,1.0,0.188));
#378=DIRECTION('',(0.0,0.0,-1.0));
#379=DIRECTION('',(1.0,0.0,0.0));
#380=AXIS2_PLACEMENT_3D('',#377,#378,#379);
#381=CIRCLE('',#380,0.14);
#382=EDGE_CURVE('',#222,#205,#381,.T.);
#383=ORIENTED_EDGE('',*,*,#382,.F.);
#384=ORIENTED_EDGE('',*,*,#227,.F.);
#385=CARTESIAN_POINT('',(1.0,1.0,0.0));
#386=DIRECTION('',(0.0,0.0,1.0));
#387=DIRECTION('',(1.0,0.0,0.0));
#388=AXIS2_PLACEMENT_3D('',#385,#386,#387);
#389=CIRCLE('',#388,0.14);
#390=EDGE_CURVE('',#203,#213,#389,.T.);
#391=ORIENTED_EDGE('',*,*,#390,.F.);
#392=EDGE_LOOP('',(#376,#383,#384,#391));
#393=FACE_OUTER_BOUND('',#392,.T.);
#394=ADVANCED_FACE('',(#393),#375,.F.);
#395=CARTESIAN_POINT('',(1.0,0.0,0.0));
#396=DIRECTION('',(0.0,0.0,1.0));
#397=DIRECTION('',(1.0,0.0,0.0));
#398=AXIS2_PLACEMENT_3D('',#395,#396,#397);
#399=CYLINDRICAL_SURFACE('',#398,0.14);
#400=ORIENTED_EDGE('',*,*,#168,.T.);
#401=CARTESIAN_POINT('',(1.0,0.0,0.188));
#402=DIRECTION('',(0.0,0.0,-1.0));
#403=DIRECTION('',(1.0,0.0,0.0));
#404=AXIS2_PLACEMENT_3D('',#401,#402,#403);
#405=CIRCLE('',#404,0.14);
#406=EDGE_CURVE('',#180,#163,#405,.T.);
#407=ORIENTED_EDGE('',*,*,#406,.F.);
#408=ORIENTED_EDGE('',*,*,#185,.F.);
#409=CARTESIAN_POINT('',(1.0,0.0,0.0));
#410=DIRECTION('',(0.0,0.0,1.0));
#411=DIRECTION('',(1.0,0.0,0.0));
#412=AXIS2_PLACEMENT_3D('',#409,#410,#411);
#413=CIRCLE('',#412,0.14);
#414=EDGE_CURVE('',#161,#171,#413,.T.);
#415=ORIENTED_EDGE('',*,*,#414,.F.);
#416=EDGE_LOOP('',(#400,#407,#408,#415));
#417=FACE_OUTER_BOUND('',#416,.T.);
#418=ADVANCED_FACE('',(#417),#399,.F.);
#419=CARTESIAN_POINT('',(0.0,0.0,0.0));
#420=DIRECTION('',(0.0,0.0,1.0));
#421=DIRECTION('',(1.0,0.0,0.0));
#422=AXIS2_PLACEMENT_3D('',#419,#420,#421);
#423=CYLINDRICAL_SURFACE('',#422,0.14);
#424=ORIENTED_EDGE('',*,*,#126,.T.);
#425=CARTESIAN_POINT('',(0.0,0.0,0.188));
#426=DIRECTION('',(0.0,0.0,-1.0));
#427=DIRECTION('',(1.0,0.0,0.0));
#428=AXIS2_PLACEMENT_3D('',#425,#426,#427);
#429=CIRCLE('',#428,0.14);
#430=EDGE_CURVE('',#138,#121,#429,.T.);
#431=ORIENTED_EDGE('',*,*,#430,.F.);
#432=ORIENTED_EDGE('',*,*,#143,.F.);
#433=CARTESIAN_POINT('',(0.0,0.0,0.0));
#434=DIRECTION('',(0.0,0.0,1.0));
#435=DIRECTION('',(1.0,0.0,0.0));
#436=AXIS2_PLACEMENT_3D('',#433,#434,#435);
#437=CIRCLE('',#436,0.14);
#438=EDGE_CURVE('',#119,#129,#437,.T.);
#439=ORIENTED_EDGE('',*,*,#438,.F.);
#440=EDGE_LOOP('',(#424,#431,#432,#439));
#441=FACE_OUTER_BOUND('',#440,.T.);
#442=ADVANCED_FACE('',(#441),#423,.F.);
#443=CARTESIAN_POINT('',(0.0,1.0,0.0));
#444=DIRECTION('',(0.0,0.0,1.0));
#445=DIRECTION('',(1.0,0.0,0.0));
#446=AXIS2_PLACEMENT_3D('',#443,#444,#445);
#447=CYLINDRICAL_SURFACE('',#446,0.14);
#448=ORIENTED_EDGE('',*,*,#84,.T.);
#449=CARTESIAN_POINT('',(0.0,1.0,0.188));
#450=DIRECTION('',(0.0,0.0,-1.0));
#451=DIRECTION('',(1.0,0.0,0.0));
#452=AXIS2_PLACEMENT_3D('',#449,#450,#451);
#453=CIRCLE('',#452,0.14);
#454=EDGE_CURVE('',#96,#79,#453,.T.);
#455=ORIENTED_EDGE('',*,*,#454,.F.);
#456=ORIENTED_EDGE('',*,*,#101,.F.);
#457=CARTESIAN_POINT('',(0.0,1.0,0.0));
#458=DIRECTION('',(0.0,0.0,1.0));
#459=DIRECTION('',(1.0,0.0,0.0));
#460=AXIS2_PLACEMENT_3D('',#457,#458,#459);
#461=CIRCLE('',#460,0.14);
#462=EDGE_CURVE('',#77,#87,#461,.T.);
#463=ORIENTED_EDGE('',*,*,#462,.F.);
#464=EDGE_LOOP('',(#448,#455,#456,#463));
#465=FACE_OUTER_BOUND('',#464,.T.);
#466=ADVANCED_FACE('',(#465),#447,.F.);
#467=CARTESIAN_POINT('',(-0.5,-0.5,0.0));
#468=DIRECTION('',(-1.0,0.0,0.0));
#469=DIRECTION('',(0.0,0.0,1.0));
#470=AXIS2_PLACEMENT_3D('',#467,#468,#469);
#471=PLANE('',#470);
#472=CARTESIAN_POINT('',(-0.5,-0.5,0.188));
#473=VERTEX_POINT('',#472);
#474=CARTESIAN_POINT('',(-0.5,2.5,0.188));
#475=VERTEX_POINT('',#474);
#476=CARTESIAN_POINT('',(-0.5,-0.5,0.188));
#477=DIRECTION('',(0.0,1.0,0.0));
#478=VECTOR('',#477,3.0);
#479=LINE('',#476,#478);
#480=EDGE_CURVE('',#473,#475,#479,.T.);
#481=ORIENTED_EDGE('',*,*,#480,.T.);
#482=CARTESIAN_POINT('',(-0.5,2.5,0.0));
#483=VERTEX_POINT('',#482);
#484=CARTESIAN_POINT('',(-0.5,2.5,0.0));
#485=DIRECTION('',(0.0,0.0,1.0));
#486=VECTOR('',#485,0.188);
#487=LINE('',#484,#486);
#488=EDGE_CURVE('',#483,#475,#487,.T.);
#489=ORIENTED_EDGE('',*,*,#488,.F.);
#490=CARTESIAN_POINT('',(-0.5,-0.5,0.0));
#491=VERTEX_POINT('',#490);
#492=CARTESIAN_POINT('',(-0.5,2.5,0.0));
#493=DIRECTION('',(0.0,-1.0,0.0));
#494=VECTOR('',#493,3.0);
#495=LINE('',#492,#494);
#496=EDGE_CURVE('',#483,#491,#495,.T.);
#497=ORIENTED_EDGE('',*,*,#496,.T.);
#498=CARTESIAN_POINT('',(-0.5,-0.5,0.0));
#499=DIRECTION('',(0.0,0.0,1.0));
#500=VECTOR('',#499,0.188);
#501=LINE('',#498,#500);
#502=EDGE_CURVE('',#491,#473,#501,.T.);
#503=ORIENTED_EDGE('',*,*,#502,.T.);
#504=EDGE_LOOP('',(#481,#489,#497,#503));
#505=FACE_OUTER_BOUND('',#504,.T.);
#506=ADVANCED_FACE('',(#505),#471,.T.);
#507=CARTESIAN_POINT('',(-0.5,2.5,0.0));
#508=DIRECTION('',(0.0,1.0,0.0));
#509=DIRECTION('',(0.0,0.0,1.0));
#510=AXIS2_PLACEMENT_3D('',#507,#508,#509);
#511=PLANE('',#510);
#512=CARTESIAN_POINT('',(1.5,2.5,0.188));
#513=VERTEX_POINT('',#512);
#514=CARTESIAN_POINT('',(-0.5,2.5,0.188));
#515=DIRECTION('',(1.0,0.0,0.0));
#516=VECTOR('',#515,2.0);
#517=LINE('',#514,#516);
#518=EDGE_CURVE('',#475,#513,#517,.T.);
#519=ORIENTED_EDGE('',*,*,#518,.T.);
#520=CARTESIAN_POINT('',(1.5,2.5,0.0));
#521=VERTEX_POINT('',#520);
#522=CARTESIAN_POINT('',(1.5,2.5,0.0));
#523=DIRECTION('',(0.0,0.0,1.0));
#524=VECTOR('',#523,0.188);
#525=LINE('',#522,#524);
#526=EDGE_CURVE('',#521,#513,#525,.T.);
#527=ORIENTED_EDGE('',*,*,#526,.F.);
#528=CARTESIAN_POINT('',(1.5,2.5,0.0));
#529=DIRECTION('',(-1.0,0.0,0.0));
#530=VECTOR('',#529,2.0);
#531=LINE('',#528,#530);
#532=EDGE_CURVE('',#521,#483,#531,.T.);
#533=ORIENTED_EDGE('',*,*,#532,.T.);
#534=ORIENTED_EDGE('',*,*,#488,.T.);
#535=EDGE_LOOP('',(#519,#527,#533,#534));
#536=FACE_OUTER_BOUND('',#535,.T.);
#537=ADVANCED_FACE('',(#536),#511,.T.);
#538=CARTESIAN_POINT('',(1.5,2.5,0.0));
#539=DIRECTION('',(1.0,0.0,0.0));
#540=DIRECTION('',(0.0,0.0,-1.0));
#541=AXIS2_PLACEMENT_3D('',#538,#539,#540);
#542=PLANE('',#541);
#543=CARTESIAN_POINT('',(1.5,-0.5,0.188));
#544=VERTEX_POINT('',#543);
#545=CARTESIAN_POINT('',(1.5,2.5,0.188));
#546=DIRECTION('',(0.0,-1.0,0.0));
#547=VECTOR('',#546,3.0);
#548=LINE('',#545,#547);
#549=EDGE_CURVE('',#513,#544,#548,.T.);
#550=ORIENTED_EDGE('',*,*,#549,.T.);
#551=CARTESIAN_POINT('',(1.5,-0.5,0.0));
#552=VERTEX_POINT('',#551);
#553=CARTESIAN_POINT('',(1.5,-0.5,0.0));
#554=DIRECTION('',(0.0,0.0,1.0));
#555=VECTOR('',#554,0.188);
#556=LINE('',#553,#555);
#557=EDGE_CURVE('',#552,#544,#556,.T.);
#558=ORIENTED_EDGE('',*,*,#557,.F.);
#559=CARTESIAN_POINT('',(1.5,-0.5,0.0));
#560=DIRECTION('',(0.0,1.0,0.0));
#561=VECTOR('',#560,3.0);
#562=LINE('',#559,#561);
#563=EDGE_CURVE('',#552,#521,#562,.T.);
#564=ORIENTED_EDGE('',*,*,#563,.T.);
#565=ORIENTED_EDGE('',*,*,#526,.T.);
#566=EDGE_LOOP('',(#550,#558,#564,#565));
#567=FACE_OUTER_BOUND('',#566,.T.);
#568=ADVANCED_FACE('',(#567),#542,.T.);
#569=CARTESIAN_POINT('',(1.5,-0.5,0.0));
#570=DIRECTION('',(0.0,-1.0,0.0));
#571=DIRECTION('',(0.0,0.0,-1.0));
#572=AXIS2_PLACEMENT_3D('',#569,#570,#571);
#573=PLANE('',#572);
#574=CARTESIAN_POINT('',(1.5,-0.5,0.188));
#575=DIRECTION('',(-1.0,0.0,0.0));
#576=VECTOR('',#575,2.0);
#577=LINE('',#574,#576);
#578=EDGE_CURVE('',#544,#473,#577,.T.);
#579=ORIENTED_EDGE('',*,*,#578,.T.);
#580=ORIENTED_EDGE('',*,*,#502,.F.);
#581=CARTESIAN_POINT('',(-0.5,-0.5,0.0));
#582=DIRECTION('',(1.0,0.0,0.0));
#583=VECTOR('',#582,2.0);
#584=LINE('',#581,#583);
#585=EDGE_CURVE('',#491,#552,#584,.T.);
#586=ORIENTED_EDGE('',*,*,#585,.T.);
#587=ORIENTED_EDGE('',*,*,#557,.T.);
#588=EDGE_LOOP('',(#579,#580,#586,#587));
#589=FACE_OUTER_BOUND('',#588,.T.);
#590=ADVANCED_FACE('',(#589),#573,.T.);
#591=CARTESIAN_POINT('',(0.5,1.0,0.0));
#592=DIRECTION('',(0.0,0.0,-1.0));
#593=DIRECTION('',(-1.0,0.0,0.0));
#594=AXIS2_PLACEMENT_3D('',#591,#592,#593);
#595=PLANE('',#594);
#596=ORIENTED_EDGE('',*,*,#585,.F.);
#597=ORIENTED_EDGE('',*,*,#496,.F.);
#598=ORIENTED_EDGE('',*,*,#532,.F.);
#599=ORIENTED_EDGE('',*,*,#563,.F.);
#600=EDGE_LOOP('',(#596,#597,#598,#599));
#601=FACE_OUTER_BOUND('',#600,.T.);
#602=ORIENTED_EDGE('',*,*,#342,.T.);
#603=ORIENTED_EDGE('',*,*,#303,.T.);
#604=EDGE_LOOP('',(#602,#603));
#605=FACE_BOUND('',#604,.T.);
#606=ORIENTED_EDGE('',*,*,#366,.T.);
#607=ORIENTED_EDGE('',*,*,#261,.T.);
#608=EDGE_LOOP('',(#606,#607));
#609=FACE_BOUND('',#608,.T.);
#610=ORIENTED_EDGE('',*,*,#390,.T.);
#611=ORIENTED_EDGE('',*,*,#219,.T.);
#612=EDGE_LOOP('',(#610,#611));
#613=FACE_BOUND('',#612,.T.);
#614=ORIENTED_EDGE('',*,*,#414,.T.);
#615=ORIENTED_EDGE('',*,*,#177,.T.);
#616=EDGE_LOOP('',(#614,#615));
#617=FACE_BOUND('',#616,.T.);
#618=ORIENTED_EDGE('',*,*,#438,.T.);
#619=ORIENTED_EDGE('',*,*,#135,.T.);
#620=EDGE_LOOP('',(#618,#619));
#621=FACE_BOUND('',#620,.T.);
#622=ORIENTED_EDGE('',*,*,#462,.T.);
#623=ORIENTED_EDGE('',*,*,#93,.T.);
#624=EDGE_LOOP('',(#622,#623));
#625=FACE_BOUND('',#624,.T.);
#626=ADVANCED_FACE('',(#601,#605,#609,#613,#617,#621,#625),#595,.T.);
#627=CARTESIAN_POINT('',(-0.5,-0.5,0.188));
#628=DIRECTION('',(0.0,0.0,-1.0));
#629=DIRECTION('',(-1.0,0.0,0.0));
#630=AXIS2_PLACEMENT_3D('',#627,#628,#629);
#631=PLANE('',#630);
#632=ORIENTED_EDGE('',*,*,#480,.F.);
#633=ORIENTED_EDGE('',*,*,#578,.F.);
#634=ORIENTED_EDGE('',*,*,#549,.F.);
#635=ORIENTED_EDGE('',*,*,#518,.F.);
#636=EDGE_LOOP('',(#632,#633,#634,#635));
#637=FACE_OUTER_BOUND('',#636,.T.);
#638=ORIENTED_EDGE('',*,*,#318,.T.);
#639=ORIENTED_EDGE('',*,*,#334,.T.);
#640=EDGE_LOOP('',(#638,#639));
#641=FACE_BOUND('',#640,.T.);
#642=ORIENTED_EDGE('',*,*,#276,.T.);
#643=ORIENTED_EDGE('',*,*,#358,.T.);
#644=EDGE_LOOP('',(#642,#643));
#645=FACE_BOUND('',#644,.T.);
#646=ORIENTED_EDGE('',*,*,#234,.T.);
#647=ORIENTED_EDGE('',*,*,#382,.T.);
#648=EDGE_LOOP('',(#646,#647));
#649=FACE_BOUND('',#648,.T.);
#650=ORIENTED_EDGE('',*,*,#192,.T.);
#651=ORIENTED_EDGE('',*,*,#406,.T.);
#652=EDGE_LOOP('',(#650,#651));
#653=FACE_BOUND('',#652,.T.);
#654=ORIENTED_EDGE('',*,*,#150,.T.);
#655=ORIENTED_EDGE('',*,*,#430,.T.);
#656=EDGE_LOOP('',(#654,#655));
#657=FACE_BOUND('',#656,.T.);
#658=ORIENTED_EDGE('',*,*,#108,.T.);
#659=ORIENTED_EDGE('',*,*,#454,.T.);
#660=EDGE_LOOP('',(#658,#659));
#661=FACE_BOUND('',#660,.T.);
#662=ADVANCED_FACE('',(#637,#641,#645,#649,#653,#657,#661),#631,.F.);
#663=CLOSED_SHELL('',(#112,#154,#196,#238,#280,#322,#346,#370,#394,#418,#442,#466,#506,#537,#568,#590,#626,#662));
#664=MANIFOLD_SOLID_BREP('2B',#663);
#665=DRAUGHTING_PRE_DEFINED_COLOUR('white');
#666=SURFACE_STYLE_USAGE(.BOTH.,#667);
#667=SURFACE_SIDE_STYLE('NONE',(#668));
#668=SURFACE_STYLE_FILL_AREA(#669);
#669=FILL_AREA_STYLE('NONE',(#670));
#670=FILL_AREA_STYLE_COLOUR('NONE',#665);
#671=PRESENTATION_STYLE_ASSIGNMENT((#666));
#672=STYLED_ITEM('NONE',(#671),#664);
#673=MECHANICAL_DESIGN_GEOMETRIC_PRESENTATION_REPRESENTATION('NONE',(#672),#34);
#674=PRESENTATION_LAYER_ASSIGNMENT('0','None',(#664));
#675=ADVANCED_BREP_SHAPE_REPRESENTATION('ABSR1',(#664),#34);
#676=SHAPE_REPRESENTATION_RELATIONSHIP('SRRPL1','',#675,#68);
ENDSEC;
END-ISO-10303-21;
