ISO-10303-21;
HEADER;
/****************************************************************
 * Generated by software with PDElib inside                    *
 * PDElib Version v51a, created Fri 09/10/2010                  *
 * ITI Transcendata (http://www.transcendata.com/)              *
 ****************************************************************/
FILE_DESCRIPTION((''),'2;1');
FILE_NAME('10JP4214.stp','2015-07-14T08:39:53',(''),(''),'Mechanical Desktop 2011','Mechanical Desktop 2011',', , ');
FILE_SCHEMA(('CONFIG_CONTROL_DESIGN'));
ENDSEC;
DATA;
#10=(NAMED_UNIT(*)PLANE_ANGLE_UNIT()SI_UNIT($,.RADIAN.));
#11=DIMENSIONAL_EXPONENTS(0.0,0.0,0.0,0.0,0.0,0.0,0.0);
#12=PLANE_ANGLE_MEASURE_WITH_UNIT(PLANE_ANGLE_MEASURE(0.0174532925),#10);
#16=(CONVERSION_BASED_UNIT('DEGREE',#12)NAMED_UNIT(#11)PLANE_ANGLE_UNIT());
#20=(NAMED_UNIT(*)SI_UNIT($,.STERADIAN.)SOLID_ANGLE_UNIT());
#24=(LENGTH_UNIT()NAMED_UNIT(*)SI_UNIT(.MILLI.,.METRE.));
#26=UNCERTAINTY_MEASURE_WITH_UNIT(LENGTH_MEASURE(0.000001),#24,'DISTANCE_ACCURACY_VALUE','');
#28=(GEOMETRIC_REPRESENTATION_CONTEXT(3)GLOBAL_UNCERTAINTY_ASSIGNED_CONTEXT((#26))GLOBAL_UNIT_ASSIGNED_CONTEXT((#16,#20,#24))REPRESENTATION_CONTEXT('','3D'));
#29=APPLICATION_CONTEXT('CONFIGURATION CONTROLLED 3D DESIGNS OF MECHANICAL PARTS AND ASSEMBLIES');
#30=APPLICATION_PROTOCOL_DEFINITION('INTERNATIONAL STANDARD','config_control_design',1995,#29);
#31=MECHANICAL_CONTEXT('3D Mechanical Parts',#29,'mechanical');
#32=PRODUCT('Product','Product',' ',(#31));
#33=PRODUCT_RELATED_PRODUCT_CATEGORY('detail',$,(#32));
#34=PRODUCT_CATEGORY('part',$);
#35=PRODUCT_CATEGORY_RELATIONSHIP('None','None',#34,#33);
#36=PERSON('1','Design','Joe',$,$,$);
#37=ORGANIZATION($,'None','None');
#38=PERSON_AND_ORGANIZATION(#36,#37);
#39=PERSON_AND_ORGANIZATION_ROLE('design_owner');
#40=CC_DESIGN_PERSON_AND_ORGANIZATION_ASSIGNMENT(#38,#39,(#32));
#41=PRODUCT_DEFINITION_FORMATION_WITH_SPECIFIED_SOURCE('None','None',#32,.BOUGHT.);
#42=PERSON('2','Creator','Joe',$,$,$);
#43=ORGANIZATION($,'None','None');
#44=PERSON_AND_ORGANIZATION(#42,#43);
#45=PERSON_AND_ORGANIZATION_ROLE('creator');
#46=CC_DESIGN_PERSON_AND_ORGANIZATION_ASSIGNMENT(#44,#45,(#41));
#47=PERSON('3','Supplier','Joe',$,$,$);
#48=ORGANIZATION($,'None','None');
#49=PERSON_AND_ORGANIZATION(#47,#48);
#50=PERSON_AND_ORGANIZATION_ROLE('design_supplier');
#51=CC_DESIGN_PERSON_AND_ORGANIZATION_ASSIGNMENT(#49,#50,(#41));
#52=APPROVAL_STATUS('approved');
#53=APPROVAL(#52,'None');
#54=PERSON('4','Approver','Joe',$,$,$);
#55=ORGANIZATION($,'None','None');
#56=PERSON_AND_ORGANIZATION(#54,#55);
#57=APPROVAL_ROLE('approver');
#58=APPROVAL_PERSON_ORGANIZATION(#56,#53,#57);
#59=COORDINATED_UNIVERSAL_TIME_OFFSET(8,$,.EXACT.);
#60=CALENDAR_DATE(1996,29,5);
#61=LOCAL_TIME(12,0,0.0,#59);
#62=DATE_AND_TIME(#60,#61);
#63=APPROVAL_DATE_TIME(#62,#53);
#64=CC_DESIGN_APPROVAL(#53,(#41));
#65=SECURITY_CLASSIFICATION_LEVEL('unclassified');
#66=SECURITY_CLASSIFICATION('security','None',#65);
#67=CC_DESIGN_SECURITY_CLASSIFICATION(#66,(#41));
#68=APPROVAL_STATUS('approved');
#69=APPROVAL(#68,'None');
#70=PERSON('5','Approver','Joe',$,$,$);
#71=ORGANIZATION($,'None','None');
#72=PERSON_AND_ORGANIZATION(#70,#71);
#73=APPROVAL_ROLE('approver');
#74=APPROVAL_PERSON_ORGANIZATION(#72,#69,#73);
#75=COORDINATED_UNIVERSAL_TIME_OFFSET(8,$,.EXACT.);
#76=CALENDAR_DATE(1996,29,5);
#77=LOCAL_TIME(12,0,0.0,#75);
#78=DATE_AND_TIME(#76,#77);
#79=APPROVAL_DATE_TIME(#78,#69);
#80=CC_DESIGN_APPROVAL(#69,(#66));
#81=PERSON('6','Classifier','Joe',$,$,$);
#82=ORGANIZATION($,'None','None');
#83=PERSON_AND_ORGANIZATION(#81,#82);
#84=PERSON_AND_ORGANIZATION_ROLE('classification_officer');
#85=CC_DESIGN_PERSON_AND_ORGANIZATION_ASSIGNMENT(#83,#84,(#66));
#86=COORDINATED_UNIVERSAL_TIME_OFFSET(8,$,.EXACT.);
#87=CALENDAR_DATE(1996,29,5);
#88=LOCAL_TIME(12,0,0.0,#86);
#89=DATE_AND_TIME(#87,#88);
#90=DATE_TIME_ROLE('classification_date');
#91=CC_DESIGN_DATE_AND_TIME_ASSIGNMENT(#89,#90,(#66));
#92=DESIGN_CONTEXT('Design Context',#29,'design');
#93=PRODUCT_DEFINITION('None','None',#41,#92);
#94=PERSON('7','Creator','Joe',$,$,$);
#95=ORGANIZATION($,'None','None');
#96=PERSON_AND_ORGANIZATION(#94,#95);
#97=PERSON_AND_ORGANIZATION_ROLE('creator');
#98=CC_DESIGN_PERSON_AND_ORGANIZATION_ASSIGNMENT(#96,#97,(#93));
#99=COORDINATED_UNIVERSAL_TIME_OFFSET(8,$,.EXACT.);
#100=CALENDAR_DATE(1996,29,5);
#101=LOCAL_TIME(12,0,0.0,#99);
#102=DATE_AND_TIME(#100,#101);
#103=DATE_TIME_ROLE('creation_date');
#104=CC_DESIGN_DATE_AND_TIME_ASSIGNMENT(#102,#103,(#93));
#105=APPROVAL_STATUS('approved');
#106=APPROVAL(#105,'None');
#107=PERSON('8','Approver','Joe',$,$,$);
#108=ORGANIZATION($,'None','None');
#109=PERSON_AND_ORGANIZATION(#107,#108);
#110=APPROVAL_ROLE('approver');
#111=APPROVAL_PERSON_ORGANIZATION(#109,#106,#110);
#112=COORDINATED_UNIVERSAL_TIME_OFFSET(8,$,.EXACT.);
#113=CALENDAR_DATE(1996,29,5);
#114=LOCAL_TIME(12,0,0.0,#112);
#115=DATE_AND_TIME(#113,#114);
#116=APPROVAL_DATE_TIME(#115,#106);
#117=CC_DESIGN_APPROVAL(#106,(#93));
#118=CARTESIAN_POINT('NONE',(0.0,0.0,0.0));
#119=DIRECTION('NONE',(0.0,0.0,1.0));
#120=DIRECTION('NONE',(1.0,0.0,0.0));
#121=AXIS2_PLACEMENT_3D('NONE',#118,#119,#120);
#122=SHAPE_REPRESENTATION('SR1',(#121),#28);
#123=PRODUCT_DEFINITION_SHAPE('PDS1','Test Part',#93);
#124=SHAPE_DEFINITION_REPRESENTATION(#123,#122);
#125=CARTESIAN_POINT('',(0.0,1.0,0.0));
#126=DIRECTION('',(0.0,0.0,1.0));
#127=DIRECTION('',(1.0,0.0,0.0));
#128=AXIS2_PLACEMENT_3D('',#125,#126,#127);
#129=CYLINDRICAL_SURFACE('',#128,0.14);
#130=CARTESIAN_POINT('',(0.14,1.0,0.0));
#131=VERTEX_POINT('',#130);
#132=CARTESIAN_POINT('',(0.14,1.0,0.188));
#133=VERTEX_POINT('',#132);
#134=CARTESIAN_POINT('',(0.14,1.0,0.0));
#135=DIRECTION('',(0.0,0.0,1.0));
#136=VECTOR('',#135,0.188);
#137=LINE('',#134,#136);
#138=EDGE_CURVE('',#131,#133,#137,.T.);
#139=ORIENTED_EDGE('',*,*,#138,.F.);
#140=CARTESIAN_POINT('',(-0.14,1.0,0.0));
#141=VERTEX_POINT('',#140);
#142=CARTESIAN_POINT('',(0.0,1.0,0.0));
#143=DIRECTION('',(0.0,0.0,1.0));
#144=DIRECTION('',(1.0,0.0,0.0));
#145=AXIS2_PLACEMENT_3D('',#142,#143,#144);
#146=CIRCLE('',#145,0.14);
#147=EDGE_CURVE('',#141,#131,#146,.T.);
#148=ORIENTED_EDGE('',*,*,#147,.F.);
#149=CARTESIAN_POINT('',(-0.14,1.0,0.188));
#150=VERTEX_POINT('',#149);
#151=CARTESIAN_POINT('',(-0.14,1.0,0.0));
#152=DIRECTION('',(0.0,0.0,1.0));
#153=VECTOR('',#152,0.188);
#154=LINE('',#151,#153);
#155=EDGE_CURVE('',#141,#150,#154,.T.);
#156=ORIENTED_EDGE('',*,*,#155,.T.);
#157=CARTESIAN_POINT('',(0.0,1.0,0.188));
#158=DIRECTION('',(0.0,0.0,-1.0));
#159=DIRECTION('',(1.0,0.0,0.0));
#160=AXIS2_PLACEMENT_3D('',#157,#158,#159);
#161=CIRCLE('',#160,0.14);
#162=EDGE_CURVE('',#133,#150,#161,.T.);
#163=ORIENTED_EDGE('',*,*,#162,.F.);
#164=EDGE_LOOP('',(#139,#148,#156,#163));
#165=FACE_OUTER_BOUND('',#164,.T.);
#166=ADVANCED_FACE('',(#165),#129,.F.);
#167=CARTESIAN_POINT('',(0.0,0.0,0.0));
#168=DIRECTION('',(0.0,0.0,1.0));
#169=DIRECTION('',(1.0,0.0,0.0));
#170=AXIS2_PLACEMENT_3D('',#167,#168,#169);
#171=CYLINDRICAL_SURFACE('',#170,0.14);
#172=CARTESIAN_POINT('',(0.14,0.0,0.0));
#173=VERTEX_POINT('',#172);
#174=CARTESIAN_POINT('',(0.14,0.0,0.188));
#175=VERTEX_POINT('',#174);
#176=CARTESIAN_POINT('',(0.14,0.0,0.0));
#177=DIRECTION('',(0.0,0.0,1.0));
#178=VECTOR('',#177,0.188);
#179=LINE('',#176,#178);
#180=EDGE_CURVE('',#173,#175,#179,.T.);
#181=ORIENTED_EDGE('',*,*,#180,.F.);
#182=CARTESIAN_POINT('',(-0.14,-1.714506E-017,0.0));
#183=VERTEX_POINT('',#182);
#184=CARTESIAN_POINT('',(0.0,0.0,0.0));
#185=DIRECTION('',(0.0,0.0,1.0));
#186=DIRECTION('',(1.0,0.0,0.0));
#187=AXIS2_PLACEMENT_3D('',#184,#185,#186);
#188=CIRCLE('',#187,0.14);
#189=EDGE_CURVE('',#183,#173,#188,.T.);
#190=ORIENTED_EDGE('',*,*,#189,.F.);
#191=CARTESIAN_POINT('',(-0.14,-1.714506E-017,0.188));
#192=VERTEX_POINT('',#191);
#193=CARTESIAN_POINT('',(-0.14,-1.714506E-017,0.0));
#194=DIRECTION('',(0.0,0.0,1.0));
#195=VECTOR('',#194,0.188);
#196=LINE('',#193,#195);
#197=EDGE_CURVE('',#183,#192,#196,.T.);
#198=ORIENTED_EDGE('',*,*,#197,.T.);
#199=CARTESIAN_POINT('',(0.0,0.0,0.188));
#200=DIRECTION('',(0.0,0.0,-1.0));
#201=DIRECTION('',(1.0,0.0,0.0));
#202=AXIS2_PLACEMENT_3D('',#199,#200,#201);
#203=CIRCLE('',#202,0.14);
#204=EDGE_CURVE('',#175,#192,#203,.T.);
#205=ORIENTED_EDGE('',*,*,#204,.F.);
#206=EDGE_LOOP('',(#181,#190,#198,#205));
#207=FACE_OUTER_BOUND('',#206,.T.);
#208=ADVANCED_FACE('',(#207),#171,.F.);
#209=CARTESIAN_POINT('',(1.0,0.0,0.0));
#210=DIRECTION('',(0.0,0.0,1.0));
#211=DIRECTION('',(1.0,0.0,0.0));
#212=AXIS2_PLACEMENT_3D('',#209,#210,#211);
#213=CYLINDRICAL_SURFACE('',#212,0.14);
#214=CARTESIAN_POINT('',(1.14,0.0,0.0));
#215=VERTEX_POINT('',#214);
#216=CARTESIAN_POINT('',(1.14,0.0,0.188));
#217=VERTEX_POINT('',#216);
#218=CARTESIAN_POINT('',(1.14,0.0,0.0));
#219=DIRECTION('',(0.0,0.0,1.0));
#220=VECTOR('',#219,0.188);
#221=LINE('',#218,#220);
#222=EDGE_CURVE('',#215,#217,#221,.T.);
#223=ORIENTED_EDGE('',*,*,#222,.F.);
#224=CARTESIAN_POINT('',(0.86,-1.714506E-017,0.0));
#225=VERTEX_POINT('',#224);
#226=CARTESIAN_POINT('',(1.0,0.0,0.0));
#227=DIRECTION('',(0.0,0.0,1.0));
#228=DIRECTION('',(1.0,0.0,0.0));
#229=AXIS2_PLACEMENT_3D('',#226,#227,#228);
#230=CIRCLE('',#229,0.14);
#231=EDGE_CURVE('',#225,#215,#230,.T.);
#232=ORIENTED_EDGE('',*,*,#231,.F.);
#233=CARTESIAN_POINT('',(0.86,-1.714506E-017,0.188));
#234=VERTEX_POINT('',#233);
#235=CARTESIAN_POINT('',(0.86,-1.714506E-017,0.0));
#236=DIRECTION('',(0.0,0.0,1.0));
#237=VECTOR('',#236,0.188);
#238=LINE('',#235,#237);
#239=EDGE_CURVE('',#225,#234,#238,.T.);
#240=ORIENTED_EDGE('',*,*,#239,.T.);
#241=CARTESIAN_POINT('',(1.0,0.0,0.188));
#242=DIRECTION('',(0.0,0.0,-1.0));
#243=DIRECTION('',(1.0,0.0,0.0));
#244=AXIS2_PLACEMENT_3D('',#241,#242,#243);
#245=CIRCLE('',#244,0.14);
#246=EDGE_CURVE('',#217,#234,#245,.T.);
#247=ORIENTED_EDGE('',*,*,#246,.F.);
#248=EDGE_LOOP('',(#223,#232,#240,#247));
#249=FACE_OUTER_BOUND('',#248,.T.);
#250=ADVANCED_FACE('',(#249),#213,.F.);
#251=CARTESIAN_POINT('',(1.0,1.0,0.0));
#252=DIRECTION('',(0.0,0.0,1.0));
#253=DIRECTION('',(1.0,0.0,0.0));
#254=AXIS2_PLACEMENT_3D('',#251,#252,#253);
#255=CYLINDRICAL_SURFACE('',#254,0.14);
#256=CARTESIAN_POINT('',(1.14,1.0,0.0));
#257=VERTEX_POINT('',#256);
#258=CARTESIAN_POINT('',(1.14,1.0,0.188));
#259=VERTEX_POINT('',#258);
#260=CARTESIAN_POINT('',(1.14,1.0,0.0));
#261=DIRECTION('',(0.0,0.0,1.0));
#262=VECTOR('',#261,0.188);
#263=LINE('',#260,#262);
#264=EDGE_CURVE('',#257,#259,#263,.T.);
#265=ORIENTED_EDGE('',*,*,#264,.F.);
#266=CARTESIAN_POINT('',(0.86,1.0,0.0));
#267=VERTEX_POINT('',#266);
#268=CARTESIAN_POINT('',(1.0,1.0,0.0));
#269=DIRECTION('',(0.0,0.0,1.0));
#270=DIRECTION('',(1.0,0.0,0.0));
#271=AXIS2_PLACEMENT_3D('',#268,#269,#270);
#272=CIRCLE('',#271,0.14);
#273=EDGE_CURVE('',#267,#257,#272,.T.);
#274=ORIENTED_EDGE('',*,*,#273,.F.);
#275=CARTESIAN_POINT('',(0.86,1.0,0.188));
#276=VERTEX_POINT('',#275);
#277=CARTESIAN_POINT('',(0.86,1.0,0.0));
#278=DIRECTION('',(0.0,0.0,1.0));
#279=VECTOR('',#278,0.188);
#280=LINE('',#277,#279);
#281=EDGE_CURVE('',#267,#276,#280,.T.);
#282=ORIENTED_EDGE('',*,*,#281,.T.);
#283=CARTESIAN_POINT('',(1.0,1.0,0.188));
#284=DIRECTION('',(0.0,0.0,-1.0));
#285=DIRECTION('',(1.0,0.0,0.0));
#286=AXIS2_PLACEMENT_3D('',#283,#284,#285);
#287=CIRCLE('',#286,0.14);
#288=EDGE_CURVE('',#259,#276,#287,.T.);
#289=ORIENTED_EDGE('',*,*,#288,.F.);
#290=EDGE_LOOP('',(#265,#274,#282,#289));
#291=FACE_OUTER_BOUND('',#290,.T.);
#292=ADVANCED_FACE('',(#291),#255,.F.);
#293=CARTESIAN_POINT('',(0.0,3.0,0.0));
#294=DIRECTION('',(0.0,0.0,1.0));
#295=DIRECTION('',(1.0,0.0,0.0));
#296=AXIS2_PLACEMENT_3D('',#293,#294,#295);
#297=CYLINDRICAL_SURFACE('',#296,0.14);
#298=CARTESIAN_POINT('',(0.14,3.0,0.0));
#299=VERTEX_POINT('',#298);
#300=CARTESIAN_POINT('',(0.14,3.0,0.188));
#301=VERTEX_POINT('',#300);
#302=CARTESIAN_POINT('',(0.14,3.0,0.0));
#303=DIRECTION('',(0.0,0.0,1.0));
#304=VECTOR('',#303,0.188);
#305=LINE('',#302,#304);
#306=EDGE_CURVE('',#299,#301,#305,.T.);
#307=ORIENTED_EDGE('',*,*,#306,.F.);
#308=CARTESIAN_POINT('',(-0.14,3.0,0.0));
#309=VERTEX_POINT('',#308);
#310=CARTESIAN_POINT('',(0.0,3.0,0.0));
#311=DIRECTION('',(0.0,0.0,1.0));
#312=DIRECTION('',(1.0,0.0,0.0));
#313=AXIS2_PLACEMENT_3D('',#310,#311,#312);
#314=CIRCLE('',#313,0.14);
#315=EDGE_CURVE('',#309,#299,#314,.T.);
#316=ORIENTED_EDGE('',*,*,#315,.F.);
#317=CARTESIAN_POINT('',(-0.14,3.0,0.188));
#318=VERTEX_POINT('',#317);
#319=CARTESIAN_POINT('',(-0.14,3.0,0.0));
#320=DIRECTION('',(0.0,0.0,1.0));
#321=VECTOR('',#320,0.188);
#322=LINE('',#319,#321);
#323=EDGE_CURVE('',#309,#318,#322,.T.);
#324=ORIENTED_EDGE('',*,*,#323,.T.);
#325=CARTESIAN_POINT('',(0.0,3.0,0.188));
#326=DIRECTION('',(0.0,0.0,-1.0));
#327=DIRECTION('',(1.0,0.0,0.0));
#328=AXIS2_PLACEMENT_3D('',#325,#326,#327);
#329=CIRCLE('',#328,0.14);
#330=EDGE_CURVE('',#301,#318,#329,.T.);
#331=ORIENTED_EDGE('',*,*,#330,.F.);
#332=EDGE_LOOP('',(#307,#316,#324,#331));
#333=FACE_OUTER_BOUND('',#332,.T.);
#334=ADVANCED_FACE('',(#333),#297,.F.);
#335=CARTESIAN_POINT('',(0.0,2.0,0.0));
#336=DIRECTION('',(0.0,0.0,1.0));
#337=DIRECTION('',(1.0,0.0,0.0));
#338=AXIS2_PLACEMENT_3D('',#335,#336,#337);
#339=CYLINDRICAL_SURFACE('',#338,0.14);
#340=CARTESIAN_POINT('',(0.14,2.0,0.0));
#341=VERTEX_POINT('',#340);
#342=CARTESIAN_POINT('',(0.14,2.0,0.188));
#343=VERTEX_POINT('',#342);
#344=CARTESIAN_POINT('',(0.14,2.0,0.0));
#345=DIRECTION('',(0.0,0.0,1.0));
#346=VECTOR('',#345,0.188);
#347=LINE('',#344,#346);
#348=EDGE_CURVE('',#341,#343,#347,.T.);
#349=ORIENTED_EDGE('',*,*,#348,.F.);
#350=CARTESIAN_POINT('',(-0.14,2.0,0.0));
#351=VERTEX_POINT('',#350);
#352=CARTESIAN_POINT('',(0.0,2.0,0.0));
#353=DIRECTION('',(0.0,0.0,1.0));
#354=DIRECTION('',(1.0,0.0,0.0));
#355=AXIS2_PLACEMENT_3D('',#352,#353,#354);
#356=CIRCLE('',#355,0.14);
#357=EDGE_CURVE('',#351,#341,#356,.T.);
#358=ORIENTED_EDGE('',*,*,#357,.F.);
#359=CARTESIAN_POINT('',(-0.14,2.0,0.188));
#360=VERTEX_POINT('',#359);
#361=CARTESIAN_POINT('',(-0.14,2.0,0.0));
#362=DIRECTION('',(0.0,0.0,1.0));
#363=VECTOR('',#362,0.188);
#364=LINE('',#361,#363);
#365=EDGE_CURVE('',#351,#360,#364,.T.);
#366=ORIENTED_EDGE('',*,*,#365,.T.);
#367=CARTESIAN_POINT('',(0.0,2.0,0.188));
#368=DIRECTION('',(0.0,0.0,-1.0));
#369=DIRECTION('',(1.0,0.0,0.0));
#370=AXIS2_PLACEMENT_3D('',#367,#368,#369);
#371=CIRCLE('',#370,0.14);
#372=EDGE_CURVE('',#343,#360,#371,.T.);
#373=ORIENTED_EDGE('',*,*,#372,.F.);
#374=EDGE_LOOP('',(#349,#358,#366,#373));
#375=FACE_OUTER_BOUND('',#374,.T.);
#376=ADVANCED_FACE('',(#375),#339,.F.);
#377=CARTESIAN_POINT('',(0.0,2.0,0.0));
#378=DIRECTION('',(0.0,0.0,1.0));
#379=DIRECTION('',(1.0,0.0,0.0));
#380=AXIS2_PLACEMENT_3D('',#377,#378,#379);
#381=CYLINDRICAL_SURFACE('',#380,0.14);
#382=ORIENTED_EDGE('',*,*,#348,.T.);
#383=CARTESIAN_POINT('',(0.0,2.0,0.188));
#384=DIRECTION('',(0.0,0.0,-1.0));
#385=DIRECTION('',(1.0,0.0,0.0));
#386=AXIS2_PLACEMENT_3D('',#383,#384,#385);
#387=CIRCLE('',#386,0.14);
#388=EDGE_CURVE('',#360,#343,#387,.T.);
#389=ORIENTED_EDGE('',*,*,#388,.F.);
#390=ORIENTED_EDGE('',*,*,#365,.F.);
#391=CARTESIAN_POINT('',(0.0,2.0,0.0));
#392=DIRECTION('',(0.0,0.0,1.0));
#393=DIRECTION('',(1.0,0.0,0.0));
#394=AXIS2_PLACEMENT_3D('',#391,#392,#393);
#395=CIRCLE('',#394,0.14);
#396=EDGE_CURVE('',#341,#351,#395,.T.);
#397=ORIENTED_EDGE('',*,*,#396,.F.);
#398=EDGE_LOOP('',(#382,#389,#390,#397));
#399=FACE_OUTER_BOUND('',#398,.T.);
#400=ADVANCED_FACE('',(#399),#381,.F.);
#401=CARTESIAN_POINT('',(0.0,3.0,0.0));
#402=DIRECTION('',(0.0,0.0,1.0));
#403=DIRECTION('',(1.0,0.0,0.0));
#404=AXIS2_PLACEMENT_3D('',#401,#402,#403);
#405=CYLINDRICAL_SURFACE('',#404,0.14);
#406=ORIENTED_EDGE('',*,*,#306,.T.);
#407=CARTESIAN_POINT('',(0.0,3.0,0.188));
#408=DIRECTION('',(0.0,0.0,-1.0));
#409=DIRECTION('',(1.0,0.0,0.0));
#410=AXIS2_PLACEMENT_3D('',#407,#408,#409);
#411=CIRCLE('',#410,0.14);
#412=EDGE_CURVE('',#318,#301,#411,.T.);
#413=ORIENTED_EDGE('',*,*,#412,.F.);
#414=ORIENTED_EDGE('',*,*,#323,.F.);
#415=CARTESIAN_POINT('',(0.0,3.0,0.0));
#416=DIRECTION('',(0.0,0.0,1.0));
#417=DIRECTION('',(1.0,0.0,0.0));
#418=AXIS2_PLACEMENT_3D('',#415,#416,#417);
#419=CIRCLE('',#418,0.14);
#420=EDGE_CURVE('',#299,#309,#419,.T.);
#421=ORIENTED_EDGE('',*,*,#420,.F.);
#422=EDGE_LOOP('',(#406,#413,#414,#421));
#423=FACE_OUTER_BOUND('',#422,.T.);
#424=ADVANCED_FACE('',(#423),#405,.F.);
#425=CARTESIAN_POINT('',(1.0,1.0,0.0));
#426=DIRECTION('',(0.0,0.0,1.0));
#427=DIRECTION('',(1.0,0.0,0.0));
#428=AXIS2_PLACEMENT_3D('',#425,#426,#427);
#429=CYLINDRICAL_SURFACE('',#428,0.14);
#430=ORIENTED_EDGE('',*,*,#264,.T.);
#431=CARTESIAN_POINT('',(1.0,1.0,0.188));
#432=DIRECTION('',(0.0,0.0,-1.0));
#433=DIRECTION('',(1.0,0.0,0.0));
#434=AXIS2_PLACEMENT_3D('',#431,#432,#433);
#435=CIRCLE('',#434,0.14);
#436=EDGE_CURVE('',#276,#259,#435,.T.);
#437=ORIENTED_EDGE('',*,*,#436,.F.);
#438=ORIENTED_EDGE('',*,*,#281,.F.);
#439=CARTESIAN_POINT('',(1.0,1.0,0.0));
#440=DIRECTION('',(0.0,0.0,1.0));
#441=DIRECTION('',(1.0,0.0,0.0));
#442=AXIS2_PLACEMENT_3D('',#439,#440,#441);
#443=CIRCLE('',#442,0.14);
#444=EDGE_CURVE('',#257,#267,#443,.T.);
#445=ORIENTED_EDGE('',*,*,#444,.F.);
#446=EDGE_LOOP('',(#430,#437,#438,#445));
#447=FACE_OUTER_BOUND('',#446,.T.);
#448=ADVANCED_FACE('',(#447),#429,.F.);
#449=CARTESIAN_POINT('',(1.0,0.0,0.0));
#450=DIRECTION('',(0.0,0.0,1.0));
#451=DIRECTION('',(1.0,0.0,0.0));
#452=AXIS2_PLACEMENT_3D('',#449,#450,#451);
#453=CYLINDRICAL_SURFACE('',#452,0.14);
#454=ORIENTED_EDGE('',*,*,#222,.T.);
#455=CARTESIAN_POINT('',(1.0,0.0,0.188));
#456=DIRECTION('',(0.0,0.0,-1.0));
#457=DIRECTION('',(1.0,0.0,0.0));
#458=AXIS2_PLACEMENT_3D('',#455,#456,#457);
#459=CIRCLE('',#458,0.14);
#460=EDGE_CURVE('',#234,#217,#459,.T.);
#461=ORIENTED_EDGE('',*,*,#460,.F.);
#462=ORIENTED_EDGE('',*,*,#239,.F.);
#463=CARTESIAN_POINT('',(1.0,0.0,0.0));
#464=DIRECTION('',(0.0,0.0,1.0));
#465=DIRECTION('',(1.0,0.0,0.0));
#466=AXIS2_PLACEMENT_3D('',#463,#464,#465);
#467=CIRCLE('',#466,0.14);
#468=EDGE_CURVE('',#215,#225,#467,.T.);
#469=ORIENTED_EDGE('',*,*,#468,.F.);
#470=EDGE_LOOP('',(#454,#461,#462,#469));
#471=FACE_OUTER_BOUND('',#470,.T.);
#472=ADVANCED_FACE('',(#471),#453,.F.);
#473=CARTESIAN_POINT('',(0.0,0.0,0.0));
#474=DIRECTION('',(0.0,0.0,1.0));
#475=DIRECTION('',(1.0,0.0,0.0));
#476=AXIS2_PLACEMENT_3D('',#473,#474,#475);
#477=CYLINDRICAL_SURFACE('',#476,0.14);
#478=ORIENTED_EDGE('',*,*,#180,.T.);
#479=CARTESIAN_POINT('',(0.0,0.0,0.188));
#480=DIRECTION('',(0.0,0.0,-1.0));
#481=DIRECTION('',(1.0,0.0,0.0));
#482=AXIS2_PLACEMENT_3D('',#479,#480,#481);
#483=CIRCLE('',#482,0.14);
#484=EDGE_CURVE('',#192,#175,#483,.T.);
#485=ORIENTED_EDGE('',*,*,#484,.F.);
#486=ORIENTED_EDGE('',*,*,#197,.F.);
#487=CARTESIAN_POINT('',(0.0,0.0,0.0));
#488=DIRECTION('',(0.0,0.0,1.0));
#489=DIRECTION('',(1.0,0.0,0.0));
#490=AXIS2_PLACEMENT_3D('',#487,#488,#489);
#491=CIRCLE('',#490,0.14);
#492=EDGE_CURVE('',#173,#183,#491,.T.);
#493=ORIENTED_EDGE('',*,*,#492,.F.);
#494=EDGE_LOOP('',(#478,#485,#486,#493));
#495=FACE_OUTER_BOUND('',#494,.T.);
#496=ADVANCED_FACE('',(#495),#477,.F.);
#497=CARTESIAN_POINT('',(0.0,1.0,0.0));
#498=DIRECTION('',(0.0,0.0,1.0));
#499=DIRECTION('',(1.0,0.0,0.0));
#500=AXIS2_PLACEMENT_3D('',#497,#498,#499);
#501=CYLINDRICAL_SURFACE('',#500,0.14);
#502=ORIENTED_EDGE('',*,*,#138,.T.);
#503=CARTESIAN_POINT('',(0.0,1.0,0.188));
#504=DIRECTION('',(0.0,0.0,-1.0));
#505=DIRECTION('',(1.0,0.0,0.0));
#506=AXIS2_PLACEMENT_3D('',#503,#504,#505);
#507=CIRCLE('',#506,0.14);
#508=EDGE_CURVE('',#150,#133,#507,.T.);
#509=ORIENTED_EDGE('',*,*,#508,.F.);
#510=ORIENTED_EDGE('',*,*,#155,.F.);
#511=CARTESIAN_POINT('',(0.0,1.0,0.0));
#512=DIRECTION('',(0.0,0.0,1.0));
#513=DIRECTION('',(1.0,0.0,0.0));
#514=AXIS2_PLACEMENT_3D('',#511,#512,#513);
#515=CIRCLE('',#514,0.14);
#516=EDGE_CURVE('',#131,#141,#515,.T.);
#517=ORIENTED_EDGE('',*,*,#516,.F.);
#518=EDGE_LOOP('',(#502,#509,#510,#517));
#519=FACE_OUTER_BOUND('',#518,.T.);
#520=ADVANCED_FACE('',(#519),#501,.F.);
#521=CARTESIAN_POINT('',(-0.5,-0.5,0.0));
#522=DIRECTION('',(-1.0,0.0,0.0));
#523=DIRECTION('',(0.0,0.0,1.0));
#524=AXIS2_PLACEMENT_3D('',#521,#522,#523);
#525=PLANE('',#524);
#526=CARTESIAN_POINT('',(-0.5,-0.5,0.188));
#527=VERTEX_POINT('',#526);
#528=CARTESIAN_POINT('',(-0.5,3.5,0.188));
#529=VERTEX_POINT('',#528);
#530=CARTESIAN_POINT('',(-0.5,-0.5,0.188));
#531=DIRECTION('',(0.0,1.0,0.0));
#532=VECTOR('',#531,4.0);
#533=LINE('',#530,#532);
#534=EDGE_CURVE('',#527,#529,#533,.T.);
#535=ORIENTED_EDGE('',*,*,#534,.T.);
#536=CARTESIAN_POINT('',(-0.5,3.5,0.0));
#537=VERTEX_POINT('',#536);
#538=CARTESIAN_POINT('',(-0.5,3.5,0.0));
#539=DIRECTION('',(0.0,0.0,1.0));
#540=VECTOR('',#539,0.188);
#541=LINE('',#538,#540);
#542=EDGE_CURVE('',#537,#529,#541,.T.);
#543=ORIENTED_EDGE('',*,*,#542,.F.);
#544=CARTESIAN_POINT('',(-0.5,-0.5,0.0));
#545=VERTEX_POINT('',#544);
#546=CARTESIAN_POINT('',(-0.5,3.5,0.0));
#547=DIRECTION('',(0.0,-1.0,0.0));
#548=VECTOR('',#547,4.0);
#549=LINE('',#546,#548);
#550=EDGE_CURVE('',#537,#545,#549,.T.);
#551=ORIENTED_EDGE('',*,*,#550,.T.);
#552=CARTESIAN_POINT('',(-0.5,-0.5,0.0));
#553=DIRECTION('',(0.0,0.0,1.0));
#554=VECTOR('',#553,0.188);
#555=LINE('',#552,#554);
#556=EDGE_CURVE('',#545,#527,#555,.T.);
#557=ORIENTED_EDGE('',*,*,#556,.T.);
#558=EDGE_LOOP('',(#535,#543,#551,#557));
#559=FACE_OUTER_BOUND('',#558,.T.);
#560=ADVANCED_FACE('',(#559),#525,.T.);
#561=CARTESIAN_POINT('',(-0.5,3.5,0.0));
#562=DIRECTION('',(0.0,1.0,0.0));
#563=DIRECTION('',(0.0,0.0,1.0));
#564=AXIS2_PLACEMENT_3D('',#561,#562,#563);
#565=PLANE('',#564);
#566=CARTESIAN_POINT('',(0.5,3.5,0.188));
#567=VERTEX_POINT('',#566);
#568=CARTESIAN_POINT('',(-0.5,3.5,0.188));
#569=DIRECTION('',(1.0,0.0,0.0));
#570=VECTOR('',#569,1.0);
#571=LINE('',#568,#570);
#572=EDGE_CURVE('',#529,#567,#571,.T.);
#573=ORIENTED_EDGE('',*,*,#572,.T.);
#574=CARTESIAN_POINT('',(0.5,3.5,0.0));
#575=VERTEX_POINT('',#574);
#576=CARTESIAN_POINT('',(0.5,3.5,0.0));
#577=DIRECTION('',(0.0,0.0,1.0));
#578=VECTOR('',#577,0.188);
#579=LINE('',#576,#578);
#580=EDGE_CURVE('',#575,#567,#579,.T.);
#581=ORIENTED_EDGE('',*,*,#580,.F.);
#582=CARTESIAN_POINT('',(0.5,3.5,0.0));
#583=DIRECTION('',(-1.0,0.0,0.0));
#584=VECTOR('',#583,1.0);
#585=LINE('',#582,#584);
#586=EDGE_CURVE('',#575,#537,#585,.T.);
#587=ORIENTED_EDGE('',*,*,#586,.T.);
#588=ORIENTED_EDGE('',*,*,#542,.T.);
#589=EDGE_LOOP('',(#573,#581,#587,#588));
#590=FACE_OUTER_BOUND('',#589,.T.);
#591=ADVANCED_FACE('',(#590),#565,.T.);
#592=CARTESIAN_POINT('',(0.5,3.5,0.0));
#593=DIRECTION('',(0.894427190999916,0.447213595499958,0.0));
#594=DIRECTION('',(0.0,0.0,-1.0));
#595=AXIS2_PLACEMENT_3D('',#592,#593,#594);
#596=PLANE('',#595);
#597=CARTESIAN_POINT('',(1.5,1.5,0.188));
#598=VERTEX_POINT('',#597);
#599=CARTESIAN_POINT('',(0.5,3.5,0.188));
#600=DIRECTION('',(0.447213595499958,-0.894427190999916,0.0));
#601=VECTOR('',#600,2.23606797749979);
#602=LINE('',#599,#601);
#603=EDGE_CURVE('',#567,#598,#602,.T.);
#604=ORIENTED_EDGE('',*,*,#603,.T.);
#605=CARTESIAN_POINT('',(1.5,1.5,0.0));
#606=VERTEX_POINT('',#605);
#607=CARTESIAN_POINT('',(1.5,1.5,0.0));
#608=DIRECTION('',(0.0,0.0,1.0));
#609=VECTOR('',#608,0.188);
#610=LINE('',#607,#609);
#611=EDGE_CURVE('',#606,#598,#610,.T.);
#612=ORIENTED_EDGE('',*,*,#611,.F.);
#613=CARTESIAN_POINT('',(1.5,1.5,0.0));
#614=DIRECTION('',(-0.447213595499958,0.894427190999916,0.0));
#615=VECTOR('',#614,2.23606797749979);
#616=LINE('',#613,#615);
#617=EDGE_CURVE('',#606,#575,#616,.T.);
#618=ORIENTED_EDGE('',*,*,#617,.T.);
#619=ORIENTED_EDGE('',*,*,#580,.T.);
#620=EDGE_LOOP('',(#604,#612,#618,#619));
#621=FACE_OUTER_BOUND('',#620,.T.);
#622=ADVANCED_FACE('',(#621),#596,.T.);
#623=CARTESIAN_POINT('',(1.5,1.5,0.0));
#624=DIRECTION('',(1.0,0.0,0.0));
#625=DIRECTION('',(0.0,0.0,-1.0));
#626=AXIS2_PLACEMENT_3D('',#623,#624,#625);
#627=PLANE('',#626);
#628=CARTESIAN_POINT('',(1.5,-0.5,0.188));
#629=VERTEX_POINT('',#628);
#630=CARTESIAN_POINT('',(1.5,1.5,0.188));
#631=DIRECTION('',(0.0,-1.0,0.0));
#632=VECTOR('',#631,2.0);
#633=LINE('',#630,#632);
#634=EDGE_CURVE('',#598,#629,#633,.T.);
#635=ORIENTED_EDGE('',*,*,#634,.T.);
#636=CARTESIAN_POINT('',(1.5,-0.5,0.0));
#637=VERTEX_POINT('',#636);
#638=CARTESIAN_POINT('',(1.5,-0.5,0.0));
#639=DIRECTION('',(0.0,0.0,1.0));
#640=VECTOR('',#639,0.188);
#641=LINE('',#638,#640);
#642=EDGE_CURVE('',#637,#629,#641,.T.);
#643=ORIENTED_EDGE('',*,*,#642,.F.);
#644=CARTESIAN_POINT('',(1.5,-0.5,0.0));
#645=DIRECTION('',(0.0,1.0,0.0));
#646=VECTOR('',#645,2.0);
#647=LINE('',#644,#646);
#648=EDGE_CURVE('',#637,#606,#647,.T.);
#649=ORIENTED_EDGE('',*,*,#648,.T.);
#650=ORIENTED_EDGE('',*,*,#611,.T.);
#651=EDGE_LOOP('',(#635,#643,#649,#650));
#652=FACE_OUTER_BOUND('',#651,.T.);
#653=ADVANCED_FACE('',(#652),#627,.T.);
#654=CARTESIAN_POINT('',(1.5,-0.5,0.0));
#655=DIRECTION('',(0.0,-1.0,0.0));
#656=DIRECTION('',(0.0,0.0,-1.0));
#657=AXIS2_PLACEMENT_3D('',#654,#655,#656);
#658=PLANE('',#657);
#659=CARTESIAN_POINT('',(1.5,-0.5,0.188));
#660=DIRECTION('',(-1.0,0.0,0.0));
#661=VECTOR('',#660,2.0);
#662=LINE('',#659,#661);
#663=EDGE_CURVE('',#629,#527,#662,.T.);
#664=ORIENTED_EDGE('',*,*,#663,.T.);
#665=ORIENTED_EDGE('',*,*,#556,.F.);
#666=CARTESIAN_POINT('',(-0.5,-0.5,0.0));
#667=DIRECTION('',(1.0,0.0,0.0));
#668=VECTOR('',#667,2.0);
#669=LINE('',#666,#668);
#670=EDGE_CURVE('',#545,#637,#669,.T.);
#671=ORIENTED_EDGE('',*,*,#670,.T.);
#672=ORIENTED_EDGE('',*,*,#642,.T.);
#673=EDGE_LOOP('',(#664,#665,#671,#672));
#674=FACE_OUTER_BOUND('',#673,.T.);
#675=ADVANCED_FACE('',(#674),#658,.T.);
#676=CARTESIAN_POINT('',(0.5,1.5,0.0));
#677=DIRECTION('',(0.0,0.0,-1.0));
#678=DIRECTION('',(-1.0,0.0,0.0));
#679=AXIS2_PLACEMENT_3D('',#676,#677,#678);
#680=PLANE('',#679);
#681=ORIENTED_EDGE('',*,*,#670,.F.);
#682=ORIENTED_EDGE('',*,*,#550,.F.);
#683=ORIENTED_EDGE('',*,*,#586,.F.);
#684=ORIENTED_EDGE('',*,*,#617,.F.);
#685=ORIENTED_EDGE('',*,*,#648,.F.);
#686=EDGE_LOOP('',(#681,#682,#683,#684,#685));
#687=FACE_OUTER_BOUND('',#686,.T.);
#688=ORIENTED_EDGE('',*,*,#396,.T.);
#689=ORIENTED_EDGE('',*,*,#357,.T.);
#690=EDGE_LOOP('',(#688,#689));
#691=FACE_BOUND('',#690,.T.);
#692=ORIENTED_EDGE('',*,*,#420,.T.);
#693=ORIENTED_EDGE('',*,*,#315,.T.);
#694=EDGE_LOOP('',(#692,#693));
#695=FACE_BOUND('',#694,.T.);
#696=ORIENTED_EDGE('',*,*,#444,.T.);
#697=ORIENTED_EDGE('',*,*,#273,.T.);
#698=EDGE_LOOP('',(#696,#697));
#699=FACE_BOUND('',#698,.T.);
#700=ORIENTED_EDGE('',*,*,#468,.T.);
#701=ORIENTED_EDGE('',*,*,#231,.T.);
#702=EDGE_LOOP('',(#700,#701));
#703=FACE_BOUND('',#702,.T.);
#704=ORIENTED_EDGE('',*,*,#492,.T.);
#705=ORIENTED_EDGE('',*,*,#189,.T.);
#706=EDGE_LOOP('',(#704,#705));
#707=FACE_BOUND('',#706,.T.);
#708=ORIENTED_EDGE('',*,*,#516,.T.);
#709=ORIENTED_EDGE('',*,*,#147,.T.);
#710=EDGE_LOOP('',(#708,#709));
#711=FACE_BOUND('',#710,.T.);
#712=ADVANCED_FACE('',(#687,#691,#695,#699,#703,#707,#711),#680,.T.);
#713=CARTESIAN_POINT('',(-0.5,-0.5,0.188));
#714=DIRECTION('',(0.0,0.0,-1.0));
#715=DIRECTION('',(-1.0,0.0,0.0));
#716=AXIS2_PLACEMENT_3D('',#713,#714,#715);
#717=PLANE('',#716);
#718=ORIENTED_EDGE('',*,*,#534,.F.);
#719=ORIENTED_EDGE('',*,*,#663,.F.);
#720=ORIENTED_EDGE('',*,*,#634,.F.);
#721=ORIENTED_EDGE('',*,*,#603,.F.);
#722=ORIENTED_EDGE('',*,*,#572,.F.);
#723=EDGE_LOOP('',(#718,#719,#720,#721,#722));
#724=FACE_OUTER_BOUND('',#723,.T.);
#725=ORIENTED_EDGE('',*,*,#372,.T.);
#726=ORIENTED_EDGE('',*,*,#388,.T.);
#727=EDGE_LOOP('',(#725,#726));
#728=FACE_BOUND('',#727,.T.);
#729=ORIENTED_EDGE('',*,*,#330,.T.);
#730=ORIENTED_EDGE('',*,*,#412,.T.);
#731=EDGE_LOOP('',(#729,#730));
#732=FACE_BOUND('',#731,.T.);
#733=ORIENTED_EDGE('',*,*,#288,.T.);
#734=ORIENTED_EDGE('',*,*,#436,.T.);
#735=EDGE_LOOP('',(#733,#734));
#736=FACE_BOUND('',#735,.T.);
#737=ORIENTED_EDGE('',*,*,#246,.T.);
#738=ORIENTED_EDGE('',*,*,#460,.T.);
#739=EDGE_LOOP('',(#737,#738));
#740=FACE_BOUND('',#739,.T.);
#741=ORIENTED_EDGE('',*,*,#204,.T.);
#742=ORIENTED_EDGE('',*,*,#484,.T.);
#743=EDGE_LOOP('',(#741,#742));
#744=FACE_BOUND('',#743,.T.);
#745=ORIENTED_EDGE('',*,*,#162,.T.);
#746=ORIENTED_EDGE('',*,*,#508,.T.);
#747=EDGE_LOOP('',(#745,#746));
#748=FACE_BOUND('',#747,.T.);
#749=ADVANCED_FACE('',(#724,#728,#732,#736,#740,#744,#748),#717,.F.);
#750=CLOSED_SHELL('',(#166,#208,#250,#292,#334,#376,#400,#424,#448,#472,#496,#520,#560,#591,#622,#653,#675,#712,#749));
#751=MANIFOLD_SOLID_BREP('2B',#750);
#752=ADVANCED_BREP_SHAPE_REPRESENTATION('ABSR1',(#751),#28);
#753=SHAPE_REPRESENTATION_RELATIONSHIP('SRRPL1','',#752,#122);
ENDSEC;
END-ISO-10303-21;
