ISO-10303-21;
HEADER;
/****************************************************************
 * Generated by software with PDElib inside                    *
 * PDElib Version v51a, created Fri 09/10/2010                  *
 * ITI Transcendata (http://www.transcendata.com/)              *
 ****************************************************************/
FILE_DESCRIPTION((''),'2;1');
FILE_NAME('10JP4205.stp','2015-07-14T08:30:37',(''),(''),'Mechanical Desktop 2011','Mechanical Desktop 2011',', , ');
FILE_SCHEMA(('CONFIG_CONTROL_DESIGN'));
ENDSEC;
DATA;
#10=(NAMED_UNIT(*)PLANE_ANGLE_UNIT()SI_UNIT($,.RADIAN.));
#11=DIMENSIONAL_EXPONENTS(0.0,0.0,0.0,0.0,0.0,0.0,0.0);
#12=PLANE_ANGLE_MEASURE_WITH_UNIT(PLANE_ANGLE_MEASURE(0.0174532925),#10);
#16=(CONVERSION_BASED_UNIT('DEGREE',#12)NAMED_UNIT(#11)PLANE_ANGLE_UNIT());
#20=(NAMED_UNIT(*)SI_UNIT($,.STERADIAN.)SOLID_ANGLE_UNIT());
#24=(LENGTH_UNIT()NAMED_UNIT(*)SI_UNIT(.MILLI.,.METRE.));
#26=UNCERTAINTY_MEASURE_WITH_UNIT(LENGTH_MEASURE(0.000001),#24,'DISTANCE_ACCURACY_VALUE','');
#28=(GEOMETRIC_REPRESENTATION_CONTEXT(3)GLOBAL_UNCERTAINTY_ASSIGNED_CONTEXT((#26))GLOBAL_UNIT_ASSIGNED_CONTEXT((#16,#20,#24))REPRESENTATION_CONTEXT('','3D'));
#29=APPLICATION_CONTEXT('CONFIGURATION CONTROLLED 3D DESIGNS OF MECHANICAL PARTS AND ASSEMBLIES');
#30=APPLICATION_PROTOCOL_DEFINITION('INTERNATIONAL STANDARD','config_control_design',1995,#29);
#31=MECHANICAL_CONTEXT('3D Mechanical Parts',#29,'mechanical');
#32=PRODUCT('Product','Product',' ',(#31));
#33=PRODUCT_RELATED_PRODUCT_CATEGORY('detail',$,(#32));
#34=PRODUCT_CATEGORY('part',$);
#35=PRODUCT_CATEGORY_RELATIONSHIP('None','None',#34,#33);
#36=PERSON('1','Design','Joe',$,$,$);
#37=ORGANIZATION($,'None','None');
#38=PERSON_AND_ORGANIZATION(#36,#37);
#39=PERSON_AND_ORGANIZATION_ROLE('design_owner');
#40=CC_DESIGN_PERSON_AND_ORGANIZATION_ASSIGNMENT(#38,#39,(#32));
#41=PRODUCT_DEFINITION_FORMATION_WITH_SPECIFIED_SOURCE('None','None',#32,.BOUGHT.);
#42=PERSON('2','Creator','Joe',$,$,$);
#43=ORGANIZATION($,'None','None');
#44=PERSON_AND_ORGANIZATION(#42,#43);
#45=PERSON_AND_ORGANIZATION_ROLE('creator');
#46=CC_DESIGN_PERSON_AND_ORGANIZATION_ASSIGNMENT(#44,#45,(#41));
#47=PERSON('3','Supplier','Joe',$,$,$);
#48=ORGANIZATION($,'None','None');
#49=PERSON_AND_ORGANIZATION(#47,#48);
#50=PERSON_AND_ORGANIZATION_ROLE('design_supplier');
#51=CC_DESIGN_PERSON_AND_ORGANIZATION_ASSIGNMENT(#49,#50,(#41));
#52=APPROVAL_STATUS('approved');
#53=APPROVAL(#52,'None');
#54=PERSON('4','Approver','Joe',$,$,$);
#55=ORGANIZATION($,'None','None');
#56=PERSON_AND_ORGANIZATION(#54,#55);
#57=APPROVAL_ROLE('approver');
#58=APPROVAL_PERSON_ORGANIZATION(#56,#53,#57);
#59=COORDINATED_UNIVERSAL_TIME_OFFSET(8,$,.EXACT.);
#60=CALENDAR_DATE(1996,29,5);
#61=LOCAL_TIME(12,0,0.0,#59);
#62=DATE_AND_TIME(#60,#61);
#63=APPROVAL_DATE_TIME(#62,#53);
#64=CC_DESIGN_APPROVAL(#53,(#41));
#65=SECURITY_CLASSIFICATION_LEVEL('unclassified');
#66=SECURITY_CLASSIFICATION('security','None',#65);
#67=CC_DESIGN_SECURITY_CLASSIFICATION(#66,(#41));
#68=APPROVAL_STATUS('approved');
#69=APPROVAL(#68,'None');
#70=PERSON('5','Approver','Joe',$,$,$);
#71=ORGANIZATION($,'None','None');
#72=PERSON_AND_ORGANIZATION(#70,#71);
#73=APPROVAL_ROLE('approver');
#74=APPROVAL_PERSON_ORGANIZATION(#72,#69,#73);
#75=COORDINATED_UNIVERSAL_TIME_OFFSET(8,$,.EXACT.);
#76=CALENDAR_DATE(1996,29,5);
#77=LOCAL_TIME(12,0,0.0,#75);
#78=DATE_AND_TIME(#76,#77);
#79=APPROVAL_DATE_TIME(#78,#69);
#80=CC_DESIGN_APPROVAL(#69,(#66));
#81=PERSON('6','Classifier','Joe',$,$,$);
#82=ORGANIZATION($,'None','None');
#83=PERSON_AND_ORGANIZATION(#81,#82);
#84=PERSON_AND_ORGANIZATION_ROLE('classification_officer');
#85=CC_DESIGN_PERSON_AND_ORGANIZATION_ASSIGNMENT(#83,#84,(#66));
#86=COORDINATED_UNIVERSAL_TIME_OFFSET(8,$,.EXACT.);
#87=CALENDAR_DATE(1996,29,5);
#88=LOCAL_TIME(12,0,0.0,#86);
#89=DATE_AND_TIME(#87,#88);
#90=DATE_TIME_ROLE('classification_date');
#91=CC_DESIGN_DATE_AND_TIME_ASSIGNMENT(#89,#90,(#66));
#92=DESIGN_CONTEXT('Design Context',#29,'design');
#93=PRODUCT_DEFINITION('None','None',#41,#92);
#94=PERSON('7','Creator','Joe',$,$,$);
#95=ORGANIZATION($,'None','None');
#96=PERSON_AND_ORGANIZATION(#94,#95);
#97=PERSON_AND_ORGANIZATION_ROLE('creator');
#98=CC_DESIGN_PERSON_AND_ORGANIZATION_ASSIGNMENT(#96,#97,(#93));
#99=COORDINATED_UNIVERSAL_TIME_OFFSET(8,$,.EXACT.);
#100=CALENDAR_DATE(1996,29,5);
#101=LOCAL_TIME(12,0,0.0,#99);
#102=DATE_AND_TIME(#100,#101);
#103=DATE_TIME_ROLE('creation_date');
#104=CC_DESIGN_DATE_AND_TIME_ASSIGNMENT(#102,#103,(#93));
#105=APPROVAL_STATUS('approved');
#106=APPROVAL(#105,'None');
#107=PERSON('8','Approver','Joe',$,$,$);
#108=ORGANIZATION($,'None','None');
#109=PERSON_AND_ORGANIZATION(#107,#108);
#110=APPROVAL_ROLE('approver');
#111=APPROVAL_PERSON_ORGANIZATION(#109,#106,#110);
#112=COORDINATED_UNIVERSAL_TIME_OFFSET(8,$,.EXACT.);
#113=CALENDAR_DATE(1996,29,5);
#114=LOCAL_TIME(12,0,0.0,#112);
#115=DATE_AND_TIME(#113,#114);
#116=APPROVAL_DATE_TIME(#115,#106);
#117=CC_DESIGN_APPROVAL(#106,(#93));
#118=CARTESIAN_POINT('NONE',(0.0,0.0,0.0));
#119=DIRECTION('NONE',(0.0,0.0,1.0));
#120=DIRECTION('NONE',(1.0,0.0,0.0));
#121=AXIS2_PLACEMENT_3D('NONE',#118,#119,#120);
#122=SHAPE_REPRESENTATION('SR1',(#121),#28);
#123=PRODUCT_DEFINITION_SHAPE('PDS1','Test Part',#93);
#124=SHAPE_DEFINITION_REPRESENTATION(#123,#122);
#125=CARTESIAN_POINT('',(2.0,-1.665335E-016,0.063000000000001));
#126=DIRECTION('',(4.440892E-016,-1.930259E-015,-1.0));
#127=DIRECTION('',(1.0,0.0,0.0));
#128=AXIS2_PLACEMENT_3D('',#125,#126,#127);
#129=CYLINDRICAL_SURFACE('',#128,0.140625);
#130=CARTESIAN_POINT('',(2.140625,0.0,0.188000000000001));
#131=VERTEX_POINT('',#130);
#132=CARTESIAN_POINT('',(2.140625,-3.139713E-016,9.436896E-016));
#133=VERTEX_POINT('',#132);
#134=CARTESIAN_POINT('',(2.140625,4.891742E-017,0.188000000000001));
#135=DIRECTION('',(0.0,0.0,-1.0));
#136=VECTOR('',#135,0.188);
#137=LINE('',#134,#136);
#138=EDGE_CURVE('',#131,#133,#137,.T.);
#139=ORIENTED_EDGE('',*,*,#138,.F.);
#140=CARTESIAN_POINT('',(1.859375,1.178021E-016,0.188000000000001));
#141=VERTEX_POINT('',#140);
#142=CARTESIAN_POINT('',(2.0,0.0,0.188000000000001));
#143=DIRECTION('',(0.0,0.0,-1.0));
#144=DIRECTION('',(1.0,0.0,0.0));
#145=AXIS2_PLACEMENT_3D('',#142,#143,#144);
#146=CIRCLE('',#145,0.140625);
#147=EDGE_CURVE('',#141,#131,#146,.T.);
#148=ORIENTED_EDGE('',*,*,#147,.F.);
#149=CARTESIAN_POINT('',(1.859375,6.661338E-016,8.257284E-016));
#150=VERTEX_POINT('',#149);
#151=CARTESIAN_POINT('',(1.859375,1.178021E-016,0.188000000000001));
#152=DIRECTION('',(0.0,0.0,-1.0));
#153=VECTOR('',#152,0.188);
#154=LINE('',#151,#153);
#155=EDGE_CURVE('',#141,#150,#154,.T.);
#156=ORIENTED_EDGE('',*,*,#155,.T.);
#157=CARTESIAN_POINT('',(2.0,-2.775558E-016,8.881784E-016));
#158=DIRECTION('',(0.0,0.0,1.0));
#159=DIRECTION('',(1.0,0.0,0.0));
#160=AXIS2_PLACEMENT_3D('',#157,#158,#159);
#161=CIRCLE('',#160,0.140625);
#162=EDGE_CURVE('',#133,#150,#161,.T.);
#163=ORIENTED_EDGE('',*,*,#162,.F.);
#164=EDGE_LOOP('',(#139,#148,#156,#163));
#165=FACE_OUTER_BOUND('',#164,.T.);
#166=ADVANCED_FACE('',(#165),#129,.F.);
#167=CARTESIAN_POINT('',(1.0,2.220446E-016,0.063));
#168=DIRECTION('',(4.440892E-016,-1.930259E-015,-1.0));
#169=DIRECTION('',(1.0,0.0,0.0));
#170=AXIS2_PLACEMENT_3D('',#167,#168,#169);
#171=CYLINDRICAL_SURFACE('',#170,0.140625);
#172=CARTESIAN_POINT('',(1.140625,3.330669E-016,0.188));
#173=VERTEX_POINT('',#172);
#174=CARTESIAN_POINT('',(1.140625,7.460673E-017,4.996004E-016));
#175=VERTEX_POINT('',#174);
#176=CARTESIAN_POINT('',(1.140625,4.374955E-016,0.188));
#177=DIRECTION('',(0.0,0.0,-1.0));
#178=VECTOR('',#177,0.188);
#179=LINE('',#176,#178);
#180=EDGE_CURVE('',#173,#175,#179,.T.);
#181=ORIENTED_EDGE('',*,*,#180,.F.);
#182=CARTESIAN_POINT('',(0.859375,5.063802E-016,0.188000000000001));
#183=VERTEX_POINT('',#182);
#184=CARTESIAN_POINT('',(1.0,4.440892E-016,0.188000000000001));
#185=DIRECTION('',(0.0,0.0,-1.0));
#186=DIRECTION('',(1.0,0.0,0.0));
#187=AXIS2_PLACEMENT_3D('',#184,#185,#186);
#188=CIRCLE('',#187,0.140625);
#189=EDGE_CURVE('',#183,#173,#188,.T.);
#190=ORIENTED_EDGE('',*,*,#189,.F.);
#191=CARTESIAN_POINT('',(0.859375,1.110223E-015,3.816392E-016));
#192=VERTEX_POINT('',#191);
#193=CARTESIAN_POINT('',(0.859375,5.063802E-016,0.188000000000001));
#194=DIRECTION('',(0.0,0.0,-1.0));
#195=VECTOR('',#194,0.188);
#196=LINE('',#193,#195);
#197=EDGE_CURVE('',#183,#192,#196,.T.);
#198=ORIENTED_EDGE('',*,*,#197,.T.);
#199=CARTESIAN_POINT('',(1.0,1.110223E-016,4.440892E-016));
#200=DIRECTION('',(0.0,0.0,1.0));
#201=DIRECTION('',(1.0,0.0,0.0));
#202=AXIS2_PLACEMENT_3D('',#199,#200,#201);
#203=CIRCLE('',#202,0.140625);
#204=EDGE_CURVE('',#175,#192,#203,.T.);
#205=ORIENTED_EDGE('',*,*,#204,.F.);
#206=EDGE_LOOP('',(#181,#190,#198,#205));
#207=FACE_OUTER_BOUND('',#206,.T.);
#208=ADVANCED_FACE('',(#207),#171,.F.);
#209=CARTESIAN_POINT('',(0.0,1.110223E-016,0.063));
#210=DIRECTION('',(4.440892E-016,-1.930259E-015,-1.0));
#211=DIRECTION('',(1.0,0.0,0.0));
#212=AXIS2_PLACEMENT_3D('',#209,#210,#211);
#213=CYLINDRICAL_SURFACE('',#212,0.140625);
#214=CARTESIAN_POINT('',(0.140625,3.330669E-016,0.188));
#215=VERTEX_POINT('',#214);
#216=CARTESIAN_POINT('',(0.140625,-3.641558E-017,5.551115E-017));
#217=VERTEX_POINT('',#216);
#218=CARTESIAN_POINT('',(0.140625,3.264732E-016,0.188));
#219=DIRECTION('',(0.0,0.0,-1.0));
#220=VECTOR('',#219,0.188);
#221=LINE('',#218,#220);
#222=EDGE_CURVE('',#215,#217,#221,.T.);
#223=ORIENTED_EDGE('',*,*,#222,.F.);
#224=CARTESIAN_POINT('',(-0.140625,3.953579E-016,0.188));
#225=VERTEX_POINT('',#224);
#226=CARTESIAN_POINT('',(-1.110223E-016,3.330669E-016,0.188));
#227=DIRECTION('',(0.0,0.0,-1.0));
#228=DIRECTION('',(1.0,0.0,0.0));
#229=AXIS2_PLACEMENT_3D('',#226,#227,#228);
#230=CIRCLE('',#229,0.140625);
#231=EDGE_CURVE('',#225,#215,#230,.T.);
#232=ORIENTED_EDGE('',*,*,#231,.F.);
#233=CARTESIAN_POINT('',(-0.140625,9.992007E-016,-6.245005E-017));
#234=VERTEX_POINT('',#233);
#235=CARTESIAN_POINT('',(-0.140625,3.953579E-016,0.188));
#236=DIRECTION('',(0.0,0.0,-1.0));
#237=VECTOR('',#236,0.188);
#238=LINE('',#235,#237);
#239=EDGE_CURVE('',#225,#234,#238,.T.);
#240=ORIENTED_EDGE('',*,*,#239,.T.);
#241=CARTESIAN_POINT('',(0.0,0.0,0.0));
#242=DIRECTION('',(0.0,0.0,1.0));
#243=DIRECTION('',(1.0,0.0,0.0));
#244=AXIS2_PLACEMENT_3D('',#241,#242,#243);
#245=CIRCLE('',#244,0.140625);
#246=EDGE_CURVE('',#217,#234,#245,.T.);
#247=ORIENTED_EDGE('',*,*,#246,.F.);
#248=EDGE_LOOP('',(#223,#232,#240,#247));
#249=FACE_OUTER_BOUND('',#248,.T.);
#250=ADVANCED_FACE('',(#249),#213,.F.);
#251=CARTESIAN_POINT('',(3.885781E-016,1.0,0.062999999999998));
#252=DIRECTION('',(4.440892E-016,-1.930259E-015,-1.0));
#253=DIRECTION('',(1.0,0.0,0.0));
#254=AXIS2_PLACEMENT_3D('',#251,#252,#253);
#255=CYLINDRICAL_SURFACE('',#254,0.140625);
#256=CARTESIAN_POINT('',(0.140625,1.0,0.187999999999998));
#257=VERTEX_POINT('',#256);
#258=CARTESIAN_POINT('',(0.140625,1.0,-1.845746E-015));
#259=VERTEX_POINT('',#258);
#260=CARTESIAN_POINT('',(0.140625,1.0,0.187999999999998));
#261=DIRECTION('',(0.0,0.0,-1.0));
#262=VECTOR('',#261,0.188);
#263=LINE('',#260,#262);
#264=EDGE_CURVE('',#257,#259,#263,.T.);
#265=ORIENTED_EDGE('',*,*,#264,.F.);
#266=CARTESIAN_POINT('',(-0.140625,1.0,0.187999999999998));
#267=VERTEX_POINT('',#266);
#268=CARTESIAN_POINT('',(3.885781E-016,1.0,0.187999999999998));
#269=DIRECTION('',(0.0,0.0,-1.0));
#270=DIRECTION('',(1.0,0.0,0.0));
#271=AXIS2_PLACEMENT_3D('',#268,#269,#270);
#272=CIRCLE('',#271,0.140625);
#273=EDGE_CURVE('',#267,#257,#272,.T.);
#274=ORIENTED_EDGE('',*,*,#273,.F.);
#275=CARTESIAN_POINT('',(-0.140625,1.000000000000001,-1.966987E-015));
#276=VERTEX_POINT('',#275);
#277=CARTESIAN_POINT('',(-0.140625,1.0,0.187999999999998));
#278=DIRECTION('',(0.0,0.0,-1.0));
#279=VECTOR('',#278,0.188);
#280=LINE('',#277,#279);
#281=EDGE_CURVE('',#267,#276,#280,.T.);
#282=ORIENTED_EDGE('',*,*,#281,.T.);
#283=CARTESIAN_POINT('',(3.885781E-016,1.0,-1.904537E-015));
#284=DIRECTION('',(0.0,0.0,1.0));
#285=DIRECTION('',(1.0,0.0,0.0));
#286=AXIS2_PLACEMENT_3D('',#283,#284,#285);
#287=CIRCLE('',#286,0.140625);
#288=EDGE_CURVE('',#259,#276,#287,.T.);
#289=ORIENTED_EDGE('',*,*,#288,.F.);
#290=EDGE_LOOP('',(#265,#274,#282,#289));
#291=FACE_OUTER_BOUND('',#290,.T.);
#292=ADVANCED_FACE('',(#291),#255,.F.);
#293=CARTESIAN_POINT('',(7.216450E-016,2.0,0.062999999999996));
#294=DIRECTION('',(4.440892E-016,-1.930259E-015,-1.0));
#295=DIRECTION('',(1.0,0.0,0.0));
#296=AXIS2_PLACEMENT_3D('',#293,#294,#295);
#297=CYLINDRICAL_SURFACE('',#296,0.140625);
#298=CARTESIAN_POINT('',(0.140625000000001,2.0,0.187999999999996));
#299=VERTEX_POINT('',#298);
#300=CARTESIAN_POINT('',(0.140625000000001,2.0,-3.788636E-015));
#301=VERTEX_POINT('',#300);
#302=CARTESIAN_POINT('',(0.140625000000001,2.000000000000001,0.187999999999996));
#303=DIRECTION('',(0.0,0.0,-1.0));
#304=VECTOR('',#303,0.188);
#305=LINE('',#302,#304);
#306=EDGE_CURVE('',#299,#301,#305,.T.);
#307=ORIENTED_EDGE('',*,*,#306,.F.);
#308=CARTESIAN_POINT('',(-0.140624999999999,2.000000000000001,0.187999999999996));
#309=VERTEX_POINT('',#308);
#310=CARTESIAN_POINT('',(7.216450E-016,2.0,0.187999999999997));
#311=DIRECTION('',(0.0,0.0,-1.0));
#312=DIRECTION('',(1.0,0.0,0.0));
#313=AXIS2_PLACEMENT_3D('',#310,#311,#312);
#314=CIRCLE('',#313,0.140625);
#315=EDGE_CURVE('',#309,#299,#314,.T.);
#316=ORIENTED_EDGE('',*,*,#315,.F.);
#317=CARTESIAN_POINT('',(-0.140624999999999,2.000000000000001,-3.899279E-015));
#318=VERTEX_POINT('',#317);
#319=CARTESIAN_POINT('',(-0.140624999999999,2.000000000000001,0.187999999999996));
#320=DIRECTION('',(0.0,0.0,-1.0));
#321=VECTOR('',#320,0.188);
#322=LINE('',#319,#321);
#323=EDGE_CURVE('',#309,#318,#322,.T.);
#324=ORIENTED_EDGE('',*,*,#323,.T.);
#325=CARTESIAN_POINT('',(7.216450E-016,2.0,-3.836829E-015));
#326=DIRECTION('',(0.0,0.0,1.0));
#327=DIRECTION('',(1.0,0.0,0.0));
#328=AXIS2_PLACEMENT_3D('',#325,#326,#327);
#329=CIRCLE('',#328,0.140625);
#330=EDGE_CURVE('',#301,#318,#329,.T.);
#331=ORIENTED_EDGE('',*,*,#330,.F.);
#332=EDGE_LOOP('',(#307,#316,#324,#331));
#333=FACE_OUTER_BOUND('',#332,.T.);
#334=ADVANCED_FACE('',(#333),#297,.F.);
#335=CARTESIAN_POINT('',(7.216450E-016,2.0,0.062999999999996));
#336=DIRECTION('',(4.440892E-016,-1.930259E-015,-1.0));
#337=DIRECTION('',(1.0,0.0,0.0));
#338=AXIS2_PLACEMENT_3D('',#335,#336,#337);
#339=CYLINDRICAL_SURFACE('',#338,0.140625);
#340=ORIENTED_EDGE('',*,*,#306,.T.);
#341=CARTESIAN_POINT('',(7.216450E-016,2.0,-3.836829E-015));
#342=DIRECTION('',(0.0,0.0,1.0));
#343=DIRECTION('',(1.0,0.0,0.0));
#344=AXIS2_PLACEMENT_3D('',#341,#342,#343);
#345=CIRCLE('',#344,0.140625);
#346=EDGE_CURVE('',#318,#301,#345,.T.);
#347=ORIENTED_EDGE('',*,*,#346,.F.);
#348=ORIENTED_EDGE('',*,*,#323,.F.);
#349=CARTESIAN_POINT('',(7.216450E-016,2.0,0.187999999999997));
#350=DIRECTION('',(0.0,0.0,-1.0));
#351=DIRECTION('',(1.0,0.0,0.0));
#352=AXIS2_PLACEMENT_3D('',#349,#350,#351);
#353=CIRCLE('',#352,0.140625);
#354=EDGE_CURVE('',#299,#309,#353,.T.);
#355=ORIENTED_EDGE('',*,*,#354,.F.);
#356=EDGE_LOOP('',(#340,#347,#348,#355));
#357=FACE_OUTER_BOUND('',#356,.T.);
#358=ADVANCED_FACE('',(#357),#339,.F.);
#359=CARTESIAN_POINT('',(3.885781E-016,1.0,0.062999999999998));
#360=DIRECTION('',(4.440892E-016,-1.930259E-015,-1.0));
#361=DIRECTION('',(1.0,0.0,0.0));
#362=AXIS2_PLACEMENT_3D('',#359,#360,#361);
#363=CYLINDRICAL_SURFACE('',#362,0.140625);
#364=ORIENTED_EDGE('',*,*,#264,.T.);
#365=CARTESIAN_POINT('',(3.885781E-016,1.0,-1.904537E-015));
#366=DIRECTION('',(0.0,0.0,1.0));
#367=DIRECTION('',(1.0,0.0,0.0));
#368=AXIS2_PLACEMENT_3D('',#365,#366,#367);
#369=CIRCLE('',#368,0.140625);
#370=EDGE_CURVE('',#276,#259,#369,.T.);
#371=ORIENTED_EDGE('',*,*,#370,.F.);
#372=ORIENTED_EDGE('',*,*,#281,.F.);
#373=CARTESIAN_POINT('',(3.885781E-016,1.0,0.187999999999998));
#374=DIRECTION('',(0.0,0.0,-1.0));
#375=DIRECTION('',(1.0,0.0,0.0));
#376=AXIS2_PLACEMENT_3D('',#373,#374,#375);
#377=CIRCLE('',#376,0.140625);
#378=EDGE_CURVE('',#257,#267,#377,.T.);
#379=ORIENTED_EDGE('',*,*,#378,.F.);
#380=EDGE_LOOP('',(#364,#371,#372,#379));
#381=FACE_OUTER_BOUND('',#380,.T.);
#382=ADVANCED_FACE('',(#381),#363,.F.);
#383=CARTESIAN_POINT('',(0.0,1.110223E-016,0.063));
#384=DIRECTION('',(4.440892E-016,-1.930259E-015,-1.0));
#385=DIRECTION('',(1.0,0.0,0.0));
#386=AXIS2_PLACEMENT_3D('',#383,#384,#385);
#387=CYLINDRICAL_SURFACE('',#386,0.140625);
#388=ORIENTED_EDGE('',*,*,#222,.T.);
#389=CARTESIAN_POINT('',(0.0,0.0,0.0));
#390=DIRECTION('',(0.0,0.0,1.0));
#391=DIRECTION('',(1.0,0.0,0.0));
#392=AXIS2_PLACEMENT_3D('',#389,#390,#391);
#393=CIRCLE('',#392,0.140625);
#394=EDGE_CURVE('',#234,#217,#393,.T.);
#395=ORIENTED_EDGE('',*,*,#394,.F.);
#396=ORIENTED_EDGE('',*,*,#239,.F.);
#397=CARTESIAN_POINT('',(-1.110223E-016,3.330669E-016,0.188));
#398=DIRECTION('',(0.0,0.0,-1.0));
#399=DIRECTION('',(1.0,0.0,0.0));
#400=AXIS2_PLACEMENT_3D('',#397,#398,#399);
#401=CIRCLE('',#400,0.140625);
#402=EDGE_CURVE('',#215,#225,#401,.T.);
#403=ORIENTED_EDGE('',*,*,#402,.F.);
#404=EDGE_LOOP('',(#388,#395,#396,#403));
#405=FACE_OUTER_BOUND('',#404,.T.);
#406=ADVANCED_FACE('',(#405),#387,.F.);
#407=CARTESIAN_POINT('',(1.0,2.220446E-016,0.063));
#408=DIRECTION('',(4.440892E-016,-1.930259E-015,-1.0));
#409=DIRECTION('',(1.0,0.0,0.0));
#410=AXIS2_PLACEMENT_3D('',#407,#408,#409);
#411=CYLINDRICAL_SURFACE('',#410,0.140625);
#412=ORIENTED_EDGE('',*,*,#180,.T.);
#413=CARTESIAN_POINT('',(1.0,1.110223E-016,4.440892E-016));
#414=DIRECTION('',(0.0,0.0,1.0));
#415=DIRECTION('',(1.0,0.0,0.0));
#416=AXIS2_PLACEMENT_3D('',#413,#414,#415);
#417=CIRCLE('',#416,0.140625);
#418=EDGE_CURVE('',#192,#175,#417,.T.);
#419=ORIENTED_EDGE('',*,*,#418,.F.);
#420=ORIENTED_EDGE('',*,*,#197,.F.);
#421=CARTESIAN_POINT('',(1.0,4.440892E-016,0.188000000000001));
#422=DIRECTION('',(0.0,0.0,-1.0));
#423=DIRECTION('',(1.0,0.0,0.0));
#424=AXIS2_PLACEMENT_3D('',#421,#422,#423);
#425=CIRCLE('',#424,0.140625);
#426=EDGE_CURVE('',#173,#183,#425,.T.);
#427=ORIENTED_EDGE('',*,*,#426,.F.);
#428=EDGE_LOOP('',(#412,#419,#420,#427));
#429=FACE_OUTER_BOUND('',#428,.T.);
#430=ADVANCED_FACE('',(#429),#411,.F.);
#431=CARTESIAN_POINT('',(2.0,-1.665335E-016,0.063000000000001));
#432=DIRECTION('',(4.440892E-016,-1.930259E-015,-1.0));
#433=DIRECTION('',(1.0,0.0,0.0));
#434=AXIS2_PLACEMENT_3D('',#431,#432,#433);
#435=CYLINDRICAL_SURFACE('',#434,0.140625);
#436=ORIENTED_EDGE('',*,*,#138,.T.);
#437=CARTESIAN_POINT('',(2.0,-2.775558E-016,8.881784E-016));
#438=DIRECTION('',(0.0,0.0,1.0));
#439=DIRECTION('',(1.0,0.0,0.0));
#440=AXIS2_PLACEMENT_3D('',#437,#438,#439);
#441=CIRCLE('',#440,0.140625);
#442=EDGE_CURVE('',#150,#133,#441,.T.);
#443=ORIENTED_EDGE('',*,*,#442,.F.);
#444=ORIENTED_EDGE('',*,*,#155,.F.);
#445=CARTESIAN_POINT('',(2.0,0.0,0.188000000000001));
#446=DIRECTION('',(0.0,0.0,-1.0));
#447=DIRECTION('',(1.0,0.0,0.0));
#448=AXIS2_PLACEMENT_3D('',#445,#446,#447);
#449=CIRCLE('',#448,0.140625);
#450=EDGE_CURVE('',#131,#141,#449,.T.);
#451=ORIENTED_EDGE('',*,*,#450,.F.);
#452=EDGE_LOOP('',(#436,#443,#444,#451));
#453=FACE_OUTER_BOUND('',#452,.T.);
#454=ADVANCED_FACE('',(#453),#435,.F.);
#455=CARTESIAN_POINT('',(0.500000000000001,2.5,-4.206230E-015));
#456=DIRECTION('',(0.707106781186548,0.707106781186547,-8.513318E-016));
#457=DIRECTION('',(0.0,0.0,-1.0));
#458=AXIS2_PLACEMENT_3D('',#455,#456,#457);
#459=PLANE('',#458);
#460=CARTESIAN_POINT('',(0.500000000000001,2.5,0.187999999999996));
#461=VERTEX_POINT('',#460);
#462=CARTESIAN_POINT('',(2.5,0.5,0.188));
#463=VERTEX_POINT('',#462);
#464=CARTESIAN_POINT('',(0.500000000000001,2.499999999999999,0.187999999999996));
#465=DIRECTION('',(0.707106781186548,-0.707106781186548,1.521027E-015));
#466=VECTOR('',#465,2.828427124746189);
#467=LINE('',#464,#466);
#468=EDGE_CURVE('',#461,#463,#467,.T.);
#469=ORIENTED_EDGE('',*,*,#468,.T.);
#470=CARTESIAN_POINT('',(2.5,0.5,7.468798E-017));
#471=VERTEX_POINT('',#470);
#472=CARTESIAN_POINT('',(2.5,0.5,7.468798E-017));
#473=DIRECTION('',(0.0,0.0,1.0));
#474=VECTOR('',#473,0.188);
#475=LINE('',#472,#474);
#476=EDGE_CURVE('',#471,#463,#475,.T.);
#477=ORIENTED_EDGE('',*,*,#476,.F.);
#478=CARTESIAN_POINT('',(0.500000000000001,2.5,-4.206230E-015));
#479=VERTEX_POINT('',#478);
#480=CARTESIAN_POINT('',(2.5,0.5,7.468798E-017));
#481=DIRECTION('',(-0.707106781186548,0.707106781186548,-1.521909E-015));
#482=VECTOR('',#481,2.828427124746189);
#483=LINE('',#480,#482);
#484=EDGE_CURVE('',#471,#479,#483,.T.);
#485=ORIENTED_EDGE('',*,*,#484,.T.);
#486=CARTESIAN_POINT('',(0.500000000000001,2.5,-4.206230E-015));
#487=DIRECTION('',(0.0,0.0,1.0));
#488=VECTOR('',#487,0.188);
#489=LINE('',#486,#488);
#490=EDGE_CURVE('',#479,#461,#489,.T.);
#491=ORIENTED_EDGE('',*,*,#490,.T.);
#492=EDGE_LOOP('',(#469,#477,#485,#491));
#493=FACE_OUTER_BOUND('',#492,.T.);
#494=ADVANCED_FACE('',(#493),#459,.T.);
#495=CARTESIAN_POINT('',(2.5,0.5,7.468798E-017));
#496=DIRECTION('',(1.0,0.0,0.0));
#497=DIRECTION('',(0.0,0.0,-1.0));
#498=AXIS2_PLACEMENT_3D('',#495,#496,#497);
#499=PLANE('',#498);
#500=CARTESIAN_POINT('',(2.5,-0.5,0.188000000000002));
#501=VERTEX_POINT('',#500);
#502=CARTESIAN_POINT('',(2.5,0.5,0.188));
#503=DIRECTION('',(0.0,-1.0,0.0));
#504=VECTOR('',#503,1.0);
#505=LINE('',#502,#504);
#506=EDGE_CURVE('',#463,#501,#505,.T.);
#507=ORIENTED_EDGE('',*,*,#506,.T.);
#508=CARTESIAN_POINT('',(2.5,-0.5,1.784936E-015));
#509=VERTEX_POINT('',#508);
#510=CARTESIAN_POINT('',(2.5,-0.5,1.784936E-015));
#511=DIRECTION('',(0.0,0.0,1.0));
#512=VECTOR('',#511,0.188);
#513=LINE('',#510,#512);
#514=EDGE_CURVE('',#509,#501,#513,.T.);
#515=ORIENTED_EDGE('',*,*,#514,.F.);
#516=CARTESIAN_POINT('',(2.5,-0.5,1.784936E-015));
#517=DIRECTION('',(0.0,1.0,0.0));
#518=VECTOR('',#517,1.0);
#519=LINE('',#516,#518);
#520=EDGE_CURVE('',#509,#471,#519,.T.);
#521=ORIENTED_EDGE('',*,*,#520,.T.);
#522=ORIENTED_EDGE('',*,*,#476,.T.);
#523=EDGE_LOOP('',(#507,#515,#521,#522));
#524=FACE_OUTER_BOUND('',#523,.T.);
#525=ADVANCED_FACE('',(#524),#499,.T.);
#526=CARTESIAN_POINT('',(2.5,-0.5,1.784936E-015));
#527=DIRECTION('',(0.0,-1.0,0.0));
#528=DIRECTION('',(-1.0,0.0,0.0));
#529=AXIS2_PLACEMENT_3D('',#526,#527,#528);
#530=PLANE('',#529);
#531=CARTESIAN_POINT('',(-0.5,-0.5,0.188));
#532=VERTEX_POINT('',#531);
#533=CARTESIAN_POINT('',(2.5,-0.5,0.188000000000002));
#534=DIRECTION('',(-1.0,0.0,0.0));
#535=VECTOR('',#534,3.0);
#536=LINE('',#533,#535);
#537=EDGE_CURVE('',#501,#532,#536,.T.);
#538=ORIENTED_EDGE('',*,*,#537,.T.);
#539=CARTESIAN_POINT('',(-0.5,-0.5,4.526680E-016));
#540=VERTEX_POINT('',#539);
#541=CARTESIAN_POINT('',(-0.5,-0.5,4.526680E-016));
#542=DIRECTION('',(0.0,0.0,1.0));
#543=VECTOR('',#542,0.188);
#544=LINE('',#541,#543);
#545=EDGE_CURVE('',#540,#532,#544,.T.);
#546=ORIENTED_EDGE('',*,*,#545,.F.);
#547=CARTESIAN_POINT('',(-0.5,-0.5,4.526680E-016));
#548=DIRECTION('',(1.0,0.0,0.0));
#549=VECTOR('',#548,2.999999999999999);
#550=LINE('',#547,#549);
#551=EDGE_CURVE('',#540,#509,#550,.T.);
#552=ORIENTED_EDGE('',*,*,#551,.T.);
#553=ORIENTED_EDGE('',*,*,#514,.T.);
#554=EDGE_LOOP('',(#538,#546,#552,#553));
#555=FACE_OUTER_BOUND('',#554,.T.);
#556=ADVANCED_FACE('',(#555),#530,.T.);
#557=CARTESIAN_POINT('',(-0.5,-0.5,4.526680E-016));
#558=DIRECTION('',(-1.0,0.0,0.0));
#559=DIRECTION('',(0.0,0.0,1.0));
#560=AXIS2_PLACEMENT_3D('',#557,#558,#559);
#561=PLANE('',#560);
#562=CARTESIAN_POINT('',(-0.499999999999999,2.5,0.187999999999995));
#563=VERTEX_POINT('',#562);
#564=CARTESIAN_POINT('',(-0.5,-0.5,0.188));
#565=DIRECTION('',(0.0,1.0,0.0));
#566=VECTOR('',#565,3.0);
#567=LINE('',#564,#566);
#568=EDGE_CURVE('',#532,#563,#567,.T.);
#569=ORIENTED_EDGE('',*,*,#568,.T.);
#570=CARTESIAN_POINT('',(-0.499999999999999,2.5,-4.650319E-015));
#571=VERTEX_POINT('',#570);
#572=CARTESIAN_POINT('',(-0.499999999999999,2.5,-4.650319E-015));
#573=DIRECTION('',(0.0,0.0,1.0));
#574=VECTOR('',#573,0.188);
#575=LINE('',#572,#574);
#576=EDGE_CURVE('',#571,#563,#575,.T.);
#577=ORIENTED_EDGE('',*,*,#576,.F.);
#578=CARTESIAN_POINT('',(-0.499999999999999,2.5,-4.650319E-015));
#579=DIRECTION('',(0.0,-1.0,0.0));
#580=VECTOR('',#579,3.0);
#581=LINE('',#578,#580);
#582=EDGE_CURVE('',#571,#540,#581,.T.);
#583=ORIENTED_EDGE('',*,*,#582,.T.);
#584=ORIENTED_EDGE('',*,*,#545,.T.);
#585=EDGE_LOOP('',(#569,#577,#583,#584));
#586=FACE_OUTER_BOUND('',#585,.T.);
#587=ADVANCED_FACE('',(#586),#561,.T.);
#588=CARTESIAN_POINT('',(-0.499999999999999,2.5,-4.650319E-015));
#589=DIRECTION('',(0.0,1.0,0.0));
#590=DIRECTION('',(1.0,0.0,0.0));
#591=AXIS2_PLACEMENT_3D('',#588,#589,#590);
#592=PLANE('',#591);
#593=CARTESIAN_POINT('',(-0.499999999999999,2.5,0.187999999999995));
#594=DIRECTION('',(1.0,0.0,0.0));
#595=VECTOR('',#594,1.0);
#596=LINE('',#593,#595);
#597=EDGE_CURVE('',#563,#461,#596,.T.);
#598=ORIENTED_EDGE('',*,*,#597,.T.);
#599=ORIENTED_EDGE('',*,*,#490,.F.);
#600=CARTESIAN_POINT('',(0.500000000000001,2.5,-4.206230E-015));
#601=DIRECTION('',(-1.0,0.0,0.0));
#602=VECTOR('',#601,1.0);
#603=LINE('',#600,#602);
#604=EDGE_CURVE('',#479,#571,#603,.T.);
#605=ORIENTED_EDGE('',*,*,#604,.T.);
#606=ORIENTED_EDGE('',*,*,#576,.T.);
#607=EDGE_LOOP('',(#598,#599,#605,#606));
#608=FACE_OUTER_BOUND('',#607,.T.);
#609=ADVANCED_FACE('',(#608),#592,.T.);
#610=CARTESIAN_POINT('',(0.900000000000001,0.899999999999999,-1.325505E-015));
#611=DIRECTION('',(0.0,0.0,-1.0));
#612=DIRECTION('',(-1.0,0.0,0.0));
#613=AXIS2_PLACEMENT_3D('',#610,#611,#612);
#614=PLANE('',#613);
#615=ORIENTED_EDGE('',*,*,#604,.F.);
#616=ORIENTED_EDGE('',*,*,#484,.F.);
#617=ORIENTED_EDGE('',*,*,#520,.F.);
#618=ORIENTED_EDGE('',*,*,#551,.F.);
#619=ORIENTED_EDGE('',*,*,#582,.F.);
#620=EDGE_LOOP('',(#615,#616,#617,#618,#619));
#621=FACE_OUTER_BOUND('',#620,.T.);
#622=ORIENTED_EDGE('',*,*,#346,.T.);
#623=ORIENTED_EDGE('',*,*,#330,.T.);
#624=EDGE_LOOP('',(#622,#623));
#625=FACE_BOUND('',#624,.T.);
#626=ORIENTED_EDGE('',*,*,#370,.T.);
#627=ORIENTED_EDGE('',*,*,#288,.T.);
#628=EDGE_LOOP('',(#626,#627));
#629=FACE_BOUND('',#628,.T.);
#630=ORIENTED_EDGE('',*,*,#394,.T.);
#631=ORIENTED_EDGE('',*,*,#246,.T.);
#632=EDGE_LOOP('',(#630,#631));
#633=FACE_BOUND('',#632,.T.);
#634=ORIENTED_EDGE('',*,*,#418,.T.);
#635=ORIENTED_EDGE('',*,*,#204,.T.);
#636=EDGE_LOOP('',(#634,#635));
#637=FACE_BOUND('',#636,.T.);
#638=ORIENTED_EDGE('',*,*,#442,.T.);
#639=ORIENTED_EDGE('',*,*,#162,.T.);
#640=EDGE_LOOP('',(#638,#639));
#641=FACE_BOUND('',#640,.T.);
#642=ADVANCED_FACE('',(#621,#625,#629,#633,#637,#641),#614,.T.);
#643=CARTESIAN_POINT('',(0.500000000000001,2.5,0.187999999999996));
#644=DIRECTION('',(0.0,0.0,-1.0));
#645=DIRECTION('',(-1.0,0.0,0.0));
#646=AXIS2_PLACEMENT_3D('',#643,#644,#645);
#647=PLANE('',#646);
#648=ORIENTED_EDGE('',*,*,#468,.F.);
#649=ORIENTED_EDGE('',*,*,#597,.F.);
#650=ORIENTED_EDGE('',*,*,#568,.F.);
#651=ORIENTED_EDGE('',*,*,#537,.F.);
#652=ORIENTED_EDGE('',*,*,#506,.F.);
#653=EDGE_LOOP('',(#648,#649,#650,#651,#652));
#654=FACE_OUTER_BOUND('',#653,.T.);
#655=ORIENTED_EDGE('',*,*,#354,.T.);
#656=ORIENTED_EDGE('',*,*,#315,.T.);
#657=EDGE_LOOP('',(#655,#656));
#658=FACE_BOUND('',#657,.T.);
#659=ORIENTED_EDGE('',*,*,#378,.T.);
#660=ORIENTED_EDGE('',*,*,#273,.T.);
#661=EDGE_LOOP('',(#659,#660));
#662=FACE_BOUND('',#661,.T.);
#663=ORIENTED_EDGE('',*,*,#402,.T.);
#664=ORIENTED_EDGE('',*,*,#231,.T.);
#665=EDGE_LOOP('',(#663,#664));
#666=FACE_BOUND('',#665,.T.);
#667=ORIENTED_EDGE('',*,*,#426,.T.);
#668=ORIENTED_EDGE('',*,*,#189,.T.);
#669=EDGE_LOOP('',(#667,#668));
#670=FACE_BOUND('',#669,.T.);
#671=ORIENTED_EDGE('',*,*,#450,.T.);
#672=ORIENTED_EDGE('',*,*,#147,.T.);
#673=EDGE_LOOP('',(#671,#672));
#674=FACE_BOUND('',#673,.T.);
#675=ADVANCED_FACE('',(#654,#658,#662,#666,#670,#674),#647,.F.);
#676=CLOSED_SHELL('',(#166,#208,#250,#292,#334,#358,#382,#406,#430,#454,#494,#525,#556,#587,#609,#642,#675));
#677=MANIFOLD_SOLID_BREP('30',#676);
#678=ADVANCED_BREP_SHAPE_REPRESENTATION('ABSR1',(#677),#28);
#679=SHAPE_REPRESENTATION_RELATIONSHIP('SRRPL1','',#678,#122);
ENDSEC;
END-ISO-10303-21;
