ISO-10303-21;
HEADER;
/****************************************************************
 * Generated by software with PDElib inside                    *
 * PDElib Version v51a, created Fri 09/10/2010                  *
 * ITI Transcendata (http://www.transcendata.com/)              *
 ****************************************************************/
FILE_DESCRIPTION((''),'2;1');
FILE_NAME('10JP4203.stp','2015-07-14T08:26:57',(''),(''),'Mechanical Desktop 2011','Mechanical Desktop 2011',', , ');
FILE_SCHEMA(('CONFIG_CONTROL_DESIGN'));
ENDSEC;
DATA;
#10=(NAMED_UNIT(*)PLANE_ANGLE_UNIT()SI_UNIT($,.RADIAN.));
#11=DIMENSIONAL_EXPONENTS(0.0,0.0,0.0,0.0,0.0,0.0,0.0);
#12=PLANE_ANGLE_MEASURE_WITH_UNIT(PLANE_ANGLE_MEASURE(0.0174532925),#10);
#16=(CONVERSION_BASED_UNIT('DEGREE',#12)NAMED_UNIT(#11)PLANE_ANGLE_UNIT());
#20=(NAMED_UNIT(*)SI_UNIT($,.STERADIAN.)SOLID_ANGLE_UNIT());
#24=(LENGTH_UNIT()NAMED_UNIT(*)SI_UNIT(.MILLI.,.METRE.));
#26=UNCERTAINTY_MEASURE_WITH_UNIT(LENGTH_MEASURE(0.000001),#24,'DISTANCE_ACCURACY_VALUE','');
#28=(GEOMETRIC_REPRESENTATION_CONTEXT(3)GLOBAL_UNCERTAINTY_ASSIGNED_CONTEXT((#26))GLOBAL_UNIT_ASSIGNED_CONTEXT((#16,#20,#24))REPRESENTATION_CONTEXT('','3D'));
#29=APPLICATION_CONTEXT('CONFIGURATION CONTROLLED 3D DESIGNS OF MECHANICAL PARTS AND ASSEMBLIES');
#30=APPLICATION_PROTOCOL_DEFINITION('INTERNATIONAL STANDARD','config_control_design',1995,#29);
#31=MECHANICAL_CONTEXT('3D Mechanical Parts',#29,'mechanical');
#32=PRODUCT('Product','Product',' ',(#31));
#33=PRODUCT_RELATED_PRODUCT_CATEGORY('detail',$,(#32));
#34=PRODUCT_CATEGORY('part',$);
#35=PRODUCT_CATEGORY_RELATIONSHIP('None','None',#34,#33);
#36=PERSON('1','Design','Joe',$,$,$);
#37=ORGANIZATION($,'None','None');
#38=PERSON_AND_ORGANIZATION(#36,#37);
#39=PERSON_AND_ORGANIZATION_ROLE('design_owner');
#40=CC_DESIGN_PERSON_AND_ORGANIZATION_ASSIGNMENT(#38,#39,(#32));
#41=PRODUCT_DEFINITION_FORMATION_WITH_SPECIFIED_SOURCE('None','None',#32,.BOUGHT.);
#42=PERSON('2','Creator','Joe',$,$,$);
#43=ORGANIZATION($,'None','None');
#44=PERSON_AND_ORGANIZATION(#42,#43);
#45=PERSON_AND_ORGANIZATION_ROLE('creator');
#46=CC_DESIGN_PERSON_AND_ORGANIZATION_ASSIGNMENT(#44,#45,(#41));
#47=PERSON('3','Supplier','Joe',$,$,$);
#48=ORGANIZATION($,'None','None');
#49=PERSON_AND_ORGANIZATION(#47,#48);
#50=PERSON_AND_ORGANIZATION_ROLE('design_supplier');
#51=CC_DESIGN_PERSON_AND_ORGANIZATION_ASSIGNMENT(#49,#50,(#41));
#52=APPROVAL_STATUS('approved');
#53=APPROVAL(#52,'None');
#54=PERSON('4','Approver','Joe',$,$,$);
#55=ORGANIZATION($,'None','None');
#56=PERSON_AND_ORGANIZATION(#54,#55);
#57=APPROVAL_ROLE('approver');
#58=APPROVAL_PERSON_ORGANIZATION(#56,#53,#57);
#59=COORDINATED_UNIVERSAL_TIME_OFFSET(8,$,.EXACT.);
#60=CALENDAR_DATE(1996,29,5);
#61=LOCAL_TIME(12,0,0.0,#59);
#62=DATE_AND_TIME(#60,#61);
#63=APPROVAL_DATE_TIME(#62,#53);
#64=CC_DESIGN_APPROVAL(#53,(#41));
#65=SECURITY_CLASSIFICATION_LEVEL('unclassified');
#66=SECURITY_CLASSIFICATION('security','None',#65);
#67=CC_DESIGN_SECURITY_CLASSIFICATION(#66,(#41));
#68=APPROVAL_STATUS('approved');
#69=APPROVAL(#68,'None');
#70=PERSON('5','Approver','Joe',$,$,$);
#71=ORGANIZATION($,'None','None');
#72=PERSON_AND_ORGANIZATION(#70,#71);
#73=APPROVAL_ROLE('approver');
#74=APPROVAL_PERSON_ORGANIZATION(#72,#69,#73);
#75=COORDINATED_UNIVERSAL_TIME_OFFSET(8,$,.EXACT.);
#76=CALENDAR_DATE(1996,29,5);
#77=LOCAL_TIME(12,0,0.0,#75);
#78=DATE_AND_TIME(#76,#77);
#79=APPROVAL_DATE_TIME(#78,#69);
#80=CC_DESIGN_APPROVAL(#69,(#66));
#81=PERSON('6','Classifier','Joe',$,$,$);
#82=ORGANIZATION($,'None','None');
#83=PERSON_AND_ORGANIZATION(#81,#82);
#84=PERSON_AND_ORGANIZATION_ROLE('classification_officer');
#85=CC_DESIGN_PERSON_AND_ORGANIZATION_ASSIGNMENT(#83,#84,(#66));
#86=COORDINATED_UNIVERSAL_TIME_OFFSET(8,$,.EXACT.);
#87=CALENDAR_DATE(1996,29,5);
#88=LOCAL_TIME(12,0,0.0,#86);
#89=DATE_AND_TIME(#87,#88);
#90=DATE_TIME_ROLE('classification_date');
#91=CC_DESIGN_DATE_AND_TIME_ASSIGNMENT(#89,#90,(#66));
#92=DESIGN_CONTEXT('Design Context',#29,'design');
#93=PRODUCT_DEFINITION('None','None',#41,#92);
#94=PERSON('7','Creator','Joe',$,$,$);
#95=ORGANIZATION($,'None','None');
#96=PERSON_AND_ORGANIZATION(#94,#95);
#97=PERSON_AND_ORGANIZATION_ROLE('creator');
#98=CC_DESIGN_PERSON_AND_ORGANIZATION_ASSIGNMENT(#96,#97,(#93));
#99=COORDINATED_UNIVERSAL_TIME_OFFSET(8,$,.EXACT.);
#100=CALENDAR_DATE(1996,29,5);
#101=LOCAL_TIME(12,0,0.0,#99);
#102=DATE_AND_TIME(#100,#101);
#103=DATE_TIME_ROLE('creation_date');
#104=CC_DESIGN_DATE_AND_TIME_ASSIGNMENT(#102,#103,(#93));
#105=APPROVAL_STATUS('approved');
#106=APPROVAL(#105,'None');
#107=PERSON('8','Approver','Joe',$,$,$);
#108=ORGANIZATION($,'None','None');
#109=PERSON_AND_ORGANIZATION(#107,#108);
#110=APPROVAL_ROLE('approver');
#111=APPROVAL_PERSON_ORGANIZATION(#109,#106,#110);
#112=COORDINATED_UNIVERSAL_TIME_OFFSET(8,$,.EXACT.);
#113=CALENDAR_DATE(1996,29,5);
#114=LOCAL_TIME(12,0,0.0,#112);
#115=DATE_AND_TIME(#113,#114);
#116=APPROVAL_DATE_TIME(#115,#106);
#117=CC_DESIGN_APPROVAL(#106,(#93));
#118=CARTESIAN_POINT('NONE',(0.0,0.0,0.0));
#119=DIRECTION('NONE',(0.0,0.0,1.0));
#120=DIRECTION('NONE',(1.0,0.0,0.0));
#121=AXIS2_PLACEMENT_3D('NONE',#118,#119,#120);
#122=SHAPE_REPRESENTATION('SR1',(#121),#28);
#123=PRODUCT_DEFINITION_SHAPE('PDS1','Test Part',#93);
#124=SHAPE_DEFINITION_REPRESENTATION(#123,#122);
#125=CARTESIAN_POINT('',(8.881784E-016,2.0,0.125));
#126=DIRECTION('',(-1.159744E-015,1.836910E-016,1.0));
#127=DIRECTION('',(0.0,1.0,0.0));
#128=AXIS2_PLACEMENT_3D('',#125,#126,#127);
#129=CYLINDRICAL_SURFACE('',#128,0.140625);
#130=CARTESIAN_POINT('',(1.110223E-015,2.140625,-4.996004E-016));
#131=VERTEX_POINT('',#130);
#132=CARTESIAN_POINT('',(8.775646E-016,2.140625,0.187999999999999));
#133=VERTEX_POINT('',#132);
#134=CARTESIAN_POINT('',(1.095596E-015,2.140625,-4.163336E-016));
#135=DIRECTION('',(0.0,0.0,1.0));
#136=VECTOR('',#135,0.188);
#137=LINE('',#134,#136);
#138=EDGE_CURVE('',#131,#133,#137,.T.);
#139=ORIENTED_EDGE('',*,*,#138,.F.);
#140=CARTESIAN_POINT('',(9.879180E-016,1.859375,-3.608225E-016));
#141=VERTEX_POINT('',#140);
#142=CARTESIAN_POINT('',(1.110223E-015,2.0,-3.885781E-016));
#143=DIRECTION('',(0.0,0.0,1.0));
#144=DIRECTION('',(0.0,1.0,0.0));
#145=AXIS2_PLACEMENT_3D('',#142,#143,#144);
#146=CIRCLE('',#145,0.140625);
#147=EDGE_CURVE('',#141,#131,#146,.T.);
#148=ORIENTED_EDGE('',*,*,#147,.F.);
#149=CARTESIAN_POINT('',(1.887379E-015,1.859375,0.187999999999999));
#150=VERTEX_POINT('',#149);
#151=CARTESIAN_POINT('',(9.879180E-016,1.859375,-3.608225E-016));
#152=DIRECTION('',(0.0,0.0,1.0));
#153=VECTOR('',#152,0.188);
#154=LINE('',#151,#153);
#155=EDGE_CURVE('',#141,#150,#154,.T.);
#156=ORIENTED_EDGE('',*,*,#155,.T.);
#157=CARTESIAN_POINT('',(8.881784E-016,2.0,0.187999999999999));
#158=DIRECTION('',(0.0,0.0,-1.0));
#159=DIRECTION('',(0.0,1.0,0.0));
#160=AXIS2_PLACEMENT_3D('',#157,#158,#159);
#161=CIRCLE('',#160,0.140625);
#162=EDGE_CURVE('',#133,#150,#161,.T.);
#163=ORIENTED_EDGE('',*,*,#162,.F.);
#164=EDGE_LOOP('',(#139,#148,#156,#163));
#165=FACE_OUTER_BOUND('',#164,.T.);
#166=ADVANCED_FACE('',(#165),#129,.F.);
#167=CARTESIAN_POINT('',(2.220446E-016,1.0,0.125));
#168=DIRECTION('',(-1.159744E-015,1.836910E-016,1.0));
#169=DIRECTION('',(0.0,1.0,0.0));
#170=AXIS2_PLACEMENT_3D('',#167,#168,#169);
#171=CYLINDRICAL_SURFACE('',#170,0.140625);
#172=CARTESIAN_POINT('',(4.440892E-016,1.140625,-3.330669E-016));
#173=VERTEX_POINT('',#172);
#174=CARTESIAN_POINT('',(2.114308E-016,1.140625,0.188));
#175=VERTEX_POINT('',#174);
#176=CARTESIAN_POINT('',(4.294626E-016,1.140625,-2.220446E-016));
#177=DIRECTION('',(0.0,0.0,1.0));
#178=VECTOR('',#177,0.188);
#179=LINE('',#176,#178);
#180=EDGE_CURVE('',#173,#175,#179,.T.);
#181=ORIENTED_EDGE('',*,*,#180,.F.);
#182=CARTESIAN_POINT('',(3.217842E-016,0.859375,-1.665335E-016));
#183=VERTEX_POINT('',#182);
#184=CARTESIAN_POINT('',(4.440892E-016,1.0,-1.942890E-016));
#185=DIRECTION('',(0.0,0.0,1.0));
#186=DIRECTION('',(0.0,1.0,0.0));
#187=AXIS2_PLACEMENT_3D('',#184,#185,#186);
#188=CIRCLE('',#187,0.140625);
#189=EDGE_CURVE('',#183,#173,#188,.T.);
#190=ORIENTED_EDGE('',*,*,#189,.F.);
#191=CARTESIAN_POINT('',(1.221245E-015,0.859375,0.188));
#192=VERTEX_POINT('',#191);
#193=CARTESIAN_POINT('',(3.217842E-016,0.859375,-1.665335E-016));
#194=DIRECTION('',(0.0,0.0,1.0));
#195=VECTOR('',#194,0.188);
#196=LINE('',#193,#195);
#197=EDGE_CURVE('',#183,#192,#196,.T.);
#198=ORIENTED_EDGE('',*,*,#197,.T.);
#199=CARTESIAN_POINT('',(2.220446E-016,1.0,0.188));
#200=DIRECTION('',(0.0,0.0,-1.0));
#201=DIRECTION('',(0.0,1.0,0.0));
#202=AXIS2_PLACEMENT_3D('',#199,#200,#201);
#203=CIRCLE('',#202,0.140625);
#204=EDGE_CURVE('',#175,#192,#203,.T.);
#205=ORIENTED_EDGE('',*,*,#204,.F.);
#206=EDGE_LOOP('',(#181,#190,#198,#205));
#207=FACE_OUTER_BOUND('',#206,.T.);
#208=ADVANCED_FACE('',(#207),#171,.F.);
#209=CARTESIAN_POINT('',(1.0,-2.220446E-016,0.125000000000001));
#210=DIRECTION('',(-1.159744E-015,1.836910E-016,1.0));
#211=DIRECTION('',(0.0,1.0,0.0));
#212=AXIS2_PLACEMENT_3D('',#209,#210,#211);
#213=CYLINDRICAL_SURFACE('',#212,0.140625);
#214=CARTESIAN_POINT('',(1.0,0.140625,8.326673E-016));
#215=VERTEX_POINT('',#214);
#216=CARTESIAN_POINT('',(1.0,0.140625,0.188000000000001));
#217=VERTEX_POINT('',#216);
#218=CARTESIAN_POINT('',(1.0,0.140625,1.137979E-015));
#219=DIRECTION('',(0.0,0.0,1.0));
#220=VECTOR('',#219,0.188);
#221=LINE('',#218,#220);
#222=EDGE_CURVE('',#215,#217,#221,.T.);
#223=ORIENTED_EDGE('',*,*,#222,.F.);
#224=CARTESIAN_POINT('',(1.0,-0.140625,1.193490E-015));
#225=VERTEX_POINT('',#224);
#226=CARTESIAN_POINT('',(1.0,-2.220446E-016,1.165734E-015));
#227=DIRECTION('',(0.0,0.0,1.0));
#228=DIRECTION('',(0.0,1.0,0.0));
#229=AXIS2_PLACEMENT_3D('',#226,#227,#228);
#230=CIRCLE('',#229,0.140625);
#231=EDGE_CURVE('',#225,#215,#230,.T.);
#232=ORIENTED_EDGE('',*,*,#231,.F.);
#233=CARTESIAN_POINT('',(1.000000000000001,-0.140625,0.188000000000001));
#234=VERTEX_POINT('',#233);
#235=CARTESIAN_POINT('',(1.0,-0.140625,1.193490E-015));
#236=DIRECTION('',(0.0,0.0,1.0));
#237=VECTOR('',#236,0.188);
#238=LINE('',#235,#237);
#239=EDGE_CURVE('',#225,#234,#238,.T.);
#240=ORIENTED_EDGE('',*,*,#239,.T.);
#241=CARTESIAN_POINT('',(1.0,-2.220446E-016,0.188000000000001));
#242=DIRECTION('',(0.0,0.0,-1.0));
#243=DIRECTION('',(0.0,1.0,0.0));
#244=AXIS2_PLACEMENT_3D('',#241,#242,#243);
#245=CIRCLE('',#244,0.140625);
#246=EDGE_CURVE('',#217,#234,#245,.T.);
#247=ORIENTED_EDGE('',*,*,#246,.F.);
#248=EDGE_LOOP('',(#223,#232,#240,#247));
#249=FACE_OUTER_BOUND('',#248,.T.);
#250=ADVANCED_FACE('',(#249),#213,.F.);
#251=CARTESIAN_POINT('',(-1.110223E-016,0.0,0.125));
#252=DIRECTION('',(-1.159744E-015,1.836910E-016,1.0));
#253=DIRECTION('',(0.0,1.0,0.0));
#254=AXIS2_PLACEMENT_3D('',#251,#252,#253);
#255=CYLINDRICAL_SURFACE('',#254,0.140625);
#256=CARTESIAN_POINT('',(0.0,0.140625,-1.387779E-016));
#257=VERTEX_POINT('',#256);
#258=CARTESIAN_POINT('',(-1.216361E-016,0.140625,0.188));
#259=VERTEX_POINT('',#258);
#260=CARTESIAN_POINT('',(9.639574E-017,0.140625,-2.775558E-017));
#261=DIRECTION('',(0.0,0.0,1.0));
#262=VECTOR('',#261,0.188);
#263=LINE('',#260,#262);
#264=EDGE_CURVE('',#257,#259,#263,.T.);
#265=ORIENTED_EDGE('',*,*,#264,.F.);
#266=CARTESIAN_POINT('',(-1.128276E-017,-0.140625,2.775558E-017));
#267=VERTEX_POINT('',#266);
#268=CARTESIAN_POINT('',(0.0,0.0,0.0));
#269=DIRECTION('',(0.0,0.0,1.0));
#270=DIRECTION('',(0.0,1.0,0.0));
#271=AXIS2_PLACEMENT_3D('',#268,#269,#270);
#272=CIRCLE('',#271,0.140625);
#273=EDGE_CURVE('',#267,#257,#272,.T.);
#274=ORIENTED_EDGE('',*,*,#273,.F.);
#275=CARTESIAN_POINT('',(7.771561E-016,-0.140625,0.188));
#276=VERTEX_POINT('',#275);
#277=CARTESIAN_POINT('',(-1.128276E-017,-0.140625,2.775558E-017));
#278=DIRECTION('',(0.0,0.0,1.0));
#279=VECTOR('',#278,0.188);
#280=LINE('',#277,#279);
#281=EDGE_CURVE('',#267,#276,#280,.T.);
#282=ORIENTED_EDGE('',*,*,#281,.T.);
#283=CARTESIAN_POINT('',(-1.665335E-016,0.0,0.188));
#284=DIRECTION('',(0.0,0.0,-1.0));
#285=DIRECTION('',(0.0,1.0,0.0));
#286=AXIS2_PLACEMENT_3D('',#283,#284,#285);
#287=CIRCLE('',#286,0.140625);
#288=EDGE_CURVE('',#259,#276,#287,.T.);
#289=ORIENTED_EDGE('',*,*,#288,.F.);
#290=EDGE_LOOP('',(#265,#274,#282,#289));
#291=FACE_OUTER_BOUND('',#290,.T.);
#292=ADVANCED_FACE('',(#291),#255,.F.);
#293=CARTESIAN_POINT('',(-1.110223E-016,0.0,0.125));
#294=DIRECTION('',(-1.159744E-015,1.836910E-016,1.0));
#295=DIRECTION('',(0.0,1.0,0.0));
#296=AXIS2_PLACEMENT_3D('',#293,#294,#295);
#297=CYLINDRICAL_SURFACE('',#296,0.140625);
#298=ORIENTED_EDGE('',*,*,#264,.T.);
#299=CARTESIAN_POINT('',(-1.665335E-016,0.0,0.188));
#300=DIRECTION('',(0.0,0.0,-1.0));
#301=DIRECTION('',(0.0,1.0,0.0));
#302=AXIS2_PLACEMENT_3D('',#299,#300,#301);
#303=CIRCLE('',#302,0.140625);
#304=EDGE_CURVE('',#276,#259,#303,.T.);
#305=ORIENTED_EDGE('',*,*,#304,.F.);
#306=ORIENTED_EDGE('',*,*,#281,.F.);
#307=CARTESIAN_POINT('',(0.0,0.0,0.0));
#308=DIRECTION('',(0.0,0.0,1.0));
#309=DIRECTION('',(0.0,1.0,0.0));
#310=AXIS2_PLACEMENT_3D('',#307,#308,#309);
#311=CIRCLE('',#310,0.140625);
#312=EDGE_CURVE('',#257,#267,#311,.T.);
#313=ORIENTED_EDGE('',*,*,#312,.F.);
#314=EDGE_LOOP('',(#298,#305,#306,#313));
#315=FACE_OUTER_BOUND('',#314,.T.);
#316=ADVANCED_FACE('',(#315),#297,.F.);
#317=CARTESIAN_POINT('',(1.0,-2.220446E-016,0.125000000000001));
#318=DIRECTION('',(-1.159744E-015,1.836910E-016,1.0));
#319=DIRECTION('',(0.0,1.0,0.0));
#320=AXIS2_PLACEMENT_3D('',#317,#318,#319);
#321=CYLINDRICAL_SURFACE('',#320,0.140625);
#322=ORIENTED_EDGE('',*,*,#222,.T.);
#323=CARTESIAN_POINT('',(1.0,-2.220446E-016,0.188000000000001));
#324=DIRECTION('',(0.0,0.0,-1.0));
#325=DIRECTION('',(0.0,1.0,0.0));
#326=AXIS2_PLACEMENT_3D('',#323,#324,#325);
#327=CIRCLE('',#326,0.140625);
#328=EDGE_CURVE('',#234,#217,#327,.T.);
#329=ORIENTED_EDGE('',*,*,#328,.F.);
#330=ORIENTED_EDGE('',*,*,#239,.F.);
#331=CARTESIAN_POINT('',(1.0,-2.220446E-016,1.165734E-015));
#332=DIRECTION('',(0.0,0.0,1.0));
#333=DIRECTION('',(0.0,1.0,0.0));
#334=AXIS2_PLACEMENT_3D('',#331,#332,#333);
#335=CIRCLE('',#334,0.140625);
#336=EDGE_CURVE('',#215,#225,#335,.T.);
#337=ORIENTED_EDGE('',*,*,#336,.F.);
#338=EDGE_LOOP('',(#322,#329,#330,#337));
#339=FACE_OUTER_BOUND('',#338,.T.);
#340=ADVANCED_FACE('',(#339),#321,.F.);
#341=CARTESIAN_POINT('',(2.220446E-016,1.0,0.125));
#342=DIRECTION('',(-1.159744E-015,1.836910E-016,1.0));
#343=DIRECTION('',(0.0,1.0,0.0));
#344=AXIS2_PLACEMENT_3D('',#341,#342,#343);
#345=CYLINDRICAL_SURFACE('',#344,0.140625);
#346=ORIENTED_EDGE('',*,*,#180,.T.);
#347=CARTESIAN_POINT('',(2.220446E-016,1.0,0.188));
#348=DIRECTION('',(0.0,0.0,-1.0));
#349=DIRECTION('',(0.0,1.0,0.0));
#350=AXIS2_PLACEMENT_3D('',#347,#348,#349);
#351=CIRCLE('',#350,0.140625);
#352=EDGE_CURVE('',#192,#175,#351,.T.);
#353=ORIENTED_EDGE('',*,*,#352,.F.);
#354=ORIENTED_EDGE('',*,*,#197,.F.);
#355=CARTESIAN_POINT('',(4.440892E-016,1.0,-1.942890E-016));
#356=DIRECTION('',(0.0,0.0,1.0));
#357=DIRECTION('',(0.0,1.0,0.0));
#358=AXIS2_PLACEMENT_3D('',#355,#356,#357);
#359=CIRCLE('',#358,0.140625);
#360=EDGE_CURVE('',#173,#183,#359,.T.);
#361=ORIENTED_EDGE('',*,*,#360,.F.);
#362=EDGE_LOOP('',(#346,#353,#354,#361));
#363=FACE_OUTER_BOUND('',#362,.T.);
#364=ADVANCED_FACE('',(#363),#345,.F.);
#365=CARTESIAN_POINT('',(8.881784E-016,2.0,0.125));
#366=DIRECTION('',(-1.159744E-015,1.836910E-016,1.0));
#367=DIRECTION('',(0.0,1.0,0.0));
#368=AXIS2_PLACEMENT_3D('',#365,#366,#367);
#369=CYLINDRICAL_SURFACE('',#368,0.140625);
#370=ORIENTED_EDGE('',*,*,#138,.T.);
#371=CARTESIAN_POINT('',(8.881784E-016,2.0,0.187999999999999));
#372=DIRECTION('',(0.0,0.0,-1.0));
#373=DIRECTION('',(0.0,1.0,0.0));
#374=AXIS2_PLACEMENT_3D('',#371,#372,#373);
#375=CIRCLE('',#374,0.140625);
#376=EDGE_CURVE('',#150,#133,#375,.T.);
#377=ORIENTED_EDGE('',*,*,#376,.F.);
#378=ORIENTED_EDGE('',*,*,#155,.F.);
#379=CARTESIAN_POINT('',(1.110223E-015,2.0,-3.885781E-016));
#380=DIRECTION('',(0.0,0.0,1.0));
#381=DIRECTION('',(0.0,1.0,0.0));
#382=AXIS2_PLACEMENT_3D('',#379,#380,#381);
#383=CIRCLE('',#382,0.140625);
#384=EDGE_CURVE('',#131,#141,#383,.T.);
#385=ORIENTED_EDGE('',*,*,#384,.F.);
#386=EDGE_LOOP('',(#370,#377,#378,#385));
#387=FACE_OUTER_BOUND('',#386,.T.);
#388=ADVANCED_FACE('',(#387),#369,.F.);
#389=CARTESIAN_POINT('',(-0.499999999999999,2.5,0.187999999999999));
#390=DIRECTION('',(-1.0,0.0,0.0));
#391=DIRECTION('',(0.0,-1.0,0.0));
#392=AXIS2_PLACEMENT_3D('',#389,#390,#391);
#393=PLANE('',#392);
#394=CARTESIAN_POINT('',(-0.499999999999999,2.5,-1.054712E-015));
#395=VERTEX_POINT('',#394);
#396=CARTESIAN_POINT('',(-0.5,-0.5,-4.996004E-016));
#397=VERTEX_POINT('',#396);
#398=CARTESIAN_POINT('',(-0.499999999999999,2.5,-1.054712E-015));
#399=DIRECTION('',(0.0,-1.0,0.0));
#400=VECTOR('',#399,3.0);
#401=LINE('',#398,#400);
#402=EDGE_CURVE('',#395,#397,#401,.T.);
#403=ORIENTED_EDGE('',*,*,#402,.T.);
#404=CARTESIAN_POINT('',(-0.5,-0.5,0.188));
#405=VERTEX_POINT('',#404);
#406=CARTESIAN_POINT('',(-0.5,-0.5,0.188));
#407=DIRECTION('',(0.0,0.0,-1.0));
#408=VECTOR('',#407,0.188);
#409=LINE('',#406,#408);
#410=EDGE_CURVE('',#405,#397,#409,.T.);
#411=ORIENTED_EDGE('',*,*,#410,.F.);
#412=CARTESIAN_POINT('',(-0.499999999999999,2.5,0.187999999999999));
#413=VERTEX_POINT('',#412);
#414=CARTESIAN_POINT('',(-0.499999999999999,2.5,0.187999999999999));
#415=DIRECTION('',(0.0,-1.0,0.0));
#416=VECTOR('',#415,3.0);
#417=LINE('',#414,#416);
#418=EDGE_CURVE('',#413,#405,#417,.T.);
#419=ORIENTED_EDGE('',*,*,#418,.F.);
#420=CARTESIAN_POINT('',(-0.499999999999999,2.5,0.187999999999999));
#421=DIRECTION('',(0.0,0.0,-1.0));
#422=VECTOR('',#421,0.188);
#423=LINE('',#420,#422);
#424=EDGE_CURVE('',#413,#395,#423,.T.);
#425=ORIENTED_EDGE('',*,*,#424,.T.);
#426=EDGE_LOOP('',(#403,#411,#419,#425));
#427=FACE_OUTER_BOUND('',#426,.T.);
#428=ADVANCED_FACE('',(#427),#393,.T.);
#429=CARTESIAN_POINT('',(-0.5,-0.5,0.188));
#430=DIRECTION('',(0.0,-1.0,0.0));
#431=DIRECTION('',(0.0,0.0,-1.0));
#432=AXIS2_PLACEMENT_3D('',#429,#430,#431);
#433=PLANE('',#432);
#434=CARTESIAN_POINT('',(1.5,-0.500000000000001,1.415534E-015));
#435=VERTEX_POINT('',#434);
#436=CARTESIAN_POINT('',(-0.5,-0.5,-4.996004E-016));
#437=DIRECTION('',(1.0,0.0,0.0));
#438=VECTOR('',#437,2.0);
#439=LINE('',#436,#438);
#440=EDGE_CURVE('',#397,#435,#439,.T.);
#441=ORIENTED_EDGE('',*,*,#440,.T.);
#442=CARTESIAN_POINT('',(1.5,-0.500000000000001,0.188000000000001));
#443=VERTEX_POINT('',#442);
#444=CARTESIAN_POINT('',(1.5,-0.500000000000001,0.188000000000001));
#445=DIRECTION('',(0.0,0.0,-1.0));
#446=VECTOR('',#445,0.188);
#447=LINE('',#444,#446);
#448=EDGE_CURVE('',#443,#435,#447,.T.);
#449=ORIENTED_EDGE('',*,*,#448,.F.);
#450=CARTESIAN_POINT('',(-0.5,-0.5,0.188));
#451=DIRECTION('',(1.0,0.0,0.0));
#452=VECTOR('',#451,2.0);
#453=LINE('',#450,#452);
#454=EDGE_CURVE('',#405,#443,#453,.T.);
#455=ORIENTED_EDGE('',*,*,#454,.F.);
#456=ORIENTED_EDGE('',*,*,#410,.T.);
#457=EDGE_LOOP('',(#441,#449,#455,#456));
#458=FACE_OUTER_BOUND('',#457,.T.);
#459=ADVANCED_FACE('',(#458),#433,.T.);
#460=CARTESIAN_POINT('',(1.5,-0.500000000000001,0.188000000000001));
#461=DIRECTION('',(1.0,0.0,0.0));
#462=DIRECTION('',(0.0,1.0,0.0));
#463=AXIS2_PLACEMENT_3D('',#460,#461,#462);
#464=PLANE('',#463);
#465=CARTESIAN_POINT('',(1.5,0.499999999999999,1.221245E-015));
#466=VERTEX_POINT('',#465);
#467=CARTESIAN_POINT('',(1.5,-0.500000000000001,1.415534E-015));
#468=DIRECTION('',(0.0,1.0,0.0));
#469=VECTOR('',#468,1.0);
#470=LINE('',#467,#469);
#471=EDGE_CURVE('',#435,#466,#470,.T.);
#472=ORIENTED_EDGE('',*,*,#471,.T.);
#473=CARTESIAN_POINT('',(1.5,0.499999999999999,0.188000000000001));
#474=VERTEX_POINT('',#473);
#475=CARTESIAN_POINT('',(1.5,0.499999999999999,0.188000000000001));
#476=DIRECTION('',(0.0,0.0,-1.0));
#477=VECTOR('',#476,0.188);
#478=LINE('',#475,#477);
#479=EDGE_CURVE('',#474,#466,#478,.T.);
#480=ORIENTED_EDGE('',*,*,#479,.F.);
#481=CARTESIAN_POINT('',(1.5,-0.500000000000001,0.188000000000001));
#482=DIRECTION('',(0.0,1.0,0.0));
#483=VECTOR('',#482,1.0);
#484=LINE('',#481,#483);
#485=EDGE_CURVE('',#443,#474,#484,.T.);
#486=ORIENTED_EDGE('',*,*,#485,.F.);
#487=ORIENTED_EDGE('',*,*,#448,.T.);
#488=EDGE_LOOP('',(#472,#480,#486,#487));
#489=FACE_OUTER_BOUND('',#488,.T.);
#490=ADVANCED_FACE('',(#489),#464,.T.);
#491=CARTESIAN_POINT('',(1.5,0.499999999999999,0.188000000000001));
#492=DIRECTION('',(0.894427190999916,0.447213595499957,7.594319E-016));
#493=DIRECTION('',(-0.447213595499957,0.894427190999916,-3.457486E-016));
#494=AXIS2_PLACEMENT_3D('',#491,#492,#493);
#495=PLANE('',#494);
#496=CARTESIAN_POINT('',(0.500000000000001,2.5,-1.110223E-016));
#497=VERTEX_POINT('',#496);
#498=CARTESIAN_POINT('',(1.5,0.499999999999999,1.221245E-015));
#499=DIRECTION('',(-0.447213595499957,0.894427190999916,-5.836501E-016));
#500=VECTOR('',#499,2.23606797749979);
#501=LINE('',#498,#500);
#502=EDGE_CURVE('',#466,#497,#501,.T.);
#503=ORIENTED_EDGE('',*,*,#502,.T.);
#504=CARTESIAN_POINT('',(0.500000000000001,2.5,0.188));
#505=VERTEX_POINT('',#504);
#506=CARTESIAN_POINT('',(0.500000000000001,2.5,0.188));
#507=DIRECTION('',(0.0,0.0,-1.0));
#508=VECTOR('',#507,0.188);
#509=LINE('',#506,#508);
#510=EDGE_CURVE('',#505,#497,#509,.T.);
#511=ORIENTED_EDGE('',*,*,#510,.F.);
#512=CARTESIAN_POINT('',(1.5,0.499999999999999,0.188000000000001));
#513=DIRECTION('',(-0.447213595499957,0.894427190999916,-5.833955E-016));
#514=VECTOR('',#513,2.23606797749979);
#515=LINE('',#512,#514);
#516=EDGE_CURVE('',#474,#505,#515,.T.);
#517=ORIENTED_EDGE('',*,*,#516,.F.);
#518=ORIENTED_EDGE('',*,*,#479,.T.);
#519=EDGE_LOOP('',(#503,#511,#517,#518));
#520=FACE_OUTER_BOUND('',#519,.T.);
#521=ADVANCED_FACE('',(#520),#495,.T.);
#522=CARTESIAN_POINT('',(0.500000000000001,2.5,0.188));
#523=DIRECTION('',(0.0,1.0,0.0));
#524=DIRECTION('',(0.0,0.0,1.0));
#525=AXIS2_PLACEMENT_3D('',#522,#523,#524);
#526=PLANE('',#525);
#527=CARTESIAN_POINT('',(0.500000000000001,2.5,-1.110223E-016));
#528=DIRECTION('',(-1.0,0.0,0.0));
#529=VECTOR('',#528,1.0);
#530=LINE('',#527,#529);
#531=EDGE_CURVE('',#497,#395,#530,.T.);
#532=ORIENTED_EDGE('',*,*,#531,.T.);
#533=ORIENTED_EDGE('',*,*,#424,.F.);
#534=CARTESIAN_POINT('',(0.500000000000001,2.5,0.188));
#535=DIRECTION('',(-1.0,0.0,0.0));
#536=VECTOR('',#535,1.0);
#537=LINE('',#534,#536);
#538=EDGE_CURVE('',#505,#413,#537,.T.);
#539=ORIENTED_EDGE('',*,*,#538,.F.);
#540=ORIENTED_EDGE('',*,*,#510,.T.);
#541=EDGE_LOOP('',(#532,#533,#539,#540));
#542=FACE_OUTER_BOUND('',#541,.T.);
#543=ADVANCED_FACE('',(#542),#526,.T.);
#544=CARTESIAN_POINT('',(0.5,0.899999999999999,0.188));
#545=DIRECTION('',(0.0,0.0,-1.0));
#546=DIRECTION('',(0.0,1.0,0.0));
#547=AXIS2_PLACEMENT_3D('',#544,#545,#546);
#548=PLANE('',#547);
#549=ORIENTED_EDGE('',*,*,#538,.T.);
#550=ORIENTED_EDGE('',*,*,#418,.T.);
#551=ORIENTED_EDGE('',*,*,#454,.T.);
#552=ORIENTED_EDGE('',*,*,#485,.T.);
#553=ORIENTED_EDGE('',*,*,#516,.T.);
#554=EDGE_LOOP('',(#549,#550,#551,#552,#553));
#555=FACE_OUTER_BOUND('',#554,.T.);
#556=ORIENTED_EDGE('',*,*,#304,.T.);
#557=ORIENTED_EDGE('',*,*,#288,.T.);
#558=EDGE_LOOP('',(#556,#557));
#559=FACE_BOUND('',#558,.T.);
#560=ORIENTED_EDGE('',*,*,#328,.T.);
#561=ORIENTED_EDGE('',*,*,#246,.T.);
#562=EDGE_LOOP('',(#560,#561));
#563=FACE_BOUND('',#562,.T.);
#564=ORIENTED_EDGE('',*,*,#352,.T.);
#565=ORIENTED_EDGE('',*,*,#204,.T.);
#566=EDGE_LOOP('',(#564,#565));
#567=FACE_BOUND('',#566,.T.);
#568=ORIENTED_EDGE('',*,*,#376,.T.);
#569=ORIENTED_EDGE('',*,*,#162,.T.);
#570=EDGE_LOOP('',(#568,#569));
#571=FACE_BOUND('',#570,.T.);
#572=ADVANCED_FACE('',(#555,#559,#563,#567,#571),#548,.F.);
#573=CARTESIAN_POINT('',(-0.499999999999999,2.5,-1.054712E-015));
#574=DIRECTION('',(0.0,0.0,-1.0));
#575=DIRECTION('',(0.0,1.0,0.0));
#576=AXIS2_PLACEMENT_3D('',#573,#574,#575);
#577=PLANE('',#576);
#578=ORIENTED_EDGE('',*,*,#402,.F.);
#579=ORIENTED_EDGE('',*,*,#531,.F.);
#580=ORIENTED_EDGE('',*,*,#502,.F.);
#581=ORIENTED_EDGE('',*,*,#471,.F.);
#582=ORIENTED_EDGE('',*,*,#440,.F.);
#583=EDGE_LOOP('',(#578,#579,#580,#581,#582));
#584=FACE_OUTER_BOUND('',#583,.T.);
#585=ORIENTED_EDGE('',*,*,#312,.T.);
#586=ORIENTED_EDGE('',*,*,#273,.T.);
#587=EDGE_LOOP('',(#585,#586));
#588=FACE_BOUND('',#587,.T.);
#589=ORIENTED_EDGE('',*,*,#336,.T.);
#590=ORIENTED_EDGE('',*,*,#231,.T.);
#591=EDGE_LOOP('',(#589,#590));
#592=FACE_BOUND('',#591,.T.);
#593=ORIENTED_EDGE('',*,*,#360,.T.);
#594=ORIENTED_EDGE('',*,*,#189,.T.);
#595=EDGE_LOOP('',(#593,#594));
#596=FACE_BOUND('',#595,.T.);
#597=ORIENTED_EDGE('',*,*,#384,.T.);
#598=ORIENTED_EDGE('',*,*,#147,.T.);
#599=EDGE_LOOP('',(#597,#598));
#600=FACE_BOUND('',#599,.T.);
#601=ADVANCED_FACE('',(#584,#588,#592,#596,#600),#577,.T.);
#602=CLOSED_SHELL('',(#166,#208,#250,#292,#316,#340,#364,#388,#428,#459,#490,#521,#543,#572,#601));
#603=MANIFOLD_SOLID_BREP('2C',#602);
#604=ADVANCED_BREP_SHAPE_REPRESENTATION('ABSR1',(#603),#28);
#605=SHAPE_REPRESENTATION_RELATIONSHIP('SRRPL1','',#604,#122);
ENDSEC;
END-ISO-10303-21;
