ISO-10303-21;
HEADER;
/****************************************************************
 * Generated by software with PDElib inside                    *
 * PDElib Version v51a, created Fri 09/10/2010                  *
 * ITI Transcendata (http://www.transcendata.com/)              *
 ****************************************************************/
FILE_DESCRIPTION((''),'2;1');
FILE_NAME('10HI8312.stp','2015-07-07T14:57:21',(''),(''),'Mechanical Desktop 2011','Mechanical Desktop 2011',', , ');
FILE_SCHEMA(('CONFIG_CONTROL_DESIGN'));
ENDSEC;
DATA;
#10=(NAMED_UNIT(*)PLANE_ANGLE_UNIT()SI_UNIT($,.RADIAN.));
#11=DIMENSIONAL_EXPONENTS(0.0,0.0,0.0,0.0,0.0,0.0,0.0);
#12=PLANE_ANGLE_MEASURE_WITH_UNIT(PLANE_ANGLE_MEASURE(0.0174532925),#10);
#16=(CONVERSION_BASED_UNIT('DEGREE',#12)NAMED_UNIT(#11)PLANE_ANGLE_UNIT());
#20=(NAMED_UNIT(*)SI_UNIT($,.STERADIAN.)SOLID_ANGLE_UNIT());
#24=(LENGTH_UNIT()NAMED_UNIT(*)SI_UNIT(.MILLI.,.METRE.));
#26=UNCERTAINTY_MEASURE_WITH_UNIT(LENGTH_MEASURE(0.000001),#24,'DISTANCE_ACCURACY_VALUE','');
#28=(GEOMETRIC_REPRESENTATION_CONTEXT(3)GLOBAL_UNCERTAINTY_ASSIGNED_CONTEXT((#26))GLOBAL_UNIT_ASSIGNED_CONTEXT((#16,#20,#24))REPRESENTATION_CONTEXT('','3D'));
#29=APPLICATION_CONTEXT('CONFIGURATION CONTROLLED 3D DESIGNS OF MECHANICAL PARTS AND ASSEMBLIES');
#30=APPLICATION_PROTOCOL_DEFINITION('INTERNATIONAL STANDARD','config_control_design',1995,#29);
#31=MECHANICAL_CONTEXT('3D Mechanical Parts',#29,'mechanical');
#32=PRODUCT('Product','Product',' ',(#31));
#33=PRODUCT_RELATED_PRODUCT_CATEGORY('detail',$,(#32));
#34=PRODUCT_CATEGORY('part',$);
#35=PRODUCT_CATEGORY_RELATIONSHIP('None','None',#34,#33);
#36=PERSON('1','Design','Joe',$,$,$);
#37=ORGANIZATION($,'None','None');
#38=PERSON_AND_ORGANIZATION(#36,#37);
#39=PERSON_AND_ORGANIZATION_ROLE('design_owner');
#40=CC_DESIGN_PERSON_AND_ORGANIZATION_ASSIGNMENT(#38,#39,(#32));
#41=PRODUCT_DEFINITION_FORMATION_WITH_SPECIFIED_SOURCE('None','None',#32,.BOUGHT.);
#42=PERSON('2','Creator','Joe',$,$,$);
#43=ORGANIZATION($,'None','None');
#44=PERSON_AND_ORGANIZATION(#42,#43);
#45=PERSON_AND_ORGANIZATION_ROLE('creator');
#46=CC_DESIGN_PERSON_AND_ORGANIZATION_ASSIGNMENT(#44,#45,(#41));
#47=PERSON('3','Supplier','Joe',$,$,$);
#48=ORGANIZATION($,'None','None');
#49=PERSON_AND_ORGANIZATION(#47,#48);
#50=PERSON_AND_ORGANIZATION_ROLE('design_supplier');
#51=CC_DESIGN_PERSON_AND_ORGANIZATION_ASSIGNMENT(#49,#50,(#41));
#52=APPROVAL_STATUS('approved');
#53=APPROVAL(#52,'None');
#54=PERSON('4','Approver','Joe',$,$,$);
#55=ORGANIZATION($,'None','None');
#56=PERSON_AND_ORGANIZATION(#54,#55);
#57=APPROVAL_ROLE('approver');
#58=APPROVAL_PERSON_ORGANIZATION(#56,#53,#57);
#59=COORDINATED_UNIVERSAL_TIME_OFFSET(8,$,.EXACT.);
#60=CALENDAR_DATE(1996,29,5);
#61=LOCAL_TIME(12,0,0.0,#59);
#62=DATE_AND_TIME(#60,#61);
#63=APPROVAL_DATE_TIME(#62,#53);
#64=CC_DESIGN_APPROVAL(#53,(#41));
#65=SECURITY_CLASSIFICATION_LEVEL('unclassified');
#66=SECURITY_CLASSIFICATION('security','None',#65);
#67=CC_DESIGN_SECURITY_CLASSIFICATION(#66,(#41));
#68=APPROVAL_STATUS('approved');
#69=APPROVAL(#68,'None');
#70=PERSON('5','Approver','Joe',$,$,$);
#71=ORGANIZATION($,'None','None');
#72=PERSON_AND_ORGANIZATION(#70,#71);
#73=APPROVAL_ROLE('approver');
#74=APPROVAL_PERSON_ORGANIZATION(#72,#69,#73);
#75=COORDINATED_UNIVERSAL_TIME_OFFSET(8,$,.EXACT.);
#76=CALENDAR_DATE(1996,29,5);
#77=LOCAL_TIME(12,0,0.0,#75);
#78=DATE_AND_TIME(#76,#77);
#79=APPROVAL_DATE_TIME(#78,#69);
#80=CC_DESIGN_APPROVAL(#69,(#66));
#81=PERSON('6','Classifier','Joe',$,$,$);
#82=ORGANIZATION($,'None','None');
#83=PERSON_AND_ORGANIZATION(#81,#82);
#84=PERSON_AND_ORGANIZATION_ROLE('classification_officer');
#85=CC_DESIGN_PERSON_AND_ORGANIZATION_ASSIGNMENT(#83,#84,(#66));
#86=COORDINATED_UNIVERSAL_TIME_OFFSET(8,$,.EXACT.);
#87=CALENDAR_DATE(1996,29,5);
#88=LOCAL_TIME(12,0,0.0,#86);
#89=DATE_AND_TIME(#87,#88);
#90=DATE_TIME_ROLE('classification_date');
#91=CC_DESIGN_DATE_AND_TIME_ASSIGNMENT(#89,#90,(#66));
#92=DESIGN_CONTEXT('Design Context',#29,'design');
#93=PRODUCT_DEFINITION('None','None',#41,#92);
#94=PERSON('7','Creator','Joe',$,$,$);
#95=ORGANIZATION($,'None','None');
#96=PERSON_AND_ORGANIZATION(#94,#95);
#97=PERSON_AND_ORGANIZATION_ROLE('creator');
#98=CC_DESIGN_PERSON_AND_ORGANIZATION_ASSIGNMENT(#96,#97,(#93));
#99=COORDINATED_UNIVERSAL_TIME_OFFSET(8,$,.EXACT.);
#100=CALENDAR_DATE(1996,29,5);
#101=LOCAL_TIME(12,0,0.0,#99);
#102=DATE_AND_TIME(#100,#101);
#103=DATE_TIME_ROLE('creation_date');
#104=CC_DESIGN_DATE_AND_TIME_ASSIGNMENT(#102,#103,(#93));
#105=APPROVAL_STATUS('approved');
#106=APPROVAL(#105,'None');
#107=PERSON('8','Approver','Joe',$,$,$);
#108=ORGANIZATION($,'None','None');
#109=PERSON_AND_ORGANIZATION(#107,#108);
#110=APPROVAL_ROLE('approver');
#111=APPROVAL_PERSON_ORGANIZATION(#109,#106,#110);
#112=COORDINATED_UNIVERSAL_TIME_OFFSET(8,$,.EXACT.);
#113=CALENDAR_DATE(1996,29,5);
#114=LOCAL_TIME(12,0,0.0,#112);
#115=DATE_AND_TIME(#113,#114);
#116=APPROVAL_DATE_TIME(#115,#106);
#117=CC_DESIGN_APPROVAL(#106,(#93));
#118=CARTESIAN_POINT('NONE',(0.0,0.0,0.0));
#119=DIRECTION('NONE',(0.0,0.0,1.0));
#120=DIRECTION('NONE',(1.0,0.0,0.0));
#121=AXIS2_PLACEMENT_3D('NONE',#118,#119,#120);
#122=SHAPE_REPRESENTATION('SR1',(#121),#28);
#123=PRODUCT_DEFINITION_SHAPE('PDS1','Test Part',#93);
#124=SHAPE_DEFINITION_REPRESENTATION(#123,#122);
#125=CARTESIAN_POINT('',(-2.220446E-016,0.5,1.5));
#126=DIRECTION('',(2.220446E-016,-1.0,6.123032E-017));
#127=DIRECTION('',(-1.0,0.0,0.0));
#128=AXIS2_PLACEMENT_3D('',#125,#126,#127);
#129=CYLINDRICAL_SURFACE('',#128,0.14);
#130=CARTESIAN_POINT('',(-0.14,0.5,1.5));
#131=VERTEX_POINT('',#130);
#132=CARTESIAN_POINT('',(-0.14,0.312,1.5));
#133=VERTEX_POINT('',#132);
#134=CARTESIAN_POINT('',(-0.14,0.5,1.5));
#135=DIRECTION('',(0.0,-1.0,0.0));
#136=VECTOR('',#135,0.188);
#137=LINE('',#134,#136);
#138=EDGE_CURVE('',#131,#133,#137,.T.);
#139=ORIENTED_EDGE('',*,*,#138,.F.);
#140=CARTESIAN_POINT('',(0.14,0.5,1.5));
#141=VERTEX_POINT('',#140);
#142=CARTESIAN_POINT('',(-2.220446E-016,0.5,1.5));
#143=DIRECTION('',(0.0,-1.0,0.0));
#144=DIRECTION('',(-1.0,0.0,0.0));
#145=AXIS2_PLACEMENT_3D('',#142,#143,#144);
#146=CIRCLE('',#145,0.14);
#147=EDGE_CURVE('',#141,#131,#146,.T.);
#148=ORIENTED_EDGE('',*,*,#147,.F.);
#149=CARTESIAN_POINT('',(0.14,0.312,1.5));
#150=VERTEX_POINT('',#149);
#151=CARTESIAN_POINT('',(0.14,0.5,1.5));
#152=DIRECTION('',(0.0,-1.0,0.0));
#153=VECTOR('',#152,0.188);
#154=LINE('',#151,#153);
#155=EDGE_CURVE('',#141,#150,#154,.T.);
#156=ORIENTED_EDGE('',*,*,#155,.T.);
#157=CARTESIAN_POINT('',(-0.103749698794744,0.312,1.594));
#158=VERTEX_POINT('',#157);
#159=CARTESIAN_POINT('',(-2.220446E-016,0.312,1.5));
#160=DIRECTION('',(0.0,1.0,0.0));
#161=DIRECTION('',(-1.0,0.0,0.0));
#162=AXIS2_PLACEMENT_3D('',#159,#160,#161);
#163=CIRCLE('',#162,0.14);
#164=EDGE_CURVE('',#158,#150,#163,.T.);
#165=ORIENTED_EDGE('',*,*,#164,.F.);
#166=CARTESIAN_POINT('',(-2.220446E-016,0.312,1.5));
#167=DIRECTION('',(0.0,1.0,0.0));
#168=DIRECTION('',(-1.0,0.0,0.0));
#169=AXIS2_PLACEMENT_3D('',#166,#167,#168);
#170=CIRCLE('',#169,0.14);
#171=EDGE_CURVE('',#133,#158,#170,.T.);
#172=ORIENTED_EDGE('',*,*,#171,.F.);
#173=EDGE_LOOP('',(#139,#148,#156,#165,#172));
#174=FACE_OUTER_BOUND('',#173,.T.);
#175=ADVANCED_FACE('',(#174),#129,.F.);
#176=CARTESIAN_POINT('',(0.0,0.5,0.5));
#177=DIRECTION('',(2.220446E-016,-1.0,6.123032E-017));
#178=DIRECTION('',(-1.0,0.0,0.0));
#179=AXIS2_PLACEMENT_3D('',#176,#177,#178);
#180=CYLINDRICAL_SURFACE('',#179,0.14);
#181=CARTESIAN_POINT('',(-0.14,0.5,0.5));
#182=VERTEX_POINT('',#181);
#183=CARTESIAN_POINT('',(-0.14,0.312,0.5));
#184=VERTEX_POINT('',#183);
#185=CARTESIAN_POINT('',(-0.14,0.5,0.5));
#186=DIRECTION('',(0.0,-1.0,0.0));
#187=VECTOR('',#186,0.188);
#188=LINE('',#185,#187);
#189=EDGE_CURVE('',#182,#184,#188,.T.);
#190=ORIENTED_EDGE('',*,*,#189,.F.);
#191=CARTESIAN_POINT('',(0.14,0.5,0.5));
#192=VERTEX_POINT('',#191);
#193=CARTESIAN_POINT('',(0.0,0.5,0.5));
#194=DIRECTION('',(0.0,-1.0,0.0));
#195=DIRECTION('',(-1.0,0.0,0.0));
#196=AXIS2_PLACEMENT_3D('',#193,#194,#195);
#197=CIRCLE('',#196,0.14);
#198=EDGE_CURVE('',#192,#182,#197,.T.);
#199=ORIENTED_EDGE('',*,*,#198,.F.);
#200=CARTESIAN_POINT('',(0.14,0.312,0.5));
#201=VERTEX_POINT('',#200);
#202=CARTESIAN_POINT('',(0.14,0.5,0.5));
#203=DIRECTION('',(0.0,-1.0,0.0));
#204=VECTOR('',#203,0.188);
#205=LINE('',#202,#204);
#206=EDGE_CURVE('',#192,#201,#205,.T.);
#207=ORIENTED_EDGE('',*,*,#206,.T.);
#208=CARTESIAN_POINT('',(-0.103749698794744,0.312,0.594));
#209=VERTEX_POINT('',#208);
#210=CARTESIAN_POINT('',(0.0,0.312,0.5));
#211=DIRECTION('',(0.0,1.0,0.0));
#212=DIRECTION('',(-1.0,0.0,0.0));
#213=AXIS2_PLACEMENT_3D('',#210,#211,#212);
#214=CIRCLE('',#213,0.14);
#215=EDGE_CURVE('',#209,#201,#214,.T.);
#216=ORIENTED_EDGE('',*,*,#215,.F.);
#217=CARTESIAN_POINT('',(0.0,0.312,0.5));
#218=DIRECTION('',(0.0,1.0,0.0));
#219=DIRECTION('',(-1.0,0.0,0.0));
#220=AXIS2_PLACEMENT_3D('',#217,#218,#219);
#221=CIRCLE('',#220,0.14);
#222=EDGE_CURVE('',#184,#209,#221,.T.);
#223=ORIENTED_EDGE('',*,*,#222,.F.);
#224=EDGE_LOOP('',(#190,#199,#207,#216,#223));
#225=FACE_OUTER_BOUND('',#224,.T.);
#226=ADVANCED_FACE('',(#225),#180,.F.);
#227=CARTESIAN_POINT('',(0.0,0.0,0.0));
#228=DIRECTION('',(-9.958397E-017,-3.088440E-016,1.0));
#229=DIRECTION('',(-1.0,0.0,0.0));
#230=AXIS2_PLACEMENT_3D('',#227,#228,#229);
#231=CYLINDRICAL_SURFACE('',#230,0.14);
#232=CARTESIAN_POINT('',(-0.14,0.0,0.0));
#233=VERTEX_POINT('',#232);
#234=CARTESIAN_POINT('',(-0.14,-8.914892E-017,0.188));
#235=VERTEX_POINT('',#234);
#236=CARTESIAN_POINT('',(-0.14,-3.108624E-017,0.0));
#237=DIRECTION('',(0.0,0.0,1.0));
#238=VECTOR('',#237,0.188);
#239=LINE('',#236,#238);
#240=EDGE_CURVE('',#233,#235,#239,.T.);
#241=ORIENTED_EDGE('',*,*,#240,.F.);
#242=CARTESIAN_POINT('',(0.14,4.823130E-017,1.394176E-017));
#243=VERTEX_POINT('',#242);
#244=CARTESIAN_POINT('',(0.0,0.0,0.0));
#245=DIRECTION('',(0.0,0.0,1.0));
#246=DIRECTION('',(-1.0,0.0,0.0));
#247=AXIS2_PLACEMENT_3D('',#244,#245,#246);
#248=CIRCLE('',#247,0.14);
#249=EDGE_CURVE('',#243,#233,#248,.T.);
#250=ORIENTED_EDGE('',*,*,#249,.F.);
#251=CARTESIAN_POINT('',(0.14,-9.831377E-018,0.188));
#252=VERTEX_POINT('',#251);
#253=CARTESIAN_POINT('',(0.14,4.823130E-017,1.394176E-017));
#254=DIRECTION('',(0.0,0.0,1.0));
#255=VECTOR('',#254,0.188);
#256=LINE('',#253,#255);
#257=EDGE_CURVE('',#243,#252,#256,.T.);
#258=ORIENTED_EDGE('',*,*,#257,.T.);
#259=CARTESIAN_POINT('',(0.0,-1.110223E-016,0.188));
#260=DIRECTION('',(0.0,0.0,-1.0));
#261=DIRECTION('',(-1.0,0.0,0.0));
#262=AXIS2_PLACEMENT_3D('',#259,#260,#261);
#263=CIRCLE('',#262,0.14);
#264=EDGE_CURVE('',#235,#252,#263,.T.);
#265=ORIENTED_EDGE('',*,*,#264,.F.);
#266=EDGE_LOOP('',(#241,#250,#258,#265));
#267=FACE_OUTER_BOUND('',#266,.T.);
#268=ADVANCED_FACE('',(#267),#231,.F.);
#269=CARTESIAN_POINT('',(0.0575,0.46875,1.96875));
#270=DIRECTION('',(-1.0,0.0,0.0));
#271=DIRECTION('',(0.0,0.707106781186548,0.707106781186548));
#272=AXIS2_PLACEMENT_3D('',#269,#270,#271);
#273=CYLINDRICAL_SURFACE('',#272,0.03125);
#274=CARTESIAN_POINT('',(-0.495,0.5,1.96875));
#275=VERTEX_POINT('',#274);
#276=CARTESIAN_POINT('',(-0.495,0.46875,2.0));
#277=VERTEX_POINT('',#276);
#278=CARTESIAN_POINT('',(-0.495,0.46875,1.96875));
#279=DIRECTION('',(1.0,0.0,0.0));
#280=DIRECTION('',(0.0,0.707106781186548,0.707106781186548));
#281=AXIS2_PLACEMENT_3D('',#278,#279,#280);
#282=CIRCLE('',#281,0.03125);
#283=EDGE_CURVE('',#275,#277,#282,.T.);
#284=ORIENTED_EDGE('',*,*,#283,.T.);
#285=CARTESIAN_POINT('',(0.495,0.46875,2.0));
#286=VERTEX_POINT('',#285);
#287=CARTESIAN_POINT('',(-0.495,0.46875,2.0));
#288=DIRECTION('',(1.0,0.0,0.0));
#289=VECTOR('',#288,0.99);
#290=LINE('',#287,#289);
#291=EDGE_CURVE('',#277,#286,#290,.T.);
#292=ORIENTED_EDGE('',*,*,#291,.T.);
#293=CARTESIAN_POINT('',(0.495,0.5,1.96875));
#294=VERTEX_POINT('',#293);
#295=CARTESIAN_POINT('',(0.495,0.46875,1.96875));
#296=DIRECTION('',(-1.0,0.0,0.0));
#297=DIRECTION('',(0.0,0.707106781186548,0.707106781186548));
#298=AXIS2_PLACEMENT_3D('',#295,#296,#297);
#299=CIRCLE('',#298,0.03125);
#300=EDGE_CURVE('',#286,#294,#299,.T.);
#301=ORIENTED_EDGE('',*,*,#300,.T.);
#302=CARTESIAN_POINT('',(0.495,0.5,1.96875));
#303=DIRECTION('',(-1.0,0.0,0.0));
#304=VECTOR('',#303,0.99);
#305=LINE('',#302,#304);
#306=EDGE_CURVE('',#294,#275,#305,.T.);
#307=ORIENTED_EDGE('',*,*,#306,.T.);
#308=EDGE_LOOP('',(#284,#292,#301,#307));
#309=FACE_OUTER_BOUND('',#308,.T.);
#310=ADVANCED_FACE('',(#309),#273,.T.);
#311=CARTESIAN_POINT('',(0.0575,0.5,1.906));
#312=DIRECTION('',(0.0,-1.0,0.0));
#313=DIRECTION('',(0.0,0.0,-1.0));
#314=AXIS2_PLACEMENT_3D('',#311,#312,#313);
#315=PLANE('',#314);
#316=ORIENTED_EDGE('',*,*,#306,.F.);
#317=CARTESIAN_POINT('',(0.495,0.5,1.110223E-016));
#318=VERTEX_POINT('',#317);
#319=CARTESIAN_POINT('',(0.495,0.5,1.96875));
#320=DIRECTION('',(0.0,0.0,-1.0));
#321=VECTOR('',#320,1.96875);
#322=LINE('',#319,#321);
#323=EDGE_CURVE('',#294,#318,#322,.T.);
#324=ORIENTED_EDGE('',*,*,#323,.T.);
#325=CARTESIAN_POINT('',(-0.495,0.5,0.0));
#326=VERTEX_POINT('',#325);
#327=CARTESIAN_POINT('',(-0.495,0.5,0.0));
#328=DIRECTION('',(1.0,0.0,0.0));
#329=VECTOR('',#328,0.99);
#330=LINE('',#327,#329);
#331=EDGE_CURVE('',#326,#318,#330,.T.);
#332=ORIENTED_EDGE('',*,*,#331,.F.);
#333=CARTESIAN_POINT('',(-0.495,0.5,0.0));
#334=DIRECTION('',(0.0,0.0,1.0));
#335=VECTOR('',#334,1.96875);
#336=LINE('',#333,#335);
#337=EDGE_CURVE('',#326,#275,#336,.T.);
#338=ORIENTED_EDGE('',*,*,#337,.T.);
#339=EDGE_LOOP('',(#316,#324,#332,#338));
#340=FACE_OUTER_BOUND('',#339,.T.);
#341=CARTESIAN_POINT('',(0.0,0.5,0.5));
#342=DIRECTION('',(0.0,-1.0,0.0));
#343=DIRECTION('',(-1.0,0.0,0.0));
#344=AXIS2_PLACEMENT_3D('',#341,#342,#343);
#345=CIRCLE('',#344,0.14);
#346=EDGE_CURVE('',#182,#192,#345,.T.);
#347=ORIENTED_EDGE('',*,*,#346,.T.);
#348=ORIENTED_EDGE('',*,*,#198,.T.);
#349=EDGE_LOOP('',(#347,#348));
#350=FACE_BOUND('',#349,.T.);
#351=CARTESIAN_POINT('',(-2.220446E-016,0.5,1.5));
#352=DIRECTION('',(0.0,-1.0,0.0));
#353=DIRECTION('',(-1.0,0.0,0.0));
#354=AXIS2_PLACEMENT_3D('',#351,#352,#353);
#355=CIRCLE('',#354,0.14);
#356=EDGE_CURVE('',#131,#141,#355,.T.);
#357=ORIENTED_EDGE('',*,*,#356,.T.);
#358=ORIENTED_EDGE('',*,*,#147,.T.);
#359=EDGE_LOOP('',(#357,#358));
#360=FACE_BOUND('',#359,.T.);
#361=ADVANCED_FACE('',(#340,#350,#360),#315,.F.);
#362=CARTESIAN_POINT('',(0.495,0.406,1.906));
#363=DIRECTION('',(-1.0,0.0,0.0));
#364=DIRECTION('',(0.0,0.0,1.0));
#365=AXIS2_PLACEMENT_3D('',#362,#363,#364);
#366=PLANE('',#365);
#367=ORIENTED_EDGE('',*,*,#300,.F.);
#368=CARTESIAN_POINT('',(0.495,0.343249999999999,2.0));
#369=VERTEX_POINT('',#368);
#370=CARTESIAN_POINT('',(0.495,0.343249999999999,2.0));
#371=DIRECTION('',(0.0,1.0,0.0));
#372=VECTOR('',#371,0.125500000000001);
#373=LINE('',#370,#372);
#374=EDGE_CURVE('',#369,#286,#373,.T.);
#375=ORIENTED_EDGE('',*,*,#374,.F.);
#376=CARTESIAN_POINT('',(0.495,0.311999999999999,1.96875));
#377=VERTEX_POINT('',#376);
#378=CARTESIAN_POINT('',(0.495,0.343249999999999,1.96875));
#379=DIRECTION('',(-1.0,0.0,0.0));
#380=DIRECTION('',(0.0,-0.707106781186548,0.707106781186548));
#381=AXIS2_PLACEMENT_3D('',#378,#379,#380);
#382=CIRCLE('',#381,0.03125);
#383=EDGE_CURVE('',#377,#369,#382,.T.);
#384=ORIENTED_EDGE('',*,*,#383,.F.);
#385=CARTESIAN_POINT('',(0.495,0.312,0.188));
#386=VERTEX_POINT('',#385);
#387=CARTESIAN_POINT('',(0.495,0.311999999999999,1.96875));
#388=DIRECTION('',(0.0,0.0,-1.0));
#389=VECTOR('',#388,1.78075);
#390=LINE('',#387,#389);
#391=EDGE_CURVE('',#377,#386,#390,.T.);
#392=ORIENTED_EDGE('',*,*,#391,.T.);
#393=CARTESIAN_POINT('',(0.495,-0.01,0.188));
#394=VERTEX_POINT('',#393);
#395=CARTESIAN_POINT('',(0.495,-0.01,0.188));
#396=DIRECTION('',(0.0,1.0,0.0));
#397=VECTOR('',#396,0.322);
#398=LINE('',#395,#397);
#399=EDGE_CURVE('',#394,#386,#398,.T.);
#400=ORIENTED_EDGE('',*,*,#399,.F.);
#401=CARTESIAN_POINT('',(0.495,-0.01,1.110223E-016));
#402=VERTEX_POINT('',#401);
#403=CARTESIAN_POINT('',(0.495,-0.01,1.110223E-016));
#404=DIRECTION('',(0.0,0.0,1.0));
#405=VECTOR('',#404,0.188);
#406=LINE('',#403,#405);
#407=EDGE_CURVE('',#402,#394,#406,.T.);
#408=ORIENTED_EDGE('',*,*,#407,.F.);
#409=CARTESIAN_POINT('',(0.495,0.5,1.110223E-016));
#410=DIRECTION('',(0.0,-1.0,0.0));
#411=VECTOR('',#410,0.51);
#412=LINE('',#409,#411);
#413=EDGE_CURVE('',#318,#402,#412,.T.);
#414=ORIENTED_EDGE('',*,*,#413,.F.);
#415=ORIENTED_EDGE('',*,*,#323,.F.);
#416=EDGE_LOOP('',(#367,#375,#384,#392,#400,#408,#414,#415));
#417=FACE_OUTER_BOUND('',#416,.T.);
#418=ADVANCED_FACE('',(#417),#366,.F.);
#419=CARTESIAN_POINT('',(0.0575,0.343249999999999,1.96875));
#420=DIRECTION('',(1.0,0.0,0.0));
#421=DIRECTION('',(0.0,-0.707106781186548,0.707106781186548));
#422=AXIS2_PLACEMENT_3D('',#419,#420,#421);
#423=CYLINDRICAL_SURFACE('',#422,0.03125);
#424=ORIENTED_EDGE('',*,*,#383,.T.);
#425=CARTESIAN_POINT('',(-0.495,0.343249999999999,2.0));
#426=VERTEX_POINT('',#425);
#427=CARTESIAN_POINT('',(0.495,0.343249999999999,2.0));
#428=DIRECTION('',(-1.0,0.0,0.0));
#429=VECTOR('',#428,0.99);
#430=LINE('',#427,#429);
#431=EDGE_CURVE('',#369,#426,#430,.T.);
#432=ORIENTED_EDGE('',*,*,#431,.T.);
#433=CARTESIAN_POINT('',(-0.495,0.312,1.96875));
#434=VERTEX_POINT('',#433);
#435=CARTESIAN_POINT('',(-0.495,0.343249999999999,1.96875));
#436=DIRECTION('',(1.0,0.0,0.0));
#437=DIRECTION('',(0.0,-0.707106781186548,0.707106781186548));
#438=AXIS2_PLACEMENT_3D('',#435,#436,#437);
#439=CIRCLE('',#438,0.03125);
#440=EDGE_CURVE('',#426,#434,#439,.T.);
#441=ORIENTED_EDGE('',*,*,#440,.T.);
#442=CARTESIAN_POINT('',(-0.495,0.311999999999999,1.96875));
#443=DIRECTION('',(1.0,0.0,0.0));
#444=VECTOR('',#443,0.99);
#445=LINE('',#442,#444);
#446=EDGE_CURVE('',#434,#377,#445,.T.);
#447=ORIENTED_EDGE('',*,*,#446,.T.);
#448=EDGE_LOOP('',(#424,#432,#441,#447));
#449=FACE_OUTER_BOUND('',#448,.T.);
#450=ADVANCED_FACE('',(#449),#423,.T.);
#451=CARTESIAN_POINT('',(0.0575,0.311999999999999,1.906));
#452=DIRECTION('',(0.0,1.0,0.0));
#453=DIRECTION('',(0.0,0.0,1.0));
#454=AXIS2_PLACEMENT_3D('',#451,#452,#453);
#455=PLANE('',#454);
#456=ORIENTED_EDGE('',*,*,#446,.F.);
#457=CARTESIAN_POINT('',(-0.495,0.312,0.188));
#458=VERTEX_POINT('',#457);
#459=CARTESIAN_POINT('',(-0.495,0.312,0.188));
#460=DIRECTION('',(0.0,0.0,1.0));
#461=VECTOR('',#460,1.78075);
#462=LINE('',#459,#461);
#463=EDGE_CURVE('',#458,#434,#462,.T.);
#464=ORIENTED_EDGE('',*,*,#463,.F.);
#465=CARTESIAN_POINT('',(-0.495,0.312,0.188));
#466=DIRECTION('',(1.0,0.0,0.0));
#467=VECTOR('',#466,0.99);
#468=LINE('',#465,#467);
#469=EDGE_CURVE('',#458,#386,#468,.T.);
#470=ORIENTED_EDGE('',*,*,#469,.T.);
#471=ORIENTED_EDGE('',*,*,#391,.F.);
#472=EDGE_LOOP('',(#456,#464,#470,#471));
#473=FACE_OUTER_BOUND('',#472,.T.);
#474=ORIENTED_EDGE('',*,*,#215,.T.);
#475=CARTESIAN_POINT('',(0.0,0.312,0.5));
#476=DIRECTION('',(0.0,1.0,0.0));
#477=DIRECTION('',(-1.0,0.0,0.0));
#478=AXIS2_PLACEMENT_3D('',#475,#476,#477);
#479=CIRCLE('',#478,0.14);
#480=EDGE_CURVE('',#201,#184,#479,.T.);
#481=ORIENTED_EDGE('',*,*,#480,.T.);
#482=ORIENTED_EDGE('',*,*,#222,.T.);
#483=EDGE_LOOP('',(#474,#481,#482));
#484=FACE_BOUND('',#483,.T.);
#485=ORIENTED_EDGE('',*,*,#164,.T.);
#486=CARTESIAN_POINT('',(-2.220446E-016,0.312,1.5));
#487=DIRECTION('',(0.0,1.0,0.0));
#488=DIRECTION('',(-1.0,0.0,0.0));
#489=AXIS2_PLACEMENT_3D('',#486,#487,#488);
#490=CIRCLE('',#489,0.14);
#491=EDGE_CURVE('',#150,#133,#490,.T.);
#492=ORIENTED_EDGE('',*,*,#491,.T.);
#493=ORIENTED_EDGE('',*,*,#171,.T.);
#494=EDGE_LOOP('',(#485,#492,#493));
#495=FACE_BOUND('',#494,.T.);
#496=ADVANCED_FACE('',(#473,#484,#495),#455,.F.);
#497=CARTESIAN_POINT('',(-0.495,0.406,1.906));
#498=DIRECTION('',(1.0,0.0,0.0));
#499=DIRECTION('',(0.0,0.0,-1.0));
#500=AXIS2_PLACEMENT_3D('',#497,#498,#499);
#501=PLANE('',#500);
#502=ORIENTED_EDGE('',*,*,#283,.F.);
#503=ORIENTED_EDGE('',*,*,#337,.F.);
#504=CARTESIAN_POINT('',(-0.495,-0.01,0.0));
#505=VERTEX_POINT('',#504);
#506=CARTESIAN_POINT('',(-0.495,0.5,0.0));
#507=DIRECTION('',(0.0,-1.0,0.0));
#508=VECTOR('',#507,0.51);
#509=LINE('',#506,#508);
#510=EDGE_CURVE('',#326,#505,#509,.T.);
#511=ORIENTED_EDGE('',*,*,#510,.T.);
#512=CARTESIAN_POINT('',(-0.495,-0.01,0.188));
#513=VERTEX_POINT('',#512);
#514=CARTESIAN_POINT('',(-0.495,-0.01,0.188));
#515=DIRECTION('',(0.0,0.0,-1.0));
#516=VECTOR('',#515,0.188);
#517=LINE('',#514,#516);
#518=EDGE_CURVE('',#513,#505,#517,.T.);
#519=ORIENTED_EDGE('',*,*,#518,.F.);
#520=CARTESIAN_POINT('',(-0.495,-0.01,0.188));
#521=DIRECTION('',(0.0,1.0,0.0));
#522=VECTOR('',#521,0.322);
#523=LINE('',#520,#522);
#524=EDGE_CURVE('',#513,#458,#523,.T.);
#525=ORIENTED_EDGE('',*,*,#524,.T.);
#526=ORIENTED_EDGE('',*,*,#463,.T.);
#527=ORIENTED_EDGE('',*,*,#440,.F.);
#528=CARTESIAN_POINT('',(-0.495,0.46875,2.0));
#529=DIRECTION('',(0.0,-1.0,0.0));
#530=VECTOR('',#529,0.125500000000001);
#531=LINE('',#528,#530);
#532=EDGE_CURVE('',#277,#426,#531,.T.);
#533=ORIENTED_EDGE('',*,*,#532,.F.);
#534=EDGE_LOOP('',(#502,#503,#511,#519,#525,#526,#527,#533));
#535=FACE_OUTER_BOUND('',#534,.T.);
#536=ADVANCED_FACE('',(#535),#501,.F.);
#537=CARTESIAN_POINT('',(-0.495,-0.5,0.188));
#538=DIRECTION('',(0.0,0.0,1.0));
#539=DIRECTION('',(0.0,1.0,0.0));
#540=AXIS2_PLACEMENT_3D('',#537,#538,#539);
#541=PLANE('',#540);
#542=ORIENTED_EDGE('',*,*,#524,.F.);
#543=CARTESIAN_POINT('',(-0.005,-0.5,0.188));
#544=VERTEX_POINT('',#543);
#545=CARTESIAN_POINT('',(-0.005,-0.01,0.188));
#546=DIRECTION('',(1.917683E-017,1.917683E-017,-1.0));
#547=DIRECTION('',(-0.707106781186548,-0.707106781186548,-2.712013E-017));
#548=AXIS2_PLACEMENT_3D('',#545,#546,#547);
#549=CIRCLE('',#548,0.49);
#550=EDGE_CURVE('',#544,#513,#549,.T.);
#551=ORIENTED_EDGE('',*,*,#550,.F.);
#552=CARTESIAN_POINT('',(0.005,-0.5,0.188));
#553=VERTEX_POINT('',#552);
#554=CARTESIAN_POINT('',(-0.005,-0.5,0.188));
#555=DIRECTION('',(1.0,0.0,0.0));
#556=VECTOR('',#555,0.01);
#557=LINE('',#554,#556);
#558=EDGE_CURVE('',#544,#553,#557,.T.);
#559=ORIENTED_EDGE('',*,*,#558,.T.);
#560=CARTESIAN_POINT('',(0.005,-0.01,0.188));
#561=DIRECTION('',(8.040714E-017,-8.040714E-017,-1.0));
#562=DIRECTION('',(0.707106781186548,-0.707106781186547,1.137129E-016));
#563=AXIS2_PLACEMENT_3D('',#560,#561,#562);
#564=CIRCLE('',#563,0.49);
#565=EDGE_CURVE('',#394,#553,#564,.T.);
#566=ORIENTED_EDGE('',*,*,#565,.F.);
#567=ORIENTED_EDGE('',*,*,#399,.T.);
#568=ORIENTED_EDGE('',*,*,#469,.F.);
#569=EDGE_LOOP('',(#542,#551,#559,#566,#567,#568));
#570=FACE_OUTER_BOUND('',#569,.T.);
#571=CARTESIAN_POINT('',(-0.103749698794743,-0.094,0.188));
#572=VERTEX_POINT('',#571);
#573=CARTESIAN_POINT('',(0.0,-1.110223E-016,0.188));
#574=DIRECTION('',(0.0,0.0,-1.0));
#575=DIRECTION('',(-1.0,0.0,0.0));
#576=AXIS2_PLACEMENT_3D('',#573,#574,#575);
#577=CIRCLE('',#576,0.14);
#578=EDGE_CURVE('',#572,#235,#577,.T.);
#579=ORIENTED_EDGE('',*,*,#578,.T.);
#580=ORIENTED_EDGE('',*,*,#264,.T.);
#581=CARTESIAN_POINT('',(0.0,-1.110223E-016,0.188));
#582=DIRECTION('',(0.0,0.0,-1.0));
#583=DIRECTION('',(-1.0,0.0,0.0));
#584=AXIS2_PLACEMENT_3D('',#581,#582,#583);
#585=CIRCLE('',#584,0.14);
#586=EDGE_CURVE('',#252,#572,#585,.T.);
#587=ORIENTED_EDGE('',*,*,#586,.T.);
#588=EDGE_LOOP('',(#579,#580,#587));
#589=FACE_BOUND('',#588,.T.);
#590=ADVANCED_FACE('',(#570,#589),#541,.T.);
#591=CARTESIAN_POINT('',(0.0,0.0,0.0));
#592=DIRECTION('',(-9.958397E-017,-3.088440E-016,1.0));
#593=DIRECTION('',(-1.0,0.0,0.0));
#594=AXIS2_PLACEMENT_3D('',#591,#592,#593);
#595=CYLINDRICAL_SURFACE('',#594,0.14);
#596=ORIENTED_EDGE('',*,*,#240,.T.);
#597=ORIENTED_EDGE('',*,*,#578,.F.);
#598=ORIENTED_EDGE('',*,*,#586,.F.);
#599=ORIENTED_EDGE('',*,*,#257,.F.);
#600=CARTESIAN_POINT('',(0.0,0.0,0.0));
#601=DIRECTION('',(0.0,0.0,1.0));
#602=DIRECTION('',(-1.0,0.0,0.0));
#603=AXIS2_PLACEMENT_3D('',#600,#601,#602);
#604=CIRCLE('',#603,0.14);
#605=EDGE_CURVE('',#233,#243,#604,.T.);
#606=ORIENTED_EDGE('',*,*,#605,.F.);
#607=EDGE_LOOP('',(#596,#597,#598,#599,#606));
#608=FACE_OUTER_BOUND('',#607,.T.);
#609=ADVANCED_FACE('',(#608),#595,.F.);
#610=CARTESIAN_POINT('',(0.0,0.5,0.5));
#611=DIRECTION('',(2.220446E-016,-1.0,6.123032E-017));
#612=DIRECTION('',(-1.0,0.0,0.0));
#613=AXIS2_PLACEMENT_3D('',#610,#611,#612);
#614=CYLINDRICAL_SURFACE('',#613,0.14);
#615=ORIENTED_EDGE('',*,*,#189,.T.);
#616=ORIENTED_EDGE('',*,*,#480,.F.);
#617=ORIENTED_EDGE('',*,*,#206,.F.);
#618=ORIENTED_EDGE('',*,*,#346,.F.);
#619=EDGE_LOOP('',(#615,#616,#617,#618));
#620=FACE_OUTER_BOUND('',#619,.T.);
#621=ADVANCED_FACE('',(#620),#614,.F.);
#622=CARTESIAN_POINT('',(-2.220446E-016,0.5,1.5));
#623=DIRECTION('',(2.220446E-016,-1.0,6.123032E-017));
#624=DIRECTION('',(-1.0,0.0,0.0));
#625=AXIS2_PLACEMENT_3D('',#622,#623,#624);
#626=CYLINDRICAL_SURFACE('',#625,0.14);
#627=ORIENTED_EDGE('',*,*,#138,.T.);
#628=ORIENTED_EDGE('',*,*,#491,.F.);
#629=ORIENTED_EDGE('',*,*,#155,.F.);
#630=ORIENTED_EDGE('',*,*,#356,.F.);
#631=EDGE_LOOP('',(#627,#628,#629,#630));
#632=FACE_OUTER_BOUND('',#631,.T.);
#633=ADVANCED_FACE('',(#632),#626,.F.);
#634=CARTESIAN_POINT('',(0.005,-0.01,-1.110223E-016));
#635=DIRECTION('',(-9.958397E-017,6.123032E-017,1.0));
#636=DIRECTION('',(0.707106781186548,-0.707106781186547,1.137129E-016));
#637=AXIS2_PLACEMENT_3D('',#634,#635,#636);
#638=CYLINDRICAL_SURFACE('',#637,0.49);
#639=ORIENTED_EDGE('',*,*,#565,.T.);
#640=CARTESIAN_POINT('',(0.005,-0.5,-1.110223E-016));
#641=VERTEX_POINT('',#640);
#642=CARTESIAN_POINT('',(0.005,-0.5,0.188));
#643=DIRECTION('',(0.0,0.0,-1.0));
#644=VECTOR('',#643,0.188);
#645=LINE('',#642,#644);
#646=EDGE_CURVE('',#553,#641,#645,.T.);
#647=ORIENTED_EDGE('',*,*,#646,.T.);
#648=CARTESIAN_POINT('',(0.005,-0.01,1.110223E-016));
#649=DIRECTION('',(-8.040714E-017,8.040714E-017,1.0));
#650=DIRECTION('',(0.707106781186548,-0.707106781186547,1.137129E-016));
#651=AXIS2_PLACEMENT_3D('',#648,#649,#650);
#652=CIRCLE('',#651,0.49);
#653=EDGE_CURVE('',#641,#402,#652,.T.);
#654=ORIENTED_EDGE('',*,*,#653,.T.);
#655=ORIENTED_EDGE('',*,*,#407,.T.);
#656=EDGE_LOOP('',(#639,#647,#654,#655));
#657=FACE_OUTER_BOUND('',#656,.T.);
#658=ADVANCED_FACE('',(#657),#638,.T.);
#659=CARTESIAN_POINT('',(-0.495,-0.5,-1.110223E-016));
#660=DIRECTION('',(0.0,-1.0,0.0));
#661=DIRECTION('',(-1.0,0.0,0.0));
#662=AXIS2_PLACEMENT_3D('',#659,#660,#661);
#663=PLANE('',#662);
#664=ORIENTED_EDGE('',*,*,#646,.F.);
#665=ORIENTED_EDGE('',*,*,#558,.F.);
#666=CARTESIAN_POINT('',(-0.005,-0.5,-1.110223E-016));
#667=VERTEX_POINT('',#666);
#668=CARTESIAN_POINT('',(-0.005,-0.5,-1.110223E-016));
#669=DIRECTION('',(0.0,0.0,1.0));
#670=VECTOR('',#669,0.188);
#671=LINE('',#668,#670);
#672=EDGE_CURVE('',#667,#544,#671,.T.);
#673=ORIENTED_EDGE('',*,*,#672,.F.);
#674=CARTESIAN_POINT('',(-0.005,-0.5,-6.222616E-017));
#675=DIRECTION('',(1.0,0.0,0.0));
#676=VECTOR('',#675,0.01);
#677=LINE('',#674,#676);
#678=EDGE_CURVE('',#667,#641,#677,.T.);
#679=ORIENTED_EDGE('',*,*,#678,.T.);
#680=EDGE_LOOP('',(#664,#665,#673,#679));
#681=FACE_OUTER_BOUND('',#680,.T.);
#682=ADVANCED_FACE('',(#681),#663,.T.);
#683=CARTESIAN_POINT('',(-0.005,-0.01,0.364666666666667));
#684=DIRECTION('',(-9.958397E-017,6.123032E-017,1.0));
#685=DIRECTION('',(-0.707106781186548,-0.707106781186548,-2.712013E-017));
#686=AXIS2_PLACEMENT_3D('',#683,#684,#685);
#687=CYLINDRICAL_SURFACE('',#686,0.49);
#688=ORIENTED_EDGE('',*,*,#550,.T.);
#689=ORIENTED_EDGE('',*,*,#518,.T.);
#690=CARTESIAN_POINT('',(-0.005,-0.01,1.110223E-016));
#691=DIRECTION('',(-1.917683E-017,-1.917683E-017,1.0));
#692=DIRECTION('',(-0.707106781186548,-0.707106781186548,-2.712013E-017));
#693=AXIS2_PLACEMENT_3D('',#690,#691,#692);
#694=CIRCLE('',#693,0.49);
#695=EDGE_CURVE('',#505,#667,#694,.T.);
#696=ORIENTED_EDGE('',*,*,#695,.T.);
#697=ORIENTED_EDGE('',*,*,#672,.T.);
#698=EDGE_LOOP('',(#688,#689,#696,#697));
#699=FACE_OUTER_BOUND('',#698,.T.);
#700=ADVANCED_FACE('',(#699),#687,.T.);
#701=CARTESIAN_POINT('',(-0.495,0.5,0.0));
#702=DIRECTION('',(0.0,0.0,-1.0));
#703=DIRECTION('',(0.0,-1.0,0.0));
#704=AXIS2_PLACEMENT_3D('',#701,#702,#703);
#705=PLANE('',#704);
#706=ORIENTED_EDGE('',*,*,#653,.F.);
#707=ORIENTED_EDGE('',*,*,#678,.F.);
#708=ORIENTED_EDGE('',*,*,#695,.F.);
#709=ORIENTED_EDGE('',*,*,#510,.F.);
#710=ORIENTED_EDGE('',*,*,#331,.T.);
#711=ORIENTED_EDGE('',*,*,#413,.T.);
#712=EDGE_LOOP('',(#706,#707,#708,#709,#710,#711));
#713=FACE_OUTER_BOUND('',#712,.T.);
#714=ORIENTED_EDGE('',*,*,#605,.T.);
#715=ORIENTED_EDGE('',*,*,#249,.T.);
#716=EDGE_LOOP('',(#714,#715));
#717=FACE_BOUND('',#716,.T.);
#718=ADVANCED_FACE('',(#713,#717),#705,.T.);
#719=CARTESIAN_POINT('',(0.0575,0.406,2.0));
#720=DIRECTION('',(0.0,0.0,1.0));
#721=DIRECTION('',(1.0,0.0,0.0));
#722=AXIS2_PLACEMENT_3D('',#719,#720,#721);
#723=PLANE('',#722);
#724=ORIENTED_EDGE('',*,*,#291,.F.);
#725=ORIENTED_EDGE('',*,*,#532,.T.);
#726=ORIENTED_EDGE('',*,*,#431,.F.);
#727=ORIENTED_EDGE('',*,*,#374,.T.);
#728=EDGE_LOOP('',(#724,#725,#726,#727));
#729=FACE_OUTER_BOUND('',#728,.T.);
#730=ADVANCED_FACE('',(#729),#723,.T.);
#731=CLOSED_SHELL('',(#175,#226,#268,#310,#361,#418,#450,#496,#536,#590,#609,#621,#633,#658,#682,#700,#718,#730));
#732=MANIFOLD_SOLID_BREP('7C0',#731);
#733=ADVANCED_BREP_SHAPE_REPRESENTATION('ABSR1',(#732),#28);
#734=SHAPE_REPRESENTATION_RELATIONSHIP('SRRPL1','',#733,#122);
ENDSEC;
END-ISO-10303-21;
