ISO-10303-21;
HEADER;
/****************************************************************
 * Generated by software with PDElib inside                    *
 * PDElib Version v51a, created Fri 09/10/2010                  *
 * ITI Transcendata (http://www.transcendata.com/)              *
 ****************************************************************/
FILE_DESCRIPTION((''),'2;1');
FILE_NAME('10CB4221.stp','2015-07-07T13:22:08',(''),(''),'Mechanical Desktop 2011','Mechanical Desktop 2011',', , ');
FILE_SCHEMA(('AUTOMOTIVE_DESIGN { 1 2 10303 214 1 1 1 1 }'));
ENDSEC;
DATA;
#10=(NAMED_UNIT(*)PLANE_ANGLE_UNIT()SI_UNIT($,.RADIAN.));
#11=DIMENSIONAL_EXPONENTS(0.0,0.0,0.0,0.0,0.0,0.0,0.0);
#12=PLANE_ANGLE_MEASURE_WITH_UNIT(PLANE_ANGLE_MEASURE(0.0174532925),#10);
#16=(CONVERSION_BASED_UNIT('DEGREE',#12)NAMED_UNIT(#11)PLANE_ANGLE_UNIT());
#20=(NAMED_UNIT(*)SI_UNIT($,.STERADIAN.)SOLID_ANGLE_UNIT());
#24=(LENGTH_UNIT()NAMED_UNIT(*)SI_UNIT(.CENTI.,.METRE.));
#25=DIMENSIONAL_EXPONENTS(1.0,0.0,0.0,0.0,0.0,0.0,0.0);
#26=LENGTH_MEASURE_WITH_UNIT(LENGTH_MEASURE(2.54),#24);
#30=(CONVERSION_BASED_UNIT('INCH',#26)LENGTH_UNIT()NAMED_UNIT(#25));
#32=UNCERTAINTY_MEASURE_WITH_UNIT(LENGTH_MEASURE(0.000001),#30,'DISTANCE_ACCURACY_VALUE','');
#34=(GEOMETRIC_REPRESENTATION_CONTEXT(3)GLOBAL_UNCERTAINTY_ASSIGNED_CONTEXT((#32))GLOBAL_UNIT_ASSIGNED_CONTEXT((#16,#20,#30))REPRESENTATION_CONTEXT('','3D'));
#35=APPLICATION_CONTEXT('automotive design');
#36=APPLICATION_PROTOCOL_DEFINITION('INTERNATIONAL_STANDARD','automotive_design',1998,#35);
#37=PRODUCT_CONTEXT('3D Mechanical Parts',#35,'mechanical');
#38=PRODUCT('Product','Product','',(#37));
#39=PRODUCT_RELATED_PRODUCT_CATEGORY('part',$,(#38));
#40=PRODUCT_CATEGORY('part',$);
#41=PERSON('1','Design','Joe',$,$,$);
#42=ORGANIZATION($,'None','None');
#43=PERSON_AND_ORGANIZATION(#41,#42);
#44=PERSON_AND_ORGANIZATION_ROLE('design_owner');
#45=APPLIED_PERSON_AND_ORGANIZATION_ASSIGNMENT(#43,#44,(#38));
#46=PRODUCT_DEFINITION_FORMATION_WITH_SPECIFIED_SOURCE('None','',#38,.BOUGHT.);
#47=PERSON('2','Creator','Joe',$,$,$);
#48=ORGANIZATION($,'None','None');
#49=PERSON_AND_ORGANIZATION(#47,#48);
#50=PERSON_AND_ORGANIZATION_ROLE('creator');
#51=APPLIED_PERSON_AND_ORGANIZATION_ASSIGNMENT(#49,#50,(#46));
#52=PERSON('3','Supplier','Joe',$,$,$);
#53=ORGANIZATION($,'None','None');
#54=PERSON_AND_ORGANIZATION(#52,#53);
#55=PERSON_AND_ORGANIZATION_ROLE('design_supplier');
#56=APPLIED_PERSON_AND_ORGANIZATION_ASSIGNMENT(#54,#55,(#46));
#57=PRODUCT_DEFINITION_CONTEXT('part definition',#35,'design');
#58=PRODUCT_DEFINITION('None','',#46,#57);
#59=PERSON('4','Creator','Joe',$,$,$);
#60=ORGANIZATION($,'None','None');
#61=PERSON_AND_ORGANIZATION(#59,#60);
#62=PERSON_AND_ORGANIZATION_ROLE('creator');
#63=APPLIED_PERSON_AND_ORGANIZATION_ASSIGNMENT(#61,#62,(#58));
#64=CARTESIAN_POINT('NONE',(0.0,0.0,0.0));
#65=DIRECTION('NONE',(0.0,0.0,1.0));
#66=DIRECTION('NONE',(1.0,0.0,0.0));
#67=AXIS2_PLACEMENT_3D('NONE',#64,#65,#66);
#68=SHAPE_REPRESENTATION('SR1',(#67),#34);
#69=PRODUCT_DEFINITION_SHAPE('PDS1','Test Part',#58);
#70=SHAPE_DEFINITION_REPRESENTATION(#69,#68);
#71=CARTESIAN_POINT('',(1.665335E-016,-1.110223E-016,0.5));
#72=DIRECTION('',(-3.445052E-016,-1.0,-1.836910E-016));
#73=DIRECTION('',(0.0,0.0,-1.0));
#74=AXIS2_PLACEMENT_3D('',#71,#72,#73);
#75=CYLINDRICAL_SURFACE('',#74,0.140625);
#76=CARTESIAN_POINT('',(1.665335E-016,-1.110223E-016,0.359375));
#77=VERTEX_POINT('',#76);
#78=CARTESIAN_POINT('',(6.193093E-017,-0.188,0.359375));
#79=VERTEX_POINT('',#78);
#80=CARTESIAN_POINT('',(1.266979E-016,-3.072354E-016,0.359375));
#81=DIRECTION('',(0.0,-1.0,0.0));
#82=VECTOR('',#81,0.188);
#83=LINE('',#80,#82);
#84=EDGE_CURVE('',#77,#79,#83,.T.);
#85=ORIENTED_EDGE('',*,*,#84,.F.);
#86=CARTESIAN_POINT('',(1.891474E-016,-3.588984E-016,0.640625));
#87=VERTEX_POINT('',#86);
#88=CARTESIAN_POINT('',(1.665335E-016,-3.330669E-016,0.5));
#89=DIRECTION('',(0.0,-1.0,0.0));
#90=DIRECTION('',(0.0,0.0,-1.0));
#91=AXIS2_PLACEMENT_3D('',#88,#89,#90);
#92=CIRCLE('',#91,0.140625);
#93=EDGE_CURVE('',#87,#77,#92,.T.);
#94=ORIENTED_EDGE('',*,*,#93,.F.);
#95=CARTESIAN_POINT('',(-8.326673E-016,-0.188,0.640625));
#96=VERTEX_POINT('',#95);
#97=CARTESIAN_POINT('',(1.891474E-016,-3.588984E-016,0.640625));
#98=DIRECTION('',(0.0,-1.0,0.0));
#99=VECTOR('',#98,0.188);
#100=LINE('',#97,#99);
#101=EDGE_CURVE('',#87,#96,#100,.T.);
#102=ORIENTED_EDGE('',*,*,#101,.T.);
#103=CARTESIAN_POINT('',(1.665335E-016,-0.188,0.5));
#104=DIRECTION('',(0.0,1.0,0.0));
#105=DIRECTION('',(0.0,0.0,-1.0));
#106=AXIS2_PLACEMENT_3D('',#103,#104,#105);
#107=CIRCLE('',#106,0.140625);
#108=EDGE_CURVE('',#79,#96,#107,.T.);
#109=ORIENTED_EDGE('',*,*,#108,.F.);
#110=EDGE_LOOP('',(#85,#94,#102,#109));
#111=FACE_OUTER_BOUND('',#110,.T.);
#112=ADVANCED_FACE('',(#111),#75,.F.);
#113=CARTESIAN_POINT('',(1.110223E-016,-0.5,0.0));
#114=DIRECTION('',(2.832749E-016,-1.836910E-016,1.0));
#115=DIRECTION('',(0.0,1.0,0.0));
#116=AXIS2_PLACEMENT_3D('',#113,#114,#115);
#117=CYLINDRICAL_SURFACE('',#116,0.140625);
#118=CARTESIAN_POINT('',(-0.140625,-0.5,0.188));
#119=VERTEX_POINT('',#118);
#120=CARTESIAN_POINT('',(0.140625,-0.5,0.188));
#121=VERTEX_POINT('',#120);
#122=CARTESIAN_POINT('',(2.220446E-016,-0.5,0.188));
#123=DIRECTION('',(0.0,0.0,-1.0));
#124=DIRECTION('',(0.0,1.0,0.0));
#125=AXIS2_PLACEMENT_3D('',#122,#123,#124);
#126=CIRCLE('',#125,0.140625);
#127=EDGE_CURVE('',#119,#121,#126,.T.);
#128=ORIENTED_EDGE('',*,*,#127,.F.);
#129=CARTESIAN_POINT('',(-0.140625,-0.5,5.551115E-017));
#130=VERTEX_POINT('',#129);
#131=CARTESIAN_POINT('',(-0.140625,-0.5,5.551115E-017));
#132=DIRECTION('',(0.0,0.0,1.0));
#133=VECTOR('',#132,0.188);
#134=LINE('',#131,#133);
#135=EDGE_CURVE('',#130,#119,#134,.T.);
#136=ORIENTED_EDGE('',*,*,#135,.F.);
#137=CARTESIAN_POINT('',(0.140625,-0.5,0.0));
#138=VERTEX_POINT('',#137);
#139=CARTESIAN_POINT('',(1.110223E-016,-0.5,-1.110223E-016));
#140=DIRECTION('',(0.0,0.0,1.0));
#141=DIRECTION('',(0.0,1.0,0.0));
#142=AXIS2_PLACEMENT_3D('',#139,#140,#141);
#143=CIRCLE('',#142,0.140625);
#144=EDGE_CURVE('',#138,#130,#143,.T.);
#145=ORIENTED_EDGE('',*,*,#144,.F.);
#146=CARTESIAN_POINT('',(0.140625,-0.5,0.0));
#147=DIRECTION('',(0.0,0.0,1.0));
#148=VECTOR('',#147,0.188);
#149=LINE('',#146,#148);
#150=EDGE_CURVE('',#138,#121,#149,.T.);
#151=ORIENTED_EDGE('',*,*,#150,.T.);
#152=EDGE_LOOP('',(#128,#136,#145,#151));
#153=FACE_OUTER_BOUND('',#152,.T.);
#154=ADVANCED_FACE('',(#153),#117,.F.);
#155=CARTESIAN_POINT('',(0.140625,-0.5,0.0));
#156=DIRECTION('',(1.0,0.0,0.0));
#157=DIRECTION('',(0.0,-1.0,0.0));
#158=AXIS2_PLACEMENT_3D('',#155,#156,#157);
#159=PLANE('',#158);
#160=CARTESIAN_POINT('',(0.140625,-0.688,0.188));
#161=VERTEX_POINT('',#160);
#162=CARTESIAN_POINT('',(0.140625,-0.5,0.188));
#163=DIRECTION('',(0.0,-1.0,0.0));
#164=VECTOR('',#163,0.188);
#165=LINE('',#162,#164);
#166=EDGE_CURVE('',#121,#161,#165,.T.);
#167=ORIENTED_EDGE('',*,*,#166,.F.);
#168=ORIENTED_EDGE('',*,*,#150,.F.);
#169=CARTESIAN_POINT('',(0.140625,-0.688,-5.551115E-017));
#170=VERTEX_POINT('',#169);
#171=CARTESIAN_POINT('',(0.140625,-0.688,-1.359678E-016));
#172=DIRECTION('',(0.0,1.0,0.0));
#173=VECTOR('',#172,0.188);
#174=LINE('',#171,#173);
#175=EDGE_CURVE('',#170,#138,#174,.T.);
#176=ORIENTED_EDGE('',*,*,#175,.F.);
#177=CARTESIAN_POINT('',(0.140625,-0.688,-5.551115E-017));
#178=DIRECTION('',(0.0,0.0,1.0));
#179=VECTOR('',#178,0.188);
#180=LINE('',#177,#179);
#181=EDGE_CURVE('',#170,#161,#180,.T.);
#182=ORIENTED_EDGE('',*,*,#181,.T.);
#183=EDGE_LOOP('',(#167,#168,#176,#182));
#184=FACE_OUTER_BOUND('',#183,.T.);
#185=ADVANCED_FACE('',(#184),#159,.F.);
#186=CARTESIAN_POINT('',(5.551115E-017,-0.688,0.0));
#187=DIRECTION('',(2.832749E-016,-1.836910E-016,1.0));
#188=DIRECTION('',(0.0,-1.0,0.0));
#189=AXIS2_PLACEMENT_3D('',#186,#187,#188);
#190=CYLINDRICAL_SURFACE('',#189,0.140625);
#191=CARTESIAN_POINT('',(-0.066327902311169,-0.812,0.188));
#192=VERTEX_POINT('',#191);
#193=CARTESIAN_POINT('',(-0.140625,-0.688,0.188));
#194=VERTEX_POINT('',#193);
#195=CARTESIAN_POINT('',(1.665335E-016,-0.688,0.188));
#196=DIRECTION('',(0.0,0.0,-1.0));
#197=DIRECTION('',(0.0,-1.0,0.0));
#198=AXIS2_PLACEMENT_3D('',#195,#196,#197);
#199=CIRCLE('',#198,0.140625);
#200=EDGE_CURVE('',#192,#194,#199,.T.);
#201=ORIENTED_EDGE('',*,*,#200,.F.);
#202=CARTESIAN_POINT('',(0.066327902311169,-0.812000000000001,0.188));
#203=VERTEX_POINT('',#202);
#204=CARTESIAN_POINT('',(0.066327902311169,-0.812000000000001,0.188));
#205=CARTESIAN_POINT('',(0.045885661626844,-0.822934604380092,0.188));
#206=CARTESIAN_POINT('',(0.022539934389894,-0.828625,0.187263475816829));
#207=CARTESIAN_POINT('',(-0.022539934389894,-0.828625,0.187263475816829));
#208=CARTESIAN_POINT('',(-0.045885661626844,-0.822934604380091,0.188));
#209=CARTESIAN_POINT('',(-0.066327902311169,-0.812,0.188));
#210=B_SPLINE_CURVE_WITH_KNOTS('',3,(#204,#205,#206,#207,#208,#209),.UNSPECIFIED.,.F.,.U.,(4,2,4),(1.078855786819675,1.146475589989358,1.214095393159042),.UNSPECIFIED.);
#211=EDGE_CURVE('',#203,#192,#210,.T.);
#212=ORIENTED_EDGE('',*,*,#211,.F.);
#213=CARTESIAN_POINT('',(1.665335E-016,-0.688,0.188));
#214=DIRECTION('',(0.0,0.0,-1.0));
#215=DIRECTION('',(0.0,-1.0,0.0));
#216=AXIS2_PLACEMENT_3D('',#213,#214,#215);
#217=CIRCLE('',#216,0.140625);
#218=EDGE_CURVE('',#161,#203,#217,.T.);
#219=ORIENTED_EDGE('',*,*,#218,.F.);
#220=ORIENTED_EDGE('',*,*,#181,.F.);
#221=CARTESIAN_POINT('',(-0.140625,-0.688,0.0));
#222=VERTEX_POINT('',#221);
#223=CARTESIAN_POINT('',(5.551115E-017,-0.688,-1.110223E-016));
#224=DIRECTION('',(0.0,0.0,1.0));
#225=DIRECTION('',(0.0,-1.0,0.0));
#226=AXIS2_PLACEMENT_3D('',#223,#224,#225);
#227=CIRCLE('',#226,0.140625);
#228=EDGE_CURVE('',#222,#170,#227,.T.);
#229=ORIENTED_EDGE('',*,*,#228,.F.);
#230=CARTESIAN_POINT('',(-0.140625,-0.688,0.0));
#231=DIRECTION('',(0.0,0.0,1.0));
#232=VECTOR('',#231,0.188);
#233=LINE('',#230,#232);
#234=EDGE_CURVE('',#222,#194,#233,.T.);
#235=ORIENTED_EDGE('',*,*,#234,.T.);
#236=EDGE_LOOP('',(#201,#212,#219,#220,#229,#235));
#237=FACE_OUTER_BOUND('',#236,.T.);
#238=ADVANCED_FACE('',(#237),#190,.F.);
#239=CARTESIAN_POINT('',(-0.140625,-0.688,0.0));
#240=DIRECTION('',(-1.0,0.0,0.0));
#241=DIRECTION('',(0.0,1.0,0.0));
#242=AXIS2_PLACEMENT_3D('',#239,#240,#241);
#243=PLANE('',#242);
#244=CARTESIAN_POINT('',(-0.140625,-0.688,0.188));
#245=DIRECTION('',(0.0,1.0,0.0));
#246=VECTOR('',#245,0.188);
#247=LINE('',#244,#246);
#248=EDGE_CURVE('',#194,#119,#247,.T.);
#249=ORIENTED_EDGE('',*,*,#248,.F.);
#250=ORIENTED_EDGE('',*,*,#234,.F.);
#251=CARTESIAN_POINT('',(-0.140625,-0.5,-8.416694E-017));
#252=DIRECTION('',(0.0,-1.0,0.0));
#253=VECTOR('',#252,0.188);
#254=LINE('',#251,#253);
#255=EDGE_CURVE('',#130,#222,#254,.T.);
#256=ORIENTED_EDGE('',*,*,#255,.F.);
#257=ORIENTED_EDGE('',*,*,#135,.T.);
#258=EDGE_LOOP('',(#249,#250,#256,#257));
#259=FACE_OUTER_BOUND('',#258,.T.);
#260=ADVANCED_FACE('',(#259),#243,.F.);
#261=CARTESIAN_POINT('',(-0.4375,-0.812,0.188));
#262=DIRECTION('',(0.0,0.0,1.0));
#263=DIRECTION('',(0.0,-1.0,0.0));
#264=AXIS2_PLACEMENT_3D('',#261,#262,#263);
#265=PLANE('',#264);
#266=ORIENTED_EDGE('',*,*,#200,.T.);
#267=ORIENTED_EDGE('',*,*,#248,.T.);
#268=ORIENTED_EDGE('',*,*,#127,.T.);
#269=ORIENTED_EDGE('',*,*,#166,.T.);
#270=ORIENTED_EDGE('',*,*,#218,.T.);
#271=CARTESIAN_POINT('',(0.4375,-0.812,0.188));
#272=VERTEX_POINT('',#271);
#273=CARTESIAN_POINT('',(0.066327902311169,-0.812,0.188));
#274=DIRECTION('',(1.0,0.0,0.0));
#275=VECTOR('',#274,0.371172097688831);
#276=LINE('',#273,#275);
#277=EDGE_CURVE('',#203,#272,#276,.T.);
#278=ORIENTED_EDGE('',*,*,#277,.T.);
#279=CARTESIAN_POINT('',(0.4375,-0.313,0.188));
#280=VERTEX_POINT('',#279);
#281=CARTESIAN_POINT('',(0.4375,-0.812,0.188));
#282=DIRECTION('',(0.0,1.0,0.0));
#283=VECTOR('',#282,0.499);
#284=LINE('',#281,#283);
#285=EDGE_CURVE('',#272,#280,#284,.T.);
#286=ORIENTED_EDGE('',*,*,#285,.T.);
#287=CARTESIAN_POINT('',(-0.4375,-0.313,0.188));
#288=VERTEX_POINT('',#287);
#289=CARTESIAN_POINT('',(-0.4375,-0.313,0.188));
#290=DIRECTION('',(1.0,0.0,0.0));
#291=VECTOR('',#290,0.875);
#292=LINE('',#289,#291);
#293=EDGE_CURVE('',#288,#280,#292,.T.);
#294=ORIENTED_EDGE('',*,*,#293,.F.);
#295=CARTESIAN_POINT('',(-0.4375,-0.812,0.188));
#296=VERTEX_POINT('',#295);
#297=CARTESIAN_POINT('',(-0.4375,-0.812,0.188));
#298=DIRECTION('',(0.0,1.0,0.0));
#299=VECTOR('',#298,0.499);
#300=LINE('',#297,#299);
#301=EDGE_CURVE('',#296,#288,#300,.T.);
#302=ORIENTED_EDGE('',*,*,#301,.F.);
#303=CARTESIAN_POINT('',(-0.4375,-0.812,0.188));
#304=DIRECTION('',(1.0,0.0,0.0));
#305=VECTOR('',#304,0.371172097688831);
#306=LINE('',#303,#305);
#307=EDGE_CURVE('',#296,#192,#306,.T.);
#308=ORIENTED_EDGE('',*,*,#307,.T.);
#309=EDGE_LOOP('',(#266,#267,#268,#269,#270,#278,#286,#294,#302,#308));
#310=FACE_OUTER_BOUND('',#309,.T.);
#311=ADVANCED_FACE('',(#310),#265,.T.);
#312=CARTESIAN_POINT('',(1.665335E-016,-1.110223E-016,0.5));
#313=DIRECTION('',(-3.445052E-016,-1.0,-1.836910E-016));
#314=DIRECTION('',(0.0,0.0,-1.0));
#315=AXIS2_PLACEMENT_3D('',#312,#313,#314);
#316=CYLINDRICAL_SURFACE('',#315,0.140625);
#317=ORIENTED_EDGE('',*,*,#84,.T.);
#318=CARTESIAN_POINT('',(1.665335E-016,-0.188,0.5));
#319=DIRECTION('',(0.0,1.0,0.0));
#320=DIRECTION('',(0.0,0.0,-1.0));
#321=AXIS2_PLACEMENT_3D('',#318,#319,#320);
#322=CIRCLE('',#321,0.140625);
#323=EDGE_CURVE('',#96,#79,#322,.T.);
#324=ORIENTED_EDGE('',*,*,#323,.F.);
#325=ORIENTED_EDGE('',*,*,#101,.F.);
#326=CARTESIAN_POINT('',(1.665335E-016,-3.330669E-016,0.5));
#327=DIRECTION('',(0.0,-1.0,0.0));
#328=DIRECTION('',(0.0,0.0,-1.0));
#329=AXIS2_PLACEMENT_3D('',#326,#327,#328);
#330=CIRCLE('',#329,0.140625);
#331=EDGE_CURVE('',#77,#87,#330,.T.);
#332=ORIENTED_EDGE('',*,*,#331,.F.);
#333=EDGE_LOOP('',(#317,#324,#325,#332));
#334=FACE_OUTER_BOUND('',#333,.T.);
#335=ADVANCED_FACE('',(#334),#316,.F.);
#336=CARTESIAN_POINT('',(-0.4375,-0.313,0.313));
#337=DIRECTION('',(1.0,-1.076577E-016,-2.832749E-016));
#338=DIRECTION('',(-1.241802E-016,0.707106781186548,-0.707106781186547));
#339=AXIS2_PLACEMENT_3D('',#336,#337,#338);
#340=CYLINDRICAL_SURFACE('',#339,0.125);
#341=CARTESIAN_POINT('',(0.4375,-0.188,0.313));
#342=VERTEX_POINT('',#341);
#343=CARTESIAN_POINT('',(0.4375,-0.313,0.313));
#344=DIRECTION('',(1.0,8.040714E-017,-8.040714E-017));
#345=DIRECTION('',(-1.137129E-016,0.707106781186548,-0.707106781186547));
#346=AXIS2_PLACEMENT_3D('',#343,#344,#345);
#347=CIRCLE('',#346,0.125);
#348=EDGE_CURVE('',#280,#342,#347,.T.);
#349=ORIENTED_EDGE('',*,*,#348,.T.);
#350=CARTESIAN_POINT('',(-0.4375,-0.188,0.313));
#351=VERTEX_POINT('',#350);
#352=CARTESIAN_POINT('',(-0.4375,-0.188,0.313));
#353=DIRECTION('',(1.0,0.0,0.0));
#354=VECTOR('',#353,0.875);
#355=LINE('',#352,#354);
#356=EDGE_CURVE('',#351,#342,#355,.T.);
#357=ORIENTED_EDGE('',*,*,#356,.F.);
#358=CARTESIAN_POINT('',(-0.4375,-0.313,0.313));
#359=DIRECTION('',(1.0,8.040714E-017,-8.040714E-017));
#360=DIRECTION('',(-1.137129E-016,0.707106781186548,-0.707106781186547));
#361=AXIS2_PLACEMENT_3D('',#358,#359,#360);
#362=CIRCLE('',#361,0.125);
#363=EDGE_CURVE('',#288,#351,#362,.T.);
#364=ORIENTED_EDGE('',*,*,#363,.F.);
#365=ORIENTED_EDGE('',*,*,#293,.T.);
#366=EDGE_LOOP('',(#349,#357,#364,#365));
#367=FACE_OUTER_BOUND('',#366,.T.);
#368=ADVANCED_FACE('',(#367),#340,.F.);
#369=CARTESIAN_POINT('',(-0.4375,-0.188,0.313));
#370=DIRECTION('',(0.0,-1.0,0.0));
#371=DIRECTION('',(0.0,0.0,-1.0));
#372=AXIS2_PLACEMENT_3D('',#369,#370,#371);
#373=PLANE('',#372);
#374=CARTESIAN_POINT('',(0.4375,-0.188,0.812));
#375=VERTEX_POINT('',#374);
#376=CARTESIAN_POINT('',(0.4375,-0.188,0.313));
#377=DIRECTION('',(0.0,0.0,1.0));
#378=VECTOR('',#377,0.499);
#379=LINE('',#376,#378);
#380=EDGE_CURVE('',#342,#375,#379,.T.);
#381=ORIENTED_EDGE('',*,*,#380,.T.);
#382=CARTESIAN_POINT('',(-0.4375,-0.188,0.812));
#383=VERTEX_POINT('',#382);
#384=CARTESIAN_POINT('',(-0.4375,-0.188,0.812));
#385=DIRECTION('',(1.0,0.0,0.0));
#386=VECTOR('',#385,0.875);
#387=LINE('',#384,#386);
#388=EDGE_CURVE('',#383,#375,#387,.T.);
#389=ORIENTED_EDGE('',*,*,#388,.F.);
#390=CARTESIAN_POINT('',(-0.4375,-0.188,0.313));
#391=DIRECTION('',(0.0,0.0,1.0));
#392=VECTOR('',#391,0.499);
#393=LINE('',#390,#392);
#394=EDGE_CURVE('',#351,#383,#393,.T.);
#395=ORIENTED_EDGE('',*,*,#394,.F.);
#396=ORIENTED_EDGE('',*,*,#356,.T.);
#397=EDGE_LOOP('',(#381,#389,#395,#396));
#398=FACE_OUTER_BOUND('',#397,.T.);
#399=ORIENTED_EDGE('',*,*,#323,.T.);
#400=ORIENTED_EDGE('',*,*,#108,.T.);
#401=EDGE_LOOP('',(#399,#400));
#402=FACE_BOUND('',#401,.T.);
#403=ADVANCED_FACE('',(#398,#402),#373,.T.);
#404=CARTESIAN_POINT('',(-0.4375,-2.775558E-016,0.812));
#405=DIRECTION('',(1.0,-1.076577E-016,-2.832749E-016));
#406=DIRECTION('',(1.241802E-016,-0.707106781186547,0.707106781186547));
#407=AXIS2_PLACEMENT_3D('',#404,#405,#406);
#408=CYLINDRICAL_SURFACE('',#407,0.188);
#409=CARTESIAN_POINT('',(0.4375,-1.665335E-016,1.0));
#410=VERTEX_POINT('',#409);
#411=CARTESIAN_POINT('',(0.4375,-1.110223E-016,0.812));
#412=DIRECTION('',(-1.0,-8.040714E-017,8.040714E-017));
#413=DIRECTION('',(1.137129E-016,-0.707106781186547,0.707106781186547));
#414=AXIS2_PLACEMENT_3D('',#411,#412,#413);
#415=CIRCLE('',#414,0.188);
#416=EDGE_CURVE('',#375,#410,#415,.T.);
#417=ORIENTED_EDGE('',*,*,#416,.T.);
#418=CARTESIAN_POINT('',(-0.4375,-2.775558E-016,1.0));
#419=VERTEX_POINT('',#418);
#420=CARTESIAN_POINT('',(-0.4375,-2.775558E-016,1.0));
#421=DIRECTION('',(1.0,0.0,0.0));
#422=VECTOR('',#421,0.875);
#423=LINE('',#420,#422);
#424=EDGE_CURVE('',#419,#410,#423,.T.);
#425=ORIENTED_EDGE('',*,*,#424,.F.);
#426=CARTESIAN_POINT('',(-0.4375,-2.775558E-016,0.812));
#427=DIRECTION('',(-1.0,-8.040714E-017,8.040714E-017));
#428=DIRECTION('',(1.137129E-016,-0.707106781186547,0.707106781186547));
#429=AXIS2_PLACEMENT_3D('',#426,#427,#428);
#430=CIRCLE('',#429,0.188);
#431=EDGE_CURVE('',#383,#419,#430,.T.);
#432=ORIENTED_EDGE('',*,*,#431,.F.);
#433=ORIENTED_EDGE('',*,*,#388,.T.);
#434=EDGE_LOOP('',(#417,#425,#432,#433));
#435=FACE_OUTER_BOUND('',#434,.T.);
#436=ADVANCED_FACE('',(#435),#408,.T.);
#437=CARTESIAN_POINT('',(-0.4375,-2.775558E-016,1.0));
#438=DIRECTION('',(0.0,1.0,0.0));
#439=DIRECTION('',(0.0,0.0,1.0));
#440=AXIS2_PLACEMENT_3D('',#437,#438,#439);
#441=PLANE('',#440);
#442=CARTESIAN_POINT('',(0.4375,5.551115E-017,-1.110223E-016));
#443=VERTEX_POINT('',#442);
#444=CARTESIAN_POINT('',(0.4375,-1.665335E-016,1.0));
#445=DIRECTION('',(0.0,0.0,-1.0));
#446=VECTOR('',#445,1.0);
#447=LINE('',#444,#446);
#448=EDGE_CURVE('',#410,#443,#447,.T.);
#449=ORIENTED_EDGE('',*,*,#448,.T.);
#450=CARTESIAN_POINT('',(-0.4375,-1.110223E-016,1.110223E-016));
#451=VERTEX_POINT('',#450);
#452=CARTESIAN_POINT('',(-0.4375,-1.110223E-016,1.110223E-016));
#453=DIRECTION('',(1.0,0.0,0.0));
#454=VECTOR('',#453,0.875);
#455=LINE('',#452,#454);
#456=EDGE_CURVE('',#451,#443,#455,.T.);
#457=ORIENTED_EDGE('',*,*,#456,.F.);
#458=CARTESIAN_POINT('',(-0.4375,-2.775558E-016,1.0));
#459=DIRECTION('',(0.0,0.0,-1.0));
#460=VECTOR('',#459,1.0);
#461=LINE('',#458,#460);
#462=EDGE_CURVE('',#419,#451,#461,.T.);
#463=ORIENTED_EDGE('',*,*,#462,.F.);
#464=ORIENTED_EDGE('',*,*,#424,.T.);
#465=EDGE_LOOP('',(#449,#457,#463,#464));
#466=FACE_OUTER_BOUND('',#465,.T.);
#467=ORIENTED_EDGE('',*,*,#331,.T.);
#468=ORIENTED_EDGE('',*,*,#93,.T.);
#469=EDGE_LOOP('',(#467,#468));
#470=FACE_BOUND('',#469,.T.);
#471=ADVANCED_FACE('',(#466,#470),#441,.T.);
#472=CARTESIAN_POINT('',(-0.4375,-1.110223E-016,1.110223E-016));
#473=DIRECTION('',(0.0,0.0,-1.0));
#474=DIRECTION('',(0.0,1.0,0.0));
#475=AXIS2_PLACEMENT_3D('',#472,#473,#474);
#476=PLANE('',#475);
#477=CARTESIAN_POINT('',(0.4375,-1.0,-2.775558E-016));
#478=VERTEX_POINT('',#477);
#479=CARTESIAN_POINT('',(0.4375,5.551115E-017,-1.110223E-016));
#480=DIRECTION('',(0.0,-1.0,0.0));
#481=VECTOR('',#480,1.0);
#482=LINE('',#479,#481);
#483=EDGE_CURVE('',#443,#478,#482,.T.);
#484=ORIENTED_EDGE('',*,*,#483,.T.);
#485=CARTESIAN_POINT('',(-0.4375,-1.0,-1.110223E-016));
#486=VERTEX_POINT('',#485);
#487=CARTESIAN_POINT('',(-0.4375,-1.0,-1.110223E-016));
#488=DIRECTION('',(1.0,0.0,0.0));
#489=VECTOR('',#488,0.875);
#490=LINE('',#487,#489);
#491=EDGE_CURVE('',#486,#478,#490,.T.);
#492=ORIENTED_EDGE('',*,*,#491,.F.);
#493=CARTESIAN_POINT('',(-0.4375,-1.110223E-016,1.110223E-016));
#494=DIRECTION('',(0.0,-1.0,0.0));
#495=VECTOR('',#494,1.0);
#496=LINE('',#493,#495);
#497=EDGE_CURVE('',#451,#486,#496,.T.);
#498=ORIENTED_EDGE('',*,*,#497,.F.);
#499=ORIENTED_EDGE('',*,*,#456,.T.);
#500=EDGE_LOOP('',(#484,#492,#498,#499));
#501=FACE_OUTER_BOUND('',#500,.T.);
#502=ORIENTED_EDGE('',*,*,#144,.T.);
#503=ORIENTED_EDGE('',*,*,#255,.T.);
#504=ORIENTED_EDGE('',*,*,#228,.T.);
#505=ORIENTED_EDGE('',*,*,#175,.T.);
#506=EDGE_LOOP('',(#502,#503,#504,#505));
#507=FACE_BOUND('',#506,.T.);
#508=ADVANCED_FACE('',(#501,#507),#476,.T.);
#509=CARTESIAN_POINT('',(-0.4375,-0.812,-5.551115E-017));
#510=DIRECTION('',(1.0,-1.076577E-016,-2.832749E-016));
#511=DIRECTION('',(1.241802E-016,-0.707106781186548,0.707106781186547));
#512=AXIS2_PLACEMENT_3D('',#509,#510,#511);
#513=CYLINDRICAL_SURFACE('',#512,0.188);
#514=ORIENTED_EDGE('',*,*,#211,.T.);
#515=ORIENTED_EDGE('',*,*,#307,.F.);
#516=CARTESIAN_POINT('',(-0.4375,-0.812,-5.551115E-017));
#517=DIRECTION('',(-1.0,-8.040714E-017,8.040714E-017));
#518=DIRECTION('',(1.137129E-016,-0.707106781186548,0.707106781186547));
#519=AXIS2_PLACEMENT_3D('',#516,#517,#518);
#520=CIRCLE('',#519,0.188);
#521=EDGE_CURVE('',#486,#296,#520,.T.);
#522=ORIENTED_EDGE('',*,*,#521,.F.);
#523=ORIENTED_EDGE('',*,*,#491,.T.);
#524=CARTESIAN_POINT('',(0.4375,-0.812,-2.220446E-016));
#525=DIRECTION('',(-1.0,-8.040714E-017,8.040714E-017));
#526=DIRECTION('',(1.137129E-016,-0.707106781186548,0.707106781186547));
#527=AXIS2_PLACEMENT_3D('',#524,#525,#526);
#528=CIRCLE('',#527,0.188);
#529=EDGE_CURVE('',#478,#272,#528,.T.);
#530=ORIENTED_EDGE('',*,*,#529,.T.);
#531=ORIENTED_EDGE('',*,*,#277,.F.);
#532=EDGE_LOOP('',(#514,#515,#522,#523,#530,#531));
#533=FACE_OUTER_BOUND('',#532,.T.);
#534=ADVANCED_FACE('',(#533),#513,.T.);
#535=CARTESIAN_POINT('',(0.4375,-0.313,0.188));
#536=DIRECTION('',(-1.0,0.0,0.0));
#537=DIRECTION('',(0.0,1.0,0.0));
#538=AXIS2_PLACEMENT_3D('',#535,#536,#537);
#539=PLANE('',#538);
#540=ORIENTED_EDGE('',*,*,#348,.F.);
#541=ORIENTED_EDGE('',*,*,#285,.F.);
#542=ORIENTED_EDGE('',*,*,#529,.F.);
#543=ORIENTED_EDGE('',*,*,#483,.F.);
#544=ORIENTED_EDGE('',*,*,#448,.F.);
#545=ORIENTED_EDGE('',*,*,#416,.F.);
#546=ORIENTED_EDGE('',*,*,#380,.F.);
#547=EDGE_LOOP('',(#540,#541,#542,#543,#544,#545,#546));
#548=FACE_OUTER_BOUND('',#547,.T.);
#549=ADVANCED_FACE('',(#548),#539,.F.);
#550=CARTESIAN_POINT('',(-0.4375,-0.380348380207783,0.380348380207782));
#551=DIRECTION('',(-1.0,0.0,0.0));
#552=DIRECTION('',(0.0,1.0,0.0));
#553=AXIS2_PLACEMENT_3D('',#550,#551,#552);
#554=PLANE('',#553);
#555=ORIENTED_EDGE('',*,*,#301,.T.);
#556=ORIENTED_EDGE('',*,*,#363,.T.);
#557=ORIENTED_EDGE('',*,*,#394,.T.);
#558=ORIENTED_EDGE('',*,*,#431,.T.);
#559=ORIENTED_EDGE('',*,*,#462,.T.);
#560=ORIENTED_EDGE('',*,*,#497,.T.);
#561=ORIENTED_EDGE('',*,*,#521,.T.);
#562=EDGE_LOOP('',(#555,#556,#557,#558,#559,#560,#561));
#563=FACE_OUTER_BOUND('',#562,.T.);
#564=ADVANCED_FACE('',(#563),#554,.T.);
#565=CLOSED_SHELL('',(#112,#154,#185,#238,#260,#311,#335,#368,#403,#436,#471,#508,#534,#549,#564));
#566=MANIFOLD_SOLID_BREP('2C',#565);
#567=DRAUGHTING_PRE_DEFINED_COLOUR('white');
#568=SURFACE_STYLE_USAGE(.BOTH.,#569);
#569=SURFACE_SIDE_STYLE('NONE',(#570));
#570=SURFACE_STYLE_FILL_AREA(#571);
#571=FILL_AREA_STYLE('NONE',(#572));
#572=FILL_AREA_STYLE_COLOUR('NONE',#567);
#573=PRESENTATION_STYLE_ASSIGNMENT((#568));
#574=STYLED_ITEM('NONE',(#573),#566);
#575=MECHANICAL_DESIGN_GEOMETRIC_PRESENTATION_REPRESENTATION('NONE',(#574),#34);
#576=PRESENTATION_LAYER_ASSIGNMENT('10cb4221','None',(#566));
#577=ADVANCED_BREP_SHAPE_REPRESENTATION('ABSR1',(#566),#34);
#578=SHAPE_REPRESENTATION_RELATIONSHIP('SRRPL1','',#577,#68);
ENDSEC;
END-ISO-10303-21;
