ISO-10303-21;
HEADER;
/****************************************************************
 * Generated by software with PDElib inside                    *
 * PDElib Version v51a, created Fri 09/10/2010                  *
 * ITI Transcendata (http://www.transcendata.com/)              *
 ****************************************************************/
FILE_DESCRIPTION((''),'2;1');
FILE_NAME('10CB4104.stp','2015-07-07T13:08:42',(''),(''),'Mechanical Desktop 2011','Mechanical Desktop 2011',', , ');
FILE_SCHEMA(('AUTOMOTIVE_DESIGN { 1 2 10303 214 1 1 1 1 }'));
ENDSEC;
DATA;
#10=(NAMED_UNIT(*)PLANE_ANGLE_UNIT()SI_UNIT($,.RADIAN.));
#11=DIMENSIONAL_EXPONENTS(0.0,0.0,0.0,0.0,0.0,0.0,0.0);
#12=PLANE_ANGLE_MEASURE_WITH_UNIT(PLANE_ANGLE_MEASURE(0.0174532925),#10);
#16=(CONVERSION_BASED_UNIT('DEGREE',#12)NAMED_UNIT(#11)PLANE_ANGLE_UNIT());
#20=(NAMED_UNIT(*)SI_UNIT($,.STERADIAN.)SOLID_ANGLE_UNIT());
#24=(LENGTH_UNIT()NAMED_UNIT(*)SI_UNIT(.CENTI.,.METRE.));
#25=DIMENSIONAL_EXPONENTS(1.0,0.0,0.0,0.0,0.0,0.0,0.0);
#26=LENGTH_MEASURE_WITH_UNIT(LENGTH_MEASURE(2.54),#24);
#30=(CONVERSION_BASED_UNIT('INCH',#26)LENGTH_UNIT()NAMED_UNIT(#25));
#32=UNCERTAINTY_MEASURE_WITH_UNIT(LENGTH_MEASURE(0.000001),#30,'DISTANCE_ACCURACY_VALUE','');
#34=(GEOMETRIC_REPRESENTATION_CONTEXT(3)GLOBAL_UNCERTAINTY_ASSIGNED_CONTEXT((#32))GLOBAL_UNIT_ASSIGNED_CONTEXT((#16,#20,#30))REPRESENTATION_CONTEXT('','3D'));
#35=APPLICATION_CONTEXT('automotive design');
#36=APPLICATION_PROTOCOL_DEFINITION('INTERNATIONAL_STANDARD','automotive_design',1998,#35);
#37=PRODUCT_CONTEXT('3D Mechanical Parts',#35,'mechanical');
#38=PRODUCT('Product','Product','',(#37));
#39=PRODUCT_RELATED_PRODUCT_CATEGORY('part',$,(#38));
#40=PRODUCT_CATEGORY('part',$);
#41=PERSON('1','Design','Joe',$,$,$);
#42=ORGANIZATION($,'None','None');
#43=PERSON_AND_ORGANIZATION(#41,#42);
#44=PERSON_AND_ORGANIZATION_ROLE('design_owner');
#45=APPLIED_PERSON_AND_ORGANIZATION_ASSIGNMENT(#43,#44,(#38));
#46=PRODUCT_DEFINITION_FORMATION_WITH_SPECIFIED_SOURCE('None','',#38,.BOUGHT.);
#47=PERSON('2','Creator','Joe',$,$,$);
#48=ORGANIZATION($,'None','None');
#49=PERSON_AND_ORGANIZATION(#47,#48);
#50=PERSON_AND_ORGANIZATION_ROLE('creator');
#51=APPLIED_PERSON_AND_ORGANIZATION_ASSIGNMENT(#49,#50,(#46));
#52=PERSON('3','Supplier','Joe',$,$,$);
#53=ORGANIZATION($,'None','None');
#54=PERSON_AND_ORGANIZATION(#52,#53);
#55=PERSON_AND_ORGANIZATION_ROLE('design_supplier');
#56=APPLIED_PERSON_AND_ORGANIZATION_ASSIGNMENT(#54,#55,(#46));
#57=PRODUCT_DEFINITION_CONTEXT('part definition',#35,'design');
#58=PRODUCT_DEFINITION('None','',#46,#57);
#59=PERSON('4','Creator','Joe',$,$,$);
#60=ORGANIZATION($,'None','None');
#61=PERSON_AND_ORGANIZATION(#59,#60);
#62=PERSON_AND_ORGANIZATION_ROLE('creator');
#63=APPLIED_PERSON_AND_ORGANIZATION_ASSIGNMENT(#61,#62,(#58));
#64=CARTESIAN_POINT('NONE',(0.0,0.0,0.0));
#65=DIRECTION('NONE',(0.0,0.0,1.0));
#66=DIRECTION('NONE',(1.0,0.0,0.0));
#67=AXIS2_PLACEMENT_3D('NONE',#64,#65,#66);
#68=SHAPE_REPRESENTATION('SR1',(#67),#34);
#69=PRODUCT_DEFINITION_SHAPE('PDS1','Test Part',#58);
#70=SHAPE_DEFINITION_REPRESENTATION(#69,#68);
#71=CARTESIAN_POINT('',(-0.5,0.0,0.5));
#72=DIRECTION('',(-3.445052E-016,-1.0,-1.836910E-016));
#73=DIRECTION('',(0.0,0.0,-1.0));
#74=AXIS2_PLACEMENT_3D('',#71,#72,#73);
#75=CYLINDRICAL_SURFACE('',#74,0.140625);
#76=CARTESIAN_POINT('',(-0.5,0.0,0.359375));
#77=VERTEX_POINT('',#76);
#78=CARTESIAN_POINT('',(-0.5,-0.188,0.359375));
#79=VERTEX_POINT('',#78);
#80=CARTESIAN_POINT('',(-0.5,-8.011869E-032,0.359375));
#81=DIRECTION('',(0.0,-1.0,0.0));
#82=VECTOR('',#81,0.188);
#83=LINE('',#80,#82);
#84=EDGE_CURVE('',#77,#79,#83,.T.);
#85=ORIENTED_EDGE('',*,*,#84,.F.);
#86=CARTESIAN_POINT('',(-0.5,-2.583154E-017,0.640625));
#87=VERTEX_POINT('',#86);
#88=CARTESIAN_POINT('',(-0.5,0.0,0.5));
#89=DIRECTION('',(0.0,-1.0,0.0));
#90=DIRECTION('',(0.0,0.0,-1.0));
#91=AXIS2_PLACEMENT_3D('',#88,#89,#90);
#92=CIRCLE('',#91,0.140625);
#93=EDGE_CURVE('',#87,#77,#92,.T.);
#94=ORIENTED_EDGE('',*,*,#93,.F.);
#95=CARTESIAN_POINT('',(-0.500000000000001,-0.188,0.640625));
#96=VERTEX_POINT('',#95);
#97=CARTESIAN_POINT('',(-0.5,-2.583154E-017,0.640625));
#98=DIRECTION('',(0.0,-1.0,0.0));
#99=VECTOR('',#98,0.188);
#100=LINE('',#97,#99);
#101=EDGE_CURVE('',#87,#96,#100,.T.);
#102=ORIENTED_EDGE('',*,*,#101,.T.);
#103=CARTESIAN_POINT('',(-0.5,-0.188,0.5));
#104=DIRECTION('',(0.0,1.0,0.0));
#105=DIRECTION('',(0.0,0.0,-1.0));
#106=AXIS2_PLACEMENT_3D('',#103,#104,#105);
#107=CIRCLE('',#106,0.140625);
#108=EDGE_CURVE('',#79,#96,#107,.T.);
#109=ORIENTED_EDGE('',*,*,#108,.F.);
#110=EDGE_LOOP('',(#85,#94,#102,#109));
#111=FACE_OUTER_BOUND('',#110,.T.);
#112=ADVANCED_FACE('',(#111),#75,.F.);
#113=CARTESIAN_POINT('',(0.5,-2.220446E-016,0.5));
#114=DIRECTION('',(-3.445052E-016,-1.0,-1.836910E-016));
#115=DIRECTION('',(0.0,0.0,-1.0));
#116=AXIS2_PLACEMENT_3D('',#113,#114,#115);
#117=CYLINDRICAL_SURFACE('',#116,0.140625);
#118=CARTESIAN_POINT('',(0.5,-2.220446E-016,0.359375));
#119=VERTEX_POINT('',#118);
#120=CARTESIAN_POINT('',(0.5,-0.188,0.359375));
#121=VERTEX_POINT('',#120);
#122=CARTESIAN_POINT('',(0.5,-4.182577E-016,0.359375));
#123=DIRECTION('',(0.0,-1.0,0.0));
#124=VECTOR('',#123,0.188);
#125=LINE('',#122,#124);
#126=EDGE_CURVE('',#119,#121,#125,.T.);
#127=ORIENTED_EDGE('',*,*,#126,.F.);
#128=CARTESIAN_POINT('',(0.5,-4.699208E-016,0.640625));
#129=VERTEX_POINT('',#128);
#130=CARTESIAN_POINT('',(0.5,-4.440892E-016,0.5));
#131=DIRECTION('',(0.0,-1.0,0.0));
#132=DIRECTION('',(0.0,0.0,-1.0));
#133=AXIS2_PLACEMENT_3D('',#130,#131,#132);
#134=CIRCLE('',#133,0.140625);
#135=EDGE_CURVE('',#129,#119,#134,.T.);
#136=ORIENTED_EDGE('',*,*,#135,.F.);
#137=CARTESIAN_POINT('',(0.499999999999999,-0.188,0.640625));
#138=VERTEX_POINT('',#137);
#139=CARTESIAN_POINT('',(0.5,-4.699208E-016,0.640625));
#140=DIRECTION('',(0.0,-1.0,0.0));
#141=VECTOR('',#140,0.188);
#142=LINE('',#139,#141);
#143=EDGE_CURVE('',#129,#138,#142,.T.);
#144=ORIENTED_EDGE('',*,*,#143,.T.);
#145=CARTESIAN_POINT('',(0.5,-0.188,0.5));
#146=DIRECTION('',(0.0,1.0,0.0));
#147=DIRECTION('',(0.0,0.0,-1.0));
#148=AXIS2_PLACEMENT_3D('',#145,#146,#147);
#149=CIRCLE('',#148,0.140625);
#150=EDGE_CURVE('',#121,#138,#149,.T.);
#151=ORIENTED_EDGE('',*,*,#150,.F.);
#152=EDGE_LOOP('',(#127,#136,#144,#151));
#153=FACE_OUTER_BOUND('',#152,.T.);
#154=ADVANCED_FACE('',(#153),#117,.F.);
#155=CARTESIAN_POINT('',(-0.5,-0.5,1.110223E-016));
#156=DIRECTION('',(2.832749E-016,3.835365E-017,1.0));
#157=DIRECTION('',(-1.0,0.0,0.0));
#158=AXIS2_PLACEMENT_3D('',#155,#156,#157);
#159=CYLINDRICAL_SURFACE('',#158,0.140625);
#160=CARTESIAN_POINT('',(-0.640625,-0.5,1.110223E-016));
#161=VERTEX_POINT('',#160);
#162=CARTESIAN_POINT('',(-0.640625,-0.5,0.188));
#163=VERTEX_POINT('',#162);
#164=CARTESIAN_POINT('',(-0.640625,-0.5,3.729024E-016));
#165=DIRECTION('',(0.0,0.0,1.0));
#166=VECTOR('',#165,0.188);
#167=LINE('',#164,#166);
#168=EDGE_CURVE('',#161,#163,#167,.T.);
#169=ORIENTED_EDGE('',*,*,#168,.F.);
#170=CARTESIAN_POINT('',(-0.359375,-0.5,2.932314E-016));
#171=VERTEX_POINT('',#170);
#172=CARTESIAN_POINT('',(-0.5,-0.5,3.330669E-016));
#173=DIRECTION('',(0.0,0.0,1.0));
#174=DIRECTION('',(-1.0,0.0,0.0));
#175=AXIS2_PLACEMENT_3D('',#172,#173,#174);
#176=CIRCLE('',#175,0.140625);
#177=EDGE_CURVE('',#171,#161,#176,.T.);
#178=ORIENTED_EDGE('',*,*,#177,.F.);
#179=CARTESIAN_POINT('',(-0.359375,-0.499999999999999,0.188));
#180=VERTEX_POINT('',#179);
#181=CARTESIAN_POINT('',(-0.359375,-0.5,2.932314E-016));
#182=DIRECTION('',(0.0,0.0,1.0));
#183=VECTOR('',#182,0.188);
#184=LINE('',#181,#183);
#185=EDGE_CURVE('',#171,#180,#184,.T.);
#186=ORIENTED_EDGE('',*,*,#185,.T.);
#187=CARTESIAN_POINT('',(-0.5,-0.5,0.188));
#188=DIRECTION('',(0.0,0.0,-1.0));
#189=DIRECTION('',(-1.0,0.0,0.0));
#190=AXIS2_PLACEMENT_3D('',#187,#188,#189);
#191=CIRCLE('',#190,0.140625);
#192=EDGE_CURVE('',#163,#180,#191,.T.);
#193=ORIENTED_EDGE('',*,*,#192,.F.);
#194=EDGE_LOOP('',(#169,#178,#186,#193));
#195=FACE_OUTER_BOUND('',#194,.T.);
#196=ADVANCED_FACE('',(#195),#159,.F.);
#197=CARTESIAN_POINT('',(0.5,-0.5,-1.110223E-016));
#198=DIRECTION('',(2.832749E-016,3.835365E-017,1.0));
#199=DIRECTION('',(-1.0,0.0,0.0));
#200=AXIS2_PLACEMENT_3D('',#197,#198,#199);
#201=CYLINDRICAL_SURFACE('',#200,0.140625);
#202=CARTESIAN_POINT('',(0.359375,-0.5,-1.110223E-016));
#203=VERTEX_POINT('',#202);
#204=CARTESIAN_POINT('',(0.359375,-0.5,0.188));
#205=VERTEX_POINT('',#204);
#206=CARTESIAN_POINT('',(0.359375,-0.5,-7.118677E-017));
#207=DIRECTION('',(0.0,0.0,1.0));
#208=VECTOR('',#207,0.188);
#209=LINE('',#206,#208);
#210=EDGE_CURVE('',#203,#205,#209,.T.);
#211=ORIENTED_EDGE('',*,*,#210,.F.);
#212=CARTESIAN_POINT('',(0.640625,-0.5,-1.508578E-016));
#213=VERTEX_POINT('',#212);
#214=CARTESIAN_POINT('',(0.5,-0.5,-1.110223E-016));
#215=DIRECTION('',(0.0,0.0,1.0));
#216=DIRECTION('',(-1.0,0.0,0.0));
#217=AXIS2_PLACEMENT_3D('',#214,#215,#216);
#218=CIRCLE('',#217,0.140625);
#219=EDGE_CURVE('',#213,#203,#218,.T.);
#220=ORIENTED_EDGE('',*,*,#219,.F.);
#221=CARTESIAN_POINT('',(0.640625,-0.499999999999999,0.188));
#222=VERTEX_POINT('',#221);
#223=CARTESIAN_POINT('',(0.640625,-0.5,-1.508578E-016));
#224=DIRECTION('',(0.0,0.0,1.0));
#225=VECTOR('',#224,0.188);
#226=LINE('',#223,#225);
#227=EDGE_CURVE('',#213,#222,#226,.T.);
#228=ORIENTED_EDGE('',*,*,#227,.T.);
#229=CARTESIAN_POINT('',(0.5,-0.5,0.188));
#230=DIRECTION('',(0.0,0.0,-1.0));
#231=DIRECTION('',(-1.0,0.0,0.0));
#232=AXIS2_PLACEMENT_3D('',#229,#230,#231);
#233=CIRCLE('',#232,0.140625);
#234=EDGE_CURVE('',#205,#222,#233,.T.);
#235=ORIENTED_EDGE('',*,*,#234,.F.);
#236=EDGE_LOOP('',(#211,#220,#228,#235));
#237=FACE_OUTER_BOUND('',#236,.T.);
#238=ADVANCED_FACE('',(#237),#201,.F.);
#239=CARTESIAN_POINT('',(0.5,-0.5,-1.110223E-016));
#240=DIRECTION('',(2.832749E-016,3.835365E-017,1.0));
#241=DIRECTION('',(-1.0,0.0,0.0));
#242=AXIS2_PLACEMENT_3D('',#239,#240,#241);
#243=CYLINDRICAL_SURFACE('',#242,0.140625);
#244=ORIENTED_EDGE('',*,*,#210,.T.);
#245=CARTESIAN_POINT('',(0.5,-0.5,0.188));
#246=DIRECTION('',(0.0,0.0,-1.0));
#247=DIRECTION('',(-1.0,0.0,0.0));
#248=AXIS2_PLACEMENT_3D('',#245,#246,#247);
#249=CIRCLE('',#248,0.140625);
#250=EDGE_CURVE('',#222,#205,#249,.T.);
#251=ORIENTED_EDGE('',*,*,#250,.F.);
#252=ORIENTED_EDGE('',*,*,#227,.F.);
#253=CARTESIAN_POINT('',(0.5,-0.5,-1.110223E-016));
#254=DIRECTION('',(0.0,0.0,1.0));
#255=DIRECTION('',(-1.0,0.0,0.0));
#256=AXIS2_PLACEMENT_3D('',#253,#254,#255);
#257=CIRCLE('',#256,0.140625);
#258=EDGE_CURVE('',#203,#213,#257,.T.);
#259=ORIENTED_EDGE('',*,*,#258,.F.);
#260=EDGE_LOOP('',(#244,#251,#252,#259));
#261=FACE_OUTER_BOUND('',#260,.T.);
#262=ADVANCED_FACE('',(#261),#243,.F.);
#263=CARTESIAN_POINT('',(-0.5,-0.5,1.110223E-016));
#264=DIRECTION('',(2.832749E-016,3.835365E-017,1.0));
#265=DIRECTION('',(-1.0,0.0,0.0));
#266=AXIS2_PLACEMENT_3D('',#263,#264,#265);
#267=CYLINDRICAL_SURFACE('',#266,0.140625);
#268=ORIENTED_EDGE('',*,*,#168,.T.);
#269=CARTESIAN_POINT('',(-0.5,-0.5,0.188));
#270=DIRECTION('',(0.0,0.0,-1.0));
#271=DIRECTION('',(-1.0,0.0,0.0));
#272=AXIS2_PLACEMENT_3D('',#269,#270,#271);
#273=CIRCLE('',#272,0.140625);
#274=EDGE_CURVE('',#180,#163,#273,.T.);
#275=ORIENTED_EDGE('',*,*,#274,.F.);
#276=ORIENTED_EDGE('',*,*,#185,.F.);
#277=CARTESIAN_POINT('',(-0.5,-0.5,3.330669E-016));
#278=DIRECTION('',(0.0,0.0,1.0));
#279=DIRECTION('',(-1.0,0.0,0.0));
#280=AXIS2_PLACEMENT_3D('',#277,#278,#279);
#281=CIRCLE('',#280,0.140625);
#282=EDGE_CURVE('',#161,#171,#281,.T.);
#283=ORIENTED_EDGE('',*,*,#282,.F.);
#284=EDGE_LOOP('',(#268,#275,#276,#283));
#285=FACE_OUTER_BOUND('',#284,.T.);
#286=ADVANCED_FACE('',(#285),#267,.F.);
#287=CARTESIAN_POINT('',(0.5,-2.220446E-016,0.5));
#288=DIRECTION('',(-3.445052E-016,-1.0,-1.836910E-016));
#289=DIRECTION('',(0.0,0.0,-1.0));
#290=AXIS2_PLACEMENT_3D('',#287,#288,#289);
#291=CYLINDRICAL_SURFACE('',#290,0.140625);
#292=ORIENTED_EDGE('',*,*,#126,.T.);
#293=CARTESIAN_POINT('',(0.5,-0.188,0.5));
#294=DIRECTION('',(0.0,1.0,0.0));
#295=DIRECTION('',(0.0,0.0,-1.0));
#296=AXIS2_PLACEMENT_3D('',#293,#294,#295);
#297=CIRCLE('',#296,0.140625);
#298=EDGE_CURVE('',#138,#121,#297,.T.);
#299=ORIENTED_EDGE('',*,*,#298,.F.);
#300=ORIENTED_EDGE('',*,*,#143,.F.);
#301=CARTESIAN_POINT('',(0.5,-4.440892E-016,0.5));
#302=DIRECTION('',(0.0,-1.0,0.0));
#303=DIRECTION('',(0.0,0.0,-1.0));
#304=AXIS2_PLACEMENT_3D('',#301,#302,#303);
#305=CIRCLE('',#304,0.140625);
#306=EDGE_CURVE('',#119,#129,#305,.T.);
#307=ORIENTED_EDGE('',*,*,#306,.F.);
#308=EDGE_LOOP('',(#292,#299,#300,#307));
#309=FACE_OUTER_BOUND('',#308,.T.);
#310=ADVANCED_FACE('',(#309),#291,.F.);
#311=CARTESIAN_POINT('',(-0.5,0.0,0.5));
#312=DIRECTION('',(-3.445052E-016,-1.0,-1.836910E-016));
#313=DIRECTION('',(0.0,0.0,-1.0));
#314=AXIS2_PLACEMENT_3D('',#311,#312,#313);
#315=CYLINDRICAL_SURFACE('',#314,0.140625);
#316=ORIENTED_EDGE('',*,*,#84,.T.);
#317=CARTESIAN_POINT('',(-0.5,-0.188,0.5));
#318=DIRECTION('',(0.0,1.0,0.0));
#319=DIRECTION('',(0.0,0.0,-1.0));
#320=AXIS2_PLACEMENT_3D('',#317,#318,#319);
#321=CIRCLE('',#320,0.140625);
#322=EDGE_CURVE('',#96,#79,#321,.T.);
#323=ORIENTED_EDGE('',*,*,#322,.F.);
#324=ORIENTED_EDGE('',*,*,#101,.F.);
#325=CARTESIAN_POINT('',(-0.5,0.0,0.5));
#326=DIRECTION('',(0.0,-1.0,0.0));
#327=DIRECTION('',(0.0,0.0,-1.0));
#328=AXIS2_PLACEMENT_3D('',#325,#326,#327);
#329=CIRCLE('',#328,0.140625);
#330=EDGE_CURVE('',#77,#87,#329,.T.);
#331=ORIENTED_EDGE('',*,*,#330,.F.);
#332=EDGE_LOOP('',(#316,#323,#324,#331));
#333=FACE_OUTER_BOUND('',#332,.T.);
#334=ADVANCED_FACE('',(#333),#315,.F.);
#335=CARTESIAN_POINT('',(-0.9375,-0.313,0.313));
#336=DIRECTION('',(1.0,-1.076577E-016,-2.832749E-016));
#337=DIRECTION('',(-1.241802E-016,0.707106781186548,-0.707106781186547));
#338=AXIS2_PLACEMENT_3D('',#335,#336,#337);
#339=CYLINDRICAL_SURFACE('',#338,0.125);
#340=CARTESIAN_POINT('',(0.9375,-0.313,0.188));
#341=VERTEX_POINT('',#340);
#342=CARTESIAN_POINT('',(0.9375,-0.188,0.313));
#343=VERTEX_POINT('',#342);
#344=CARTESIAN_POINT('',(0.9375,-0.313,0.313));
#345=DIRECTION('',(1.0,8.040714E-017,-8.040714E-017));
#346=DIRECTION('',(-1.137129E-016,0.707106781186548,-0.707106781186547));
#347=AXIS2_PLACEMENT_3D('',#344,#345,#346);
#348=CIRCLE('',#347,0.125);
#349=EDGE_CURVE('',#341,#343,#348,.T.);
#350=ORIENTED_EDGE('',*,*,#349,.T.);
#351=CARTESIAN_POINT('',(-0.9375,-0.188,0.313000000000001));
#352=VERTEX_POINT('',#351);
#353=CARTESIAN_POINT('',(-0.9375,-0.188,0.313000000000001));
#354=DIRECTION('',(1.0,0.0,0.0));
#355=VECTOR('',#354,1.875);
#356=LINE('',#353,#355);
#357=EDGE_CURVE('',#352,#343,#356,.T.);
#358=ORIENTED_EDGE('',*,*,#357,.F.);
#359=CARTESIAN_POINT('',(-0.9375,-0.313,0.188));
#360=VERTEX_POINT('',#359);
#361=CARTESIAN_POINT('',(-0.9375,-0.313,0.313));
#362=DIRECTION('',(1.0,8.040714E-017,-8.040714E-017));
#363=DIRECTION('',(-1.137129E-016,0.707106781186548,-0.707106781186547));
#364=AXIS2_PLACEMENT_3D('',#361,#362,#363);
#365=CIRCLE('',#364,0.125);
#366=EDGE_CURVE('',#360,#352,#365,.T.);
#367=ORIENTED_EDGE('',*,*,#366,.F.);
#368=CARTESIAN_POINT('',(-0.9375,-0.313,0.188));
#369=DIRECTION('',(1.0,0.0,0.0));
#370=VECTOR('',#369,1.875);
#371=LINE('',#368,#370);
#372=EDGE_CURVE('',#360,#341,#371,.T.);
#373=ORIENTED_EDGE('',*,*,#372,.T.);
#374=EDGE_LOOP('',(#350,#358,#367,#373));
#375=FACE_OUTER_BOUND('',#374,.T.);
#376=ADVANCED_FACE('',(#375),#339,.F.);
#377=CARTESIAN_POINT('',(-0.9375,-0.188,0.313000000000001));
#378=DIRECTION('',(0.0,-1.0,0.0));
#379=DIRECTION('',(0.0,0.0,-1.0));
#380=AXIS2_PLACEMENT_3D('',#377,#378,#379);
#381=PLANE('',#380);
#382=CARTESIAN_POINT('',(0.9375,-0.188,0.812));
#383=VERTEX_POINT('',#382);
#384=CARTESIAN_POINT('',(0.9375,-0.188,0.313));
#385=DIRECTION('',(0.0,0.0,1.0));
#386=VECTOR('',#385,0.499);
#387=LINE('',#384,#386);
#388=EDGE_CURVE('',#343,#383,#387,.T.);
#389=ORIENTED_EDGE('',*,*,#388,.T.);
#390=CARTESIAN_POINT('',(-0.9375,-0.188,0.812));
#391=VERTEX_POINT('',#390);
#392=CARTESIAN_POINT('',(-0.9375,-0.188,0.812));
#393=DIRECTION('',(1.0,0.0,0.0));
#394=VECTOR('',#393,1.875);
#395=LINE('',#392,#394);
#396=EDGE_CURVE('',#391,#383,#395,.T.);
#397=ORIENTED_EDGE('',*,*,#396,.F.);
#398=CARTESIAN_POINT('',(-0.9375,-0.188,0.313000000000001));
#399=DIRECTION('',(0.0,0.0,1.0));
#400=VECTOR('',#399,0.499);
#401=LINE('',#398,#400);
#402=EDGE_CURVE('',#352,#391,#401,.T.);
#403=ORIENTED_EDGE('',*,*,#402,.F.);
#404=ORIENTED_EDGE('',*,*,#357,.T.);
#405=EDGE_LOOP('',(#389,#397,#403,#404));
#406=FACE_OUTER_BOUND('',#405,.T.);
#407=ORIENTED_EDGE('',*,*,#298,.T.);
#408=ORIENTED_EDGE('',*,*,#150,.T.);
#409=EDGE_LOOP('',(#407,#408));
#410=FACE_BOUND('',#409,.T.);
#411=ORIENTED_EDGE('',*,*,#322,.T.);
#412=ORIENTED_EDGE('',*,*,#108,.T.);
#413=EDGE_LOOP('',(#411,#412));
#414=FACE_BOUND('',#413,.T.);
#415=ADVANCED_FACE('',(#406,#410,#414),#381,.T.);
#416=CARTESIAN_POINT('',(-0.9375,0.0,0.812));
#417=DIRECTION('',(1.0,-1.076577E-016,-2.832749E-016));
#418=DIRECTION('',(1.241802E-016,-0.707106781186547,0.707106781186547));
#419=AXIS2_PLACEMENT_3D('',#416,#417,#418);
#420=CYLINDRICAL_SURFACE('',#419,0.188);
#421=CARTESIAN_POINT('',(0.9375,-2.220446E-016,1.0));
#422=VERTEX_POINT('',#421);
#423=CARTESIAN_POINT('',(0.9375,-2.220446E-016,0.812));
#424=DIRECTION('',(-1.0,-8.040714E-017,8.040714E-017));
#425=DIRECTION('',(1.137129E-016,-0.707106781186547,0.707106781186547));
#426=AXIS2_PLACEMENT_3D('',#423,#424,#425);
#427=CIRCLE('',#426,0.188);
#428=EDGE_CURVE('',#383,#422,#427,.T.);
#429=ORIENTED_EDGE('',*,*,#428,.T.);
#430=CARTESIAN_POINT('',(-0.9375,0.0,1.0));
#431=VERTEX_POINT('',#430);
#432=CARTESIAN_POINT('',(-0.9375,0.0,1.0));
#433=DIRECTION('',(1.0,0.0,0.0));
#434=VECTOR('',#433,1.875);
#435=LINE('',#432,#434);
#436=EDGE_CURVE('',#431,#422,#435,.T.);
#437=ORIENTED_EDGE('',*,*,#436,.F.);
#438=CARTESIAN_POINT('',(-0.9375,0.0,0.812));
#439=DIRECTION('',(-1.0,-8.040714E-017,8.040714E-017));
#440=DIRECTION('',(1.137129E-016,-0.707106781186547,0.707106781186547));
#441=AXIS2_PLACEMENT_3D('',#438,#439,#440);
#442=CIRCLE('',#441,0.188);
#443=EDGE_CURVE('',#391,#431,#442,.T.);
#444=ORIENTED_EDGE('',*,*,#443,.F.);
#445=ORIENTED_EDGE('',*,*,#396,.T.);
#446=EDGE_LOOP('',(#429,#437,#444,#445));
#447=FACE_OUTER_BOUND('',#446,.T.);
#448=ADVANCED_FACE('',(#447),#420,.T.);
#449=CARTESIAN_POINT('',(-0.9375,0.0,1.0));
#450=DIRECTION('',(0.0,1.0,0.0));
#451=DIRECTION('',(0.0,0.0,1.0));
#452=AXIS2_PLACEMENT_3D('',#449,#450,#451);
#453=PLANE('',#452);
#454=CARTESIAN_POINT('',(0.9375,0.0,-3.330669E-016));
#455=VERTEX_POINT('',#454);
#456=CARTESIAN_POINT('',(0.9375,-2.220446E-016,1.0));
#457=DIRECTION('',(0.0,0.0,-1.0));
#458=VECTOR('',#457,1.0);
#459=LINE('',#456,#458);
#460=EDGE_CURVE('',#422,#455,#459,.T.);
#461=ORIENTED_EDGE('',*,*,#460,.T.);
#462=CARTESIAN_POINT('',(-0.9375,0.0,3.330669E-016));
#463=VERTEX_POINT('',#462);
#464=CARTESIAN_POINT('',(-0.9375,0.0,3.330669E-016));
#465=DIRECTION('',(1.0,0.0,0.0));
#466=VECTOR('',#465,1.875);
#467=LINE('',#464,#466);
#468=EDGE_CURVE('',#463,#455,#467,.T.);
#469=ORIENTED_EDGE('',*,*,#468,.F.);
#470=CARTESIAN_POINT('',(-0.9375,0.0,1.0));
#471=DIRECTION('',(0.0,0.0,-1.0));
#472=VECTOR('',#471,1.0);
#473=LINE('',#470,#472);
#474=EDGE_CURVE('',#431,#463,#473,.T.);
#475=ORIENTED_EDGE('',*,*,#474,.F.);
#476=ORIENTED_EDGE('',*,*,#436,.T.);
#477=EDGE_LOOP('',(#461,#469,#475,#476));
#478=FACE_OUTER_BOUND('',#477,.T.);
#479=ORIENTED_EDGE('',*,*,#306,.T.);
#480=ORIENTED_EDGE('',*,*,#135,.T.);
#481=EDGE_LOOP('',(#479,#480));
#482=FACE_BOUND('',#481,.T.);
#483=ORIENTED_EDGE('',*,*,#330,.T.);
#484=ORIENTED_EDGE('',*,*,#93,.T.);
#485=EDGE_LOOP('',(#483,#484));
#486=FACE_BOUND('',#485,.T.);
#487=ADVANCED_FACE('',(#478,#482,#486),#453,.T.);
#488=CARTESIAN_POINT('',(-0.9375,0.0,3.330669E-016));
#489=DIRECTION('',(0.0,0.0,-1.0));
#490=DIRECTION('',(0.0,1.0,0.0));
#491=AXIS2_PLACEMENT_3D('',#488,#489,#490);
#492=PLANE('',#491);
#493=CARTESIAN_POINT('',(0.9375,-1.0,-5.551115E-016));
#494=VERTEX_POINT('',#493);
#495=CARTESIAN_POINT('',(0.9375,0.0,-3.330669E-016));
#496=DIRECTION('',(0.0,-1.0,0.0));
#497=VECTOR('',#496,1.0);
#498=LINE('',#495,#497);
#499=EDGE_CURVE('',#455,#494,#498,.T.);
#500=ORIENTED_EDGE('',*,*,#499,.T.);
#501=CARTESIAN_POINT('',(-0.9375,-1.0,1.110223E-016));
#502=VERTEX_POINT('',#501);
#503=CARTESIAN_POINT('',(-0.9375,-1.0,1.110223E-016));
#504=DIRECTION('',(1.0,0.0,0.0));
#505=VECTOR('',#504,1.875);
#506=LINE('',#503,#505);
#507=EDGE_CURVE('',#502,#494,#506,.T.);
#508=ORIENTED_EDGE('',*,*,#507,.F.);
#509=CARTESIAN_POINT('',(-0.9375,0.0,3.330669E-016));
#510=DIRECTION('',(0.0,-1.0,0.0));
#511=VECTOR('',#510,1.0);
#512=LINE('',#509,#511);
#513=EDGE_CURVE('',#463,#502,#512,.T.);
#514=ORIENTED_EDGE('',*,*,#513,.F.);
#515=ORIENTED_EDGE('',*,*,#468,.T.);
#516=EDGE_LOOP('',(#500,#508,#514,#515));
#517=FACE_OUTER_BOUND('',#516,.T.);
#518=ORIENTED_EDGE('',*,*,#258,.T.);
#519=ORIENTED_EDGE('',*,*,#219,.T.);
#520=EDGE_LOOP('',(#518,#519));
#521=FACE_BOUND('',#520,.T.);
#522=ORIENTED_EDGE('',*,*,#282,.T.);
#523=ORIENTED_EDGE('',*,*,#177,.T.);
#524=EDGE_LOOP('',(#522,#523));
#525=FACE_BOUND('',#524,.T.);
#526=ADVANCED_FACE('',(#517,#521,#525),#492,.T.);
#527=CARTESIAN_POINT('',(-0.9375,-0.812,2.220446E-016));
#528=DIRECTION('',(1.0,-1.076577E-016,-2.832749E-016));
#529=DIRECTION('',(1.241802E-016,-0.707106781186548,0.707106781186547));
#530=AXIS2_PLACEMENT_3D('',#527,#528,#529);
#531=CYLINDRICAL_SURFACE('',#530,0.188);
#532=CARTESIAN_POINT('',(0.9375,-0.812,0.188));
#533=VERTEX_POINT('',#532);
#534=CARTESIAN_POINT('',(0.9375,-0.812,-4.440892E-016));
#535=DIRECTION('',(-1.0,-8.040714E-017,8.040714E-017));
#536=DIRECTION('',(1.137129E-016,-0.707106781186548,0.707106781186547));
#537=AXIS2_PLACEMENT_3D('',#534,#535,#536);
#538=CIRCLE('',#537,0.188);
#539=EDGE_CURVE('',#494,#533,#538,.T.);
#540=ORIENTED_EDGE('',*,*,#539,.T.);
#541=CARTESIAN_POINT('',(-0.9375,-0.812,0.188));
#542=VERTEX_POINT('',#541);
#543=CARTESIAN_POINT('',(-0.9375,-0.812,0.188));
#544=DIRECTION('',(1.0,0.0,0.0));
#545=VECTOR('',#544,1.875);
#546=LINE('',#543,#545);
#547=EDGE_CURVE('',#542,#533,#546,.T.);
#548=ORIENTED_EDGE('',*,*,#547,.F.);
#549=CARTESIAN_POINT('',(-0.9375,-0.812,2.220446E-016));
#550=DIRECTION('',(-1.0,-8.040714E-017,8.040714E-017));
#551=DIRECTION('',(1.137129E-016,-0.707106781186548,0.707106781186547));
#552=AXIS2_PLACEMENT_3D('',#549,#550,#551);
#553=CIRCLE('',#552,0.188);
#554=EDGE_CURVE('',#502,#542,#553,.T.);
#555=ORIENTED_EDGE('',*,*,#554,.F.);
#556=ORIENTED_EDGE('',*,*,#507,.T.);
#557=EDGE_LOOP('',(#540,#548,#555,#556));
#558=FACE_OUTER_BOUND('',#557,.T.);
#559=ADVANCED_FACE('',(#558),#531,.T.);
#560=CARTESIAN_POINT('',(-0.9375,-0.812,0.188));
#561=DIRECTION('',(0.0,0.0,1.0));
#562=DIRECTION('',(0.0,-1.0,0.0));
#563=AXIS2_PLACEMENT_3D('',#560,#561,#562);
#564=PLANE('',#563);
#565=CARTESIAN_POINT('',(0.9375,-0.812,0.188));
#566=DIRECTION('',(0.0,1.0,0.0));
#567=VECTOR('',#566,0.499);
#568=LINE('',#565,#567);
#569=EDGE_CURVE('',#533,#341,#568,.T.);
#570=ORIENTED_EDGE('',*,*,#569,.T.);
#571=ORIENTED_EDGE('',*,*,#372,.F.);
#572=CARTESIAN_POINT('',(-0.9375,-0.812,0.188));
#573=DIRECTION('',(0.0,1.0,0.0));
#574=VECTOR('',#573,0.499);
#575=LINE('',#572,#574);
#576=EDGE_CURVE('',#542,#360,#575,.T.);
#577=ORIENTED_EDGE('',*,*,#576,.F.);
#578=ORIENTED_EDGE('',*,*,#547,.T.);
#579=EDGE_LOOP('',(#570,#571,#577,#578));
#580=FACE_OUTER_BOUND('',#579,.T.);
#581=ORIENTED_EDGE('',*,*,#250,.T.);
#582=ORIENTED_EDGE('',*,*,#234,.T.);
#583=EDGE_LOOP('',(#581,#582));
#584=FACE_BOUND('',#583,.T.);
#585=ORIENTED_EDGE('',*,*,#274,.T.);
#586=ORIENTED_EDGE('',*,*,#192,.T.);
#587=EDGE_LOOP('',(#585,#586));
#588=FACE_BOUND('',#587,.T.);
#589=ADVANCED_FACE('',(#580,#584,#588),#564,.T.);
#590=CARTESIAN_POINT('',(0.9375,-0.313,0.188));
#591=DIRECTION('',(-1.0,0.0,0.0));
#592=DIRECTION('',(0.0,1.0,0.0));
#593=AXIS2_PLACEMENT_3D('',#590,#591,#592);
#594=PLANE('',#593);
#595=ORIENTED_EDGE('',*,*,#349,.F.);
#596=ORIENTED_EDGE('',*,*,#569,.F.);
#597=ORIENTED_EDGE('',*,*,#539,.F.);
#598=ORIENTED_EDGE('',*,*,#499,.F.);
#599=ORIENTED_EDGE('',*,*,#460,.F.);
#600=ORIENTED_EDGE('',*,*,#428,.F.);
#601=ORIENTED_EDGE('',*,*,#388,.F.);
#602=EDGE_LOOP('',(#595,#596,#597,#598,#599,#600,#601));
#603=FACE_OUTER_BOUND('',#602,.T.);
#604=ADVANCED_FACE('',(#603),#594,.F.);
#605=CARTESIAN_POINT('',(-0.9375,-0.380348380207782,0.380348380207783));
#606=DIRECTION('',(-1.0,0.0,0.0));
#607=DIRECTION('',(0.0,1.0,0.0));
#608=AXIS2_PLACEMENT_3D('',#605,#606,#607);
#609=PLANE('',#608);
#610=ORIENTED_EDGE('',*,*,#576,.T.);
#611=ORIENTED_EDGE('',*,*,#366,.T.);
#612=ORIENTED_EDGE('',*,*,#402,.T.);
#613=ORIENTED_EDGE('',*,*,#443,.T.);
#614=ORIENTED_EDGE('',*,*,#474,.T.);
#615=ORIENTED_EDGE('',*,*,#513,.T.);
#616=ORIENTED_EDGE('',*,*,#554,.T.);
#617=EDGE_LOOP('',(#610,#611,#612,#613,#614,#615,#616));
#618=FACE_OUTER_BOUND('',#617,.T.);
#619=ADVANCED_FACE('',(#618),#609,.T.);
#620=CLOSED_SHELL('',(#112,#154,#196,#238,#262,#286,#310,#334,#376,#415,#448,#487,#526,#559,#589,#604,#619));
#621=MANIFOLD_SOLID_BREP('31',#620);
#622=DRAUGHTING_PRE_DEFINED_COLOUR('white');
#623=SURFACE_STYLE_USAGE(.BOTH.,#624);
#624=SURFACE_SIDE_STYLE('NONE',(#625));
#625=SURFACE_STYLE_FILL_AREA(#626);
#626=FILL_AREA_STYLE('NONE',(#627));
#627=FILL_AREA_STYLE_COLOUR('NONE',#622);
#628=PRESENTATION_STYLE_ASSIGNMENT((#623));
#629=STYLED_ITEM('NONE',(#628),#621);
#630=MECHANICAL_DESIGN_GEOMETRIC_PRESENTATION_REPRESENTATION('NONE',(#629),#34);
#631=PRESENTATION_LAYER_ASSIGNMENT('10cb4104','None',(#621));
#632=ADVANCED_BREP_SHAPE_REPRESENTATION('ABSR1',(#621),#34);
#633=SHAPE_REPRESENTATION_RELATIONSHIP('SRRPL1','',#632,#68);
ENDSEC;
END-ISO-10303-21;
