ISO-10303-21;
HEADER;
/****************************************************************
 * Generated by software with PDElib inside                    *
 * PDElib Version v51a, created Fri 09/10/2010                  *
 * ITI Transcendata (http://www.transcendata.com/)              *
 ****************************************************************/
FILE_DESCRIPTION((''),'2;1');
FILE_NAME('10AC7810.stp','2015-07-07T09:52:35',(''),(''),'Mechanical Desktop 2011','Mechanical Desktop 2011',', , ');
FILE_SCHEMA(('CONFIG_CONTROL_DESIGN'));
ENDSEC;
DATA;
#10=(NAMED_UNIT(*)PLANE_ANGLE_UNIT()SI_UNIT($,.RADIAN.));
#11=DIMENSIONAL_EXPONENTS(0.0,0.0,0.0,0.0,0.0,0.0,0.0);
#12=PLANE_ANGLE_MEASURE_WITH_UNIT(PLANE_ANGLE_MEASURE(0.0174532925),#10);
#16=(CONVERSION_BASED_UNIT('DEGREE',#12)NAMED_UNIT(#11)PLANE_ANGLE_UNIT());
#20=(NAMED_UNIT(*)SI_UNIT($,.STERADIAN.)SOLID_ANGLE_UNIT());
#24=(LENGTH_UNIT()NAMED_UNIT(*)SI_UNIT(.MILLI.,.METRE.));
#26=UNCERTAINTY_MEASURE_WITH_UNIT(LENGTH_MEASURE(0.000001),#24,'DISTANCE_ACCURACY_VALUE','');
#28=(GEOMETRIC_REPRESENTATION_CONTEXT(3)GLOBAL_UNCERTAINTY_ASSIGNED_CONTEXT((#26))GLOBAL_UNIT_ASSIGNED_CONTEXT((#16,#20,#24))REPRESENTATION_CONTEXT('','3D'));
#29=APPLICATION_CONTEXT('CONFIGURATION CONTROLLED 3D DESIGNS OF MECHANICAL PARTS AND ASSEMBLIES');
#30=APPLICATION_PROTOCOL_DEFINITION('INTERNATIONAL STANDARD','config_control_design',1995,#29);
#31=MECHANICAL_CONTEXT('3D Mechanical Parts',#29,'mechanical');
#32=PRODUCT('Product','Product',' ',(#31));
#33=PRODUCT_RELATED_PRODUCT_CATEGORY('detail',$,(#32));
#34=PRODUCT_CATEGORY('part',$);
#35=PRODUCT_CATEGORY_RELATIONSHIP('None','None',#34,#33);
#36=PERSON('1','Design','Joe',$,$,$);
#37=ORGANIZATION($,'None','None');
#38=PERSON_AND_ORGANIZATION(#36,#37);
#39=PERSON_AND_ORGANIZATION_ROLE('design_owner');
#40=CC_DESIGN_PERSON_AND_ORGANIZATION_ASSIGNMENT(#38,#39,(#32));
#41=PRODUCT_DEFINITION_FORMATION_WITH_SPECIFIED_SOURCE('None','None',#32,.BOUGHT.);
#42=PERSON('2','Creator','Joe',$,$,$);
#43=ORGANIZATION($,'None','None');
#44=PERSON_AND_ORGANIZATION(#42,#43);
#45=PERSON_AND_ORGANIZATION_ROLE('creator');
#46=CC_DESIGN_PERSON_AND_ORGANIZATION_ASSIGNMENT(#44,#45,(#41));
#47=PERSON('3','Supplier','Joe',$,$,$);
#48=ORGANIZATION($,'None','None');
#49=PERSON_AND_ORGANIZATION(#47,#48);
#50=PERSON_AND_ORGANIZATION_ROLE('design_supplier');
#51=CC_DESIGN_PERSON_AND_ORGANIZATION_ASSIGNMENT(#49,#50,(#41));
#52=APPROVAL_STATUS('approved');
#53=APPROVAL(#52,'None');
#54=PERSON('4','Approver','Joe',$,$,$);
#55=ORGANIZATION($,'None','None');
#56=PERSON_AND_ORGANIZATION(#54,#55);
#57=APPROVAL_ROLE('approver');
#58=APPROVAL_PERSON_ORGANIZATION(#56,#53,#57);
#59=COORDINATED_UNIVERSAL_TIME_OFFSET(8,$,.EXACT.);
#60=CALENDAR_DATE(1996,29,5);
#61=LOCAL_TIME(12,0,0.0,#59);
#62=DATE_AND_TIME(#60,#61);
#63=APPROVAL_DATE_TIME(#62,#53);
#64=CC_DESIGN_APPROVAL(#53,(#41));
#65=SECURITY_CLASSIFICATION_LEVEL('unclassified');
#66=SECURITY_CLASSIFICATION('security','None',#65);
#67=CC_DESIGN_SECURITY_CLASSIFICATION(#66,(#41));
#68=APPROVAL_STATUS('approved');
#69=APPROVAL(#68,'None');
#70=PERSON('5','Approver','Joe',$,$,$);
#71=ORGANIZATION($,'None','None');
#72=PERSON_AND_ORGANIZATION(#70,#71);
#73=APPROVAL_ROLE('approver');
#74=APPROVAL_PERSON_ORGANIZATION(#72,#69,#73);
#75=COORDINATED_UNIVERSAL_TIME_OFFSET(8,$,.EXACT.);
#76=CALENDAR_DATE(1996,29,5);
#77=LOCAL_TIME(12,0,0.0,#75);
#78=DATE_AND_TIME(#76,#77);
#79=APPROVAL_DATE_TIME(#78,#69);
#80=CC_DESIGN_APPROVAL(#69,(#66));
#81=PERSON('6','Classifier','Joe',$,$,$);
#82=ORGANIZATION($,'None','None');
#83=PERSON_AND_ORGANIZATION(#81,#82);
#84=PERSON_AND_ORGANIZATION_ROLE('classification_officer');
#85=CC_DESIGN_PERSON_AND_ORGANIZATION_ASSIGNMENT(#83,#84,(#66));
#86=COORDINATED_UNIVERSAL_TIME_OFFSET(8,$,.EXACT.);
#87=CALENDAR_DATE(1996,29,5);
#88=LOCAL_TIME(12,0,0.0,#86);
#89=DATE_AND_TIME(#87,#88);
#90=DATE_TIME_ROLE('classification_date');
#91=CC_DESIGN_DATE_AND_TIME_ASSIGNMENT(#89,#90,(#66));
#92=DESIGN_CONTEXT('Design Context',#29,'design');
#93=PRODUCT_DEFINITION('None','None',#41,#92);
#94=PERSON('7','Creator','Joe',$,$,$);
#95=ORGANIZATION($,'None','None');
#96=PERSON_AND_ORGANIZATION(#94,#95);
#97=PERSON_AND_ORGANIZATION_ROLE('creator');
#98=CC_DESIGN_PERSON_AND_ORGANIZATION_ASSIGNMENT(#96,#97,(#93));
#99=COORDINATED_UNIVERSAL_TIME_OFFSET(8,$,.EXACT.);
#100=CALENDAR_DATE(1996,29,5);
#101=LOCAL_TIME(12,0,0.0,#99);
#102=DATE_AND_TIME(#100,#101);
#103=DATE_TIME_ROLE('creation_date');
#104=CC_DESIGN_DATE_AND_TIME_ASSIGNMENT(#102,#103,(#93));
#105=APPROVAL_STATUS('approved');
#106=APPROVAL(#105,'None');
#107=PERSON('8','Approver','Joe',$,$,$);
#108=ORGANIZATION($,'None','None');
#109=PERSON_AND_ORGANIZATION(#107,#108);
#110=APPROVAL_ROLE('approver');
#111=APPROVAL_PERSON_ORGANIZATION(#109,#106,#110);
#112=COORDINATED_UNIVERSAL_TIME_OFFSET(8,$,.EXACT.);
#113=CALENDAR_DATE(1996,29,5);
#114=LOCAL_TIME(12,0,0.0,#112);
#115=DATE_AND_TIME(#113,#114);
#116=APPROVAL_DATE_TIME(#115,#106);
#117=CC_DESIGN_APPROVAL(#106,(#93));
#118=CARTESIAN_POINT('NONE',(0.0,0.0,0.0));
#119=DIRECTION('NONE',(0.0,0.0,1.0));
#120=DIRECTION('NONE',(1.0,0.0,0.0));
#121=AXIS2_PLACEMENT_3D('NONE',#118,#119,#120);
#122=SHAPE_REPRESENTATION('SR1',(#121),#28);
#123=PRODUCT_DEFINITION_SHAPE('PDS1','Test Part',#93);
#124=SHAPE_DEFINITION_REPRESENTATION(#123,#122);
#125=CARTESIAN_POINT('',(0.0,0.438,0.0));
#126=DIRECTION('',(0.0,0.0,1.0));
#127=DIRECTION('',(0.0,1.0,0.0));
#128=AXIS2_PLACEMENT_3D('',#125,#126,#127);
#129=CYLINDRICAL_SURFACE('',#128,0.14);
#130=CARTESIAN_POINT('',(0.0,0.578,0.0));
#131=VERTEX_POINT('',#130);
#132=CARTESIAN_POINT('',(0.0,0.578,0.188));
#133=VERTEX_POINT('',#132);
#134=CARTESIAN_POINT('',(8.572244E-018,0.578,0.0));
#135=DIRECTION('',(0.0,0.0,1.0));
#136=VECTOR('',#135,0.187999999999999);
#137=LINE('',#134,#136);
#138=EDGE_CURVE('',#131,#133,#137,.T.);
#139=ORIENTED_EDGE('',*,*,#138,.F.);
#140=CARTESIAN_POINT('',(8.572811E-018,0.298,-7.613934E-033));
#141=VERTEX_POINT('',#140);
#142=CARTESIAN_POINT('',(0.0,0.438,0.0));
#143=DIRECTION('',(0.0,0.0,1.0));
#144=DIRECTION('',(0.0,1.0,0.0));
#145=AXIS2_PLACEMENT_3D('',#142,#143,#144);
#146=CIRCLE('',#145,0.14);
#147=EDGE_CURVE('',#141,#131,#146,.T.);
#148=ORIENTED_EDGE('',*,*,#147,.F.);
#149=CARTESIAN_POINT('',(8.572811E-018,0.298,0.187999999999999));
#150=VERTEX_POINT('',#149);
#151=CARTESIAN_POINT('',(8.572811E-018,0.298,-7.613934E-033));
#152=DIRECTION('',(0.0,0.0,1.0));
#153=VECTOR('',#152,0.187999999999999);
#154=LINE('',#151,#153);
#155=EDGE_CURVE('',#141,#150,#154,.T.);
#156=ORIENTED_EDGE('',*,*,#155,.T.);
#157=CARTESIAN_POINT('',(0.0,0.438,0.187999999999999));
#158=DIRECTION('',(0.0,0.0,-1.0));
#159=DIRECTION('',(0.0,1.0,0.0));
#160=AXIS2_PLACEMENT_3D('',#157,#158,#159);
#161=CIRCLE('',#160,0.14);
#162=EDGE_CURVE('',#133,#150,#161,.T.);
#163=ORIENTED_EDGE('',*,*,#162,.F.);
#164=EDGE_LOOP('',(#139,#148,#156,#163));
#165=FACE_OUTER_BOUND('',#164,.T.);
#166=ADVANCED_FACE('',(#165),#129,.F.);
#167=CARTESIAN_POINT('',(4.440892E-016,1.546000000000001,-0.375));
#168=DIRECTION('',(0.0,0.0,1.0));
#169=DIRECTION('',(0.0,1.0,0.0));
#170=AXIS2_PLACEMENT_3D('',#167,#168,#169);
#171=CYLINDRICAL_SURFACE('',#170,0.1);
#172=CARTESIAN_POINT('',(4.440892E-016,1.646000000000001,-0.375));
#173=VERTEX_POINT('',#172);
#174=CARTESIAN_POINT('',(4.440892E-016,1.646000000000001,-0.187));
#175=VERTEX_POINT('',#174);
#176=CARTESIAN_POINT('',(4.502122E-016,1.646000000000001,-0.375));
#177=DIRECTION('',(0.0,0.0,1.0));
#178=VECTOR('',#177,0.188);
#179=LINE('',#176,#178);
#180=EDGE_CURVE('',#173,#175,#179,.T.);
#181=ORIENTED_EDGE('',*,*,#180,.F.);
#182=CARTESIAN_POINT('',(4.502126E-016,1.446000000000001,-0.375));
#183=VERTEX_POINT('',#182);
#184=CARTESIAN_POINT('',(4.440892E-016,1.546000000000001,-0.375));
#185=DIRECTION('',(0.0,0.0,1.0));
#186=DIRECTION('',(0.0,1.0,0.0));
#187=AXIS2_PLACEMENT_3D('',#184,#185,#186);
#188=CIRCLE('',#187,0.1);
#189=EDGE_CURVE('',#183,#173,#188,.T.);
#190=ORIENTED_EDGE('',*,*,#189,.F.);
#191=CARTESIAN_POINT('',(4.502126E-016,1.446000000000001,-0.186999999999998));
#192=VERTEX_POINT('',#191);
#193=CARTESIAN_POINT('',(4.502126E-016,1.446000000000001,-0.375));
#194=DIRECTION('',(0.0,0.0,1.0));
#195=VECTOR('',#194,0.188000000000002);
#196=LINE('',#193,#195);
#197=EDGE_CURVE('',#183,#192,#196,.T.);
#198=ORIENTED_EDGE('',*,*,#197,.T.);
#199=CARTESIAN_POINT('',(4.440892E-016,1.546000000000001,-0.186999999999998));
#200=DIRECTION('',(0.0,0.0,-1.0));
#201=DIRECTION('',(0.0,1.0,0.0));
#202=AXIS2_PLACEMENT_3D('',#199,#200,#201);
#203=CIRCLE('',#202,0.1);
#204=EDGE_CURVE('',#175,#192,#203,.T.);
#205=ORIENTED_EDGE('',*,*,#204,.F.);
#206=EDGE_LOOP('',(#181,#190,#198,#205));
#207=FACE_OUTER_BOUND('',#206,.T.);
#208=ADVANCED_FACE('',(#207),#171,.F.);
#209=CARTESIAN_POINT('',(4.440892E-016,1.546000000000001,-0.375));
#210=DIRECTION('',(0.0,0.0,1.0));
#211=DIRECTION('',(0.0,1.0,0.0));
#212=AXIS2_PLACEMENT_3D('',#209,#210,#211);
#213=CYLINDRICAL_SURFACE('',#212,0.1);
#214=ORIENTED_EDGE('',*,*,#180,.T.);
#215=CARTESIAN_POINT('',(4.440892E-016,1.546000000000001,-0.186999999999998));
#216=DIRECTION('',(0.0,0.0,-1.0));
#217=DIRECTION('',(0.0,1.0,0.0));
#218=AXIS2_PLACEMENT_3D('',#215,#216,#217);
#219=CIRCLE('',#218,0.1);
#220=EDGE_CURVE('',#192,#175,#219,.T.);
#221=ORIENTED_EDGE('',*,*,#220,.F.);
#222=ORIENTED_EDGE('',*,*,#197,.F.);
#223=CARTESIAN_POINT('',(4.440892E-016,1.546000000000001,-0.375));
#224=DIRECTION('',(0.0,0.0,1.0));
#225=DIRECTION('',(0.0,1.0,0.0));
#226=AXIS2_PLACEMENT_3D('',#223,#224,#225);
#227=CIRCLE('',#226,0.1);
#228=EDGE_CURVE('',#173,#183,#227,.T.);
#229=ORIENTED_EDGE('',*,*,#228,.F.);
#230=EDGE_LOOP('',(#214,#221,#222,#229));
#231=FACE_OUTER_BOUND('',#230,.T.);
#232=ADVANCED_FACE('',(#231),#213,.F.);
#233=CARTESIAN_POINT('',(0.0,0.438,0.0));
#234=DIRECTION('',(0.0,0.0,1.0));
#235=DIRECTION('',(0.0,1.0,0.0));
#236=AXIS2_PLACEMENT_3D('',#233,#234,#235);
#237=CYLINDRICAL_SURFACE('',#236,0.14);
#238=ORIENTED_EDGE('',*,*,#138,.T.);
#239=CARTESIAN_POINT('',(0.0,0.438,0.187999999999999));
#240=DIRECTION('',(0.0,0.0,-1.0));
#241=DIRECTION('',(0.0,1.0,0.0));
#242=AXIS2_PLACEMENT_3D('',#239,#240,#241);
#243=CIRCLE('',#242,0.14);
#244=EDGE_CURVE('',#150,#133,#243,.T.);
#245=ORIENTED_EDGE('',*,*,#244,.F.);
#246=ORIENTED_EDGE('',*,*,#155,.F.);
#247=CARTESIAN_POINT('',(0.0,0.438,0.0));
#248=DIRECTION('',(0.0,0.0,1.0));
#249=DIRECTION('',(0.0,1.0,0.0));
#250=AXIS2_PLACEMENT_3D('',#247,#248,#249);
#251=CIRCLE('',#250,0.14);
#252=EDGE_CURVE('',#131,#141,#251,.T.);
#253=ORIENTED_EDGE('',*,*,#252,.F.);
#254=EDGE_LOOP('',(#238,#245,#246,#253));
#255=FACE_OUTER_BOUND('',#254,.T.);
#256=ADVANCED_FACE('',(#255),#237,.F.);
#257=CARTESIAN_POINT('',(0.5,2.220446E-016,0.0));
#258=DIRECTION('',(0.0,0.0,-1.0));
#259=DIRECTION('',(0.0,-1.0,0.0));
#260=AXIS2_PLACEMENT_3D('',#257,#258,#259);
#261=PLANE('',#260);
#262=CARTESIAN_POINT('',(-0.5,8.881784E-016,2.220446E-016));
#263=VERTEX_POINT('',#262);
#264=CARTESIAN_POINT('',(-0.5,0.854000000000001,6.106227E-016));
#265=VERTEX_POINT('',#264);
#266=CARTESIAN_POINT('',(-0.5,8.881784E-016,2.220446E-016));
#267=DIRECTION('',(0.0,1.0,0.0));
#268=VECTOR('',#267,0.854);
#269=LINE('',#266,#268);
#270=EDGE_CURVE('',#263,#265,#269,.T.);
#271=ORIENTED_EDGE('',*,*,#270,.T.);
#272=CARTESIAN_POINT('',(0.5,0.854000000000001,3.885781E-016));
#273=VERTEX_POINT('',#272);
#274=CARTESIAN_POINT('',(0.5,0.854000000000001,3.885781E-016));
#275=DIRECTION('',(-1.0,0.0,0.0));
#276=VECTOR('',#275,1.0);
#277=LINE('',#274,#276);
#278=EDGE_CURVE('',#273,#265,#277,.T.);
#279=ORIENTED_EDGE('',*,*,#278,.F.);
#280=CARTESIAN_POINT('',(0.5,2.220446E-016,0.0));
#281=VERTEX_POINT('',#280);
#282=CARTESIAN_POINT('',(0.5,2.220446E-016,0.0));
#283=DIRECTION('',(0.0,1.0,0.0));
#284=VECTOR('',#283,0.854000000000001);
#285=LINE('',#282,#284);
#286=EDGE_CURVE('',#281,#273,#285,.T.);
#287=ORIENTED_EDGE('',*,*,#286,.F.);
#288=CARTESIAN_POINT('',(0.5,2.220446E-016,0.0));
#289=DIRECTION('',(-1.0,0.0,0.0));
#290=VECTOR('',#289,1.0);
#291=LINE('',#288,#290);
#292=EDGE_CURVE('',#281,#263,#291,.T.);
#293=ORIENTED_EDGE('',*,*,#292,.T.);
#294=EDGE_LOOP('',(#271,#279,#287,#293));
#295=FACE_OUTER_BOUND('',#294,.T.);
#296=ORIENTED_EDGE('',*,*,#252,.T.);
#297=ORIENTED_EDGE('',*,*,#147,.T.);
#298=EDGE_LOOP('',(#296,#297));
#299=FACE_BOUND('',#298,.T.);
#300=ADVANCED_FACE('',(#295,#299),#261,.T.);
#301=CARTESIAN_POINT('',(0.5,0.854000000000001,-0.083999999999999));
#302=DIRECTION('',(-1.0,5.053195E-016,2.220446E-016));
#303=DIRECTION('',(5.143241E-016,0.707106781186547,0.707106781186548));
#304=AXIS2_PLACEMENT_3D('',#301,#302,#303);
#305=CYLINDRICAL_SURFACE('',#304,0.084);
#306=CARTESIAN_POINT('',(-0.5,0.938000000000001,-0.083999999999999));
#307=VERTEX_POINT('',#306);
#308=CARTESIAN_POINT('',(-0.5,0.854000000000002,-0.083999999999999));
#309=DIRECTION('',(-1.0,3.253284E-016,3.253284E-016));
#310=DIRECTION('',(4.600839E-016,0.707106781186547,0.707106781186548));
#311=AXIS2_PLACEMENT_3D('',#308,#309,#310);
#312=CIRCLE('',#311,0.084);
#313=EDGE_CURVE('',#265,#307,#312,.T.);
#314=ORIENTED_EDGE('',*,*,#313,.T.);
#315=CARTESIAN_POINT('',(0.5,0.938000000000001,-0.084));
#316=VERTEX_POINT('',#315);
#317=CARTESIAN_POINT('',(0.5,0.938000000000001,-0.084));
#318=DIRECTION('',(-1.0,0.0,0.0));
#319=VECTOR('',#318,1.0);
#320=LINE('',#317,#319);
#321=EDGE_CURVE('',#316,#307,#320,.T.);
#322=ORIENTED_EDGE('',*,*,#321,.F.);
#323=CARTESIAN_POINT('',(0.5,0.854000000000001,-0.083999999999999));
#324=DIRECTION('',(-1.0,3.253284E-016,3.253284E-016));
#325=DIRECTION('',(4.600839E-016,0.707106781186547,0.707106781186548));
#326=AXIS2_PLACEMENT_3D('',#323,#324,#325);
#327=CIRCLE('',#326,0.084);
#328=EDGE_CURVE('',#273,#316,#327,.T.);
#329=ORIENTED_EDGE('',*,*,#328,.F.);
#330=ORIENTED_EDGE('',*,*,#278,.T.);
#331=EDGE_LOOP('',(#314,#322,#329,#330));
#332=FACE_OUTER_BOUND('',#331,.T.);
#333=ADVANCED_FACE('',(#332),#305,.F.);
#334=CARTESIAN_POINT('',(0.5,0.938000000000001,-0.084));
#335=DIRECTION('',(0.0,-1.0,0.0));
#336=DIRECTION('',(0.0,0.0,1.0));
#337=AXIS2_PLACEMENT_3D('',#334,#335,#336);
#338=PLANE('',#337);
#339=CARTESIAN_POINT('',(-0.5,0.938000000000001,-0.375));
#340=VERTEX_POINT('',#339);
#341=CARTESIAN_POINT('',(-0.5,0.938000000000001,-0.083999999999999));
#342=DIRECTION('',(0.0,0.0,-1.0));
#343=VECTOR('',#342,0.291);
#344=LINE('',#341,#343);
#345=EDGE_CURVE('',#307,#340,#344,.T.);
#346=ORIENTED_EDGE('',*,*,#345,.T.);
#347=CARTESIAN_POINT('',(0.5,0.938000000000001,-0.375));
#348=VERTEX_POINT('',#347);
#349=CARTESIAN_POINT('',(0.5,0.938000000000001,-0.375));
#350=DIRECTION('',(-1.0,0.0,0.0));
#351=VECTOR('',#350,1.0);
#352=LINE('',#349,#351);
#353=EDGE_CURVE('',#348,#340,#352,.T.);
#354=ORIENTED_EDGE('',*,*,#353,.F.);
#355=CARTESIAN_POINT('',(0.5,0.938000000000001,-0.084));
#356=DIRECTION('',(0.0,0.0,-1.0));
#357=VECTOR('',#356,0.291);
#358=LINE('',#355,#357);
#359=EDGE_CURVE('',#316,#348,#358,.T.);
#360=ORIENTED_EDGE('',*,*,#359,.F.);
#361=ORIENTED_EDGE('',*,*,#321,.T.);
#362=EDGE_LOOP('',(#346,#354,#360,#361));
#363=FACE_OUTER_BOUND('',#362,.T.);
#364=ADVANCED_FACE('',(#363),#338,.T.);
#365=CARTESIAN_POINT('',(0.5,0.938000000000001,-0.375));
#366=DIRECTION('',(0.0,0.0,-1.0));
#367=DIRECTION('',(0.0,-1.0,0.0));
#368=AXIS2_PLACEMENT_3D('',#365,#366,#367);
#369=PLANE('',#368);
#370=CARTESIAN_POINT('',(-0.499999999999999,1.938000000000001,-0.375));
#371=VERTEX_POINT('',#370);
#372=CARTESIAN_POINT('',(-0.5,0.938000000000001,-0.375));
#373=DIRECTION('',(0.0,1.0,0.0));
#374=VECTOR('',#373,1.0);
#375=LINE('',#372,#374);
#376=EDGE_CURVE('',#340,#371,#375,.T.);
#377=ORIENTED_EDGE('',*,*,#376,.T.);
#378=CARTESIAN_POINT('',(0.5,1.938000000000001,-0.375));
#379=VERTEX_POINT('',#378);
#380=CARTESIAN_POINT('',(0.5,1.938000000000001,-0.375));
#381=DIRECTION('',(-1.0,0.0,0.0));
#382=VECTOR('',#381,1.0);
#383=LINE('',#380,#382);
#384=EDGE_CURVE('',#379,#371,#383,.T.);
#385=ORIENTED_EDGE('',*,*,#384,.F.);
#386=CARTESIAN_POINT('',(0.5,0.938000000000001,-0.375));
#387=DIRECTION('',(0.0,1.0,0.0));
#388=VECTOR('',#387,1.0);
#389=LINE('',#386,#388);
#390=EDGE_CURVE('',#348,#379,#389,.T.);
#391=ORIENTED_EDGE('',*,*,#390,.F.);
#392=ORIENTED_EDGE('',*,*,#353,.T.);
#393=EDGE_LOOP('',(#377,#385,#391,#392));
#394=FACE_OUTER_BOUND('',#393,.T.);
#395=ORIENTED_EDGE('',*,*,#228,.T.);
#396=ORIENTED_EDGE('',*,*,#189,.T.);
#397=EDGE_LOOP('',(#395,#396));
#398=FACE_BOUND('',#397,.T.);
#399=ADVANCED_FACE('',(#394,#398),#369,.T.);
#400=CARTESIAN_POINT('',(0.5,1.750000000000001,-0.374999999999998));
#401=DIRECTION('',(-1.0,5.053195E-016,2.220446E-016));
#402=DIRECTION('',(5.143241E-016,0.707106781186554,0.707106781186541));
#403=AXIS2_PLACEMENT_3D('',#400,#401,#402);
#404=CYLINDRICAL_SURFACE('',#403,0.188);
#405=CARTESIAN_POINT('',(-0.499999999999999,1.750000000000002,-0.186999999999997));
#406=VERTEX_POINT('',#405);
#407=CARTESIAN_POINT('',(-0.5,1.750000000000002,-0.374999999999997));
#408=DIRECTION('',(1.0,-3.253284E-016,-3.253284E-016));
#409=DIRECTION('',(4.600839E-016,0.707106781186554,0.707106781186541));
#410=AXIS2_PLACEMENT_3D('',#407,#408,#409);
#411=CIRCLE('',#410,0.188);
#412=EDGE_CURVE('',#371,#406,#411,.T.);
#413=ORIENTED_EDGE('',*,*,#412,.T.);
#414=CARTESIAN_POINT('',(0.5,1.750000000000002,-0.186999999999998));
#415=VERTEX_POINT('',#414);
#416=CARTESIAN_POINT('',(0.5,1.750000000000002,-0.186999999999998));
#417=DIRECTION('',(-1.0,0.0,0.0));
#418=VECTOR('',#417,1.0);
#419=LINE('',#416,#418);
#420=EDGE_CURVE('',#415,#406,#419,.T.);
#421=ORIENTED_EDGE('',*,*,#420,.F.);
#422=CARTESIAN_POINT('',(0.5,1.750000000000001,-0.374999999999998));
#423=DIRECTION('',(1.0,-3.253284E-016,-3.253284E-016));
#424=DIRECTION('',(4.600839E-016,0.707106781186554,0.707106781186541));
#425=AXIS2_PLACEMENT_3D('',#422,#423,#424);
#426=CIRCLE('',#425,0.188);
#427=EDGE_CURVE('',#379,#415,#426,.T.);
#428=ORIENTED_EDGE('',*,*,#427,.F.);
#429=ORIENTED_EDGE('',*,*,#384,.T.);
#430=EDGE_LOOP('',(#413,#421,#428,#429));
#431=FACE_OUTER_BOUND('',#430,.T.);
#432=ADVANCED_FACE('',(#431),#404,.T.);
#433=CARTESIAN_POINT('',(0.5,1.750000000000002,-0.186999999999998));
#434=DIRECTION('',(0.0,0.0,1.0));
#435=DIRECTION('',(0.0,1.0,0.0));
#436=AXIS2_PLACEMENT_3D('',#433,#434,#435);
#437=PLANE('',#436);
#438=CARTESIAN_POINT('',(-0.5,1.251000000000002,-0.187));
#439=VERTEX_POINT('',#438);
#440=CARTESIAN_POINT('',(-0.5,1.750000000000002,-0.186999999999997));
#441=DIRECTION('',(0.0,-1.0,0.0));
#442=VECTOR('',#441,0.499);
#443=LINE('',#440,#442);
#444=EDGE_CURVE('',#406,#439,#443,.T.);
#445=ORIENTED_EDGE('',*,*,#444,.T.);
#446=CARTESIAN_POINT('',(0.5,1.251000000000001,-0.187));
#447=VERTEX_POINT('',#446);
#448=CARTESIAN_POINT('',(0.5,1.251000000000001,-0.187));
#449=DIRECTION('',(-1.0,0.0,0.0));
#450=VECTOR('',#449,1.0);
#451=LINE('',#448,#450);
#452=EDGE_CURVE('',#447,#439,#451,.T.);
#453=ORIENTED_EDGE('',*,*,#452,.F.);
#454=CARTESIAN_POINT('',(0.5,1.750000000000002,-0.186999999999998));
#455=DIRECTION('',(0.0,-1.0,0.0));
#456=VECTOR('',#455,0.499);
#457=LINE('',#454,#456);
#458=EDGE_CURVE('',#415,#447,#457,.T.);
#459=ORIENTED_EDGE('',*,*,#458,.F.);
#460=ORIENTED_EDGE('',*,*,#420,.T.);
#461=EDGE_LOOP('',(#445,#453,#459,#460));
#462=FACE_OUTER_BOUND('',#461,.T.);
#463=ORIENTED_EDGE('',*,*,#204,.T.);
#464=ORIENTED_EDGE('',*,*,#220,.T.);
#465=EDGE_LOOP('',(#463,#464));
#466=FACE_BOUND('',#465,.T.);
#467=ADVANCED_FACE('',(#462,#466),#437,.T.);
#468=CARTESIAN_POINT('',(0.5,1.251000000000001,-0.062));
#469=DIRECTION('',(-1.0,5.053195E-016,2.220446E-016));
#470=DIRECTION('',(-5.143241E-016,-0.707106781186546,-0.707106781186549));
#471=AXIS2_PLACEMENT_3D('',#468,#469,#470);
#472=CYLINDRICAL_SURFACE('',#471,0.125);
#473=CARTESIAN_POINT('',(-0.5,1.126000000000001,-0.062));
#474=VERTEX_POINT('',#473);
#475=CARTESIAN_POINT('',(-0.5,1.251000000000002,-0.062));
#476=DIRECTION('',(-1.0,3.253284E-016,3.253284E-016));
#477=DIRECTION('',(-4.600839E-016,-0.707106781186546,-0.707106781186549));
#478=AXIS2_PLACEMENT_3D('',#475,#476,#477);
#479=CIRCLE('',#478,0.125);
#480=EDGE_CURVE('',#439,#474,#479,.T.);
#481=ORIENTED_EDGE('',*,*,#480,.T.);
#482=CARTESIAN_POINT('',(0.5,1.126000000000001,-0.062));
#483=VERTEX_POINT('',#482);
#484=CARTESIAN_POINT('',(0.5,1.126000000000001,-0.062));
#485=DIRECTION('',(-1.0,0.0,0.0));
#486=VECTOR('',#485,1.0);
#487=LINE('',#484,#486);
#488=EDGE_CURVE('',#483,#474,#487,.T.);
#489=ORIENTED_EDGE('',*,*,#488,.F.);
#490=CARTESIAN_POINT('',(0.5,1.251000000000001,-0.062));
#491=DIRECTION('',(-1.0,3.253284E-016,3.253284E-016));
#492=DIRECTION('',(-4.600839E-016,-0.707106781186546,-0.707106781186549));
#493=AXIS2_PLACEMENT_3D('',#490,#491,#492);
#494=CIRCLE('',#493,0.125);
#495=EDGE_CURVE('',#447,#483,#494,.T.);
#496=ORIENTED_EDGE('',*,*,#495,.F.);
#497=ORIENTED_EDGE('',*,*,#452,.T.);
#498=EDGE_LOOP('',(#481,#489,#496,#497));
#499=FACE_OUTER_BOUND('',#498,.T.);
#500=ADVANCED_FACE('',(#499),#472,.F.);
#501=CARTESIAN_POINT('',(0.5,1.126000000000001,-0.062));
#502=DIRECTION('',(0.0,1.0,0.0));
#503=DIRECTION('',(0.0,0.0,-1.0));
#504=AXIS2_PLACEMENT_3D('',#501,#502,#503);
#505=PLANE('',#504);
#506=CARTESIAN_POINT('',(-0.5,1.126000000000002,2.220446E-016));
#507=VERTEX_POINT('',#506);
#508=CARTESIAN_POINT('',(-0.5,1.126000000000001,-0.062));
#509=DIRECTION('',(0.0,0.0,1.0));
#510=VECTOR('',#509,0.062);
#511=LINE('',#508,#510);
#512=EDGE_CURVE('',#474,#507,#511,.T.);
#513=ORIENTED_EDGE('',*,*,#512,.T.);
#514=CARTESIAN_POINT('',(0.5,1.126000000000001,0.0));
#515=VERTEX_POINT('',#514);
#516=CARTESIAN_POINT('',(0.5,1.126000000000001,0.0));
#517=DIRECTION('',(-1.0,0.0,0.0));
#518=VECTOR('',#517,1.0);
#519=LINE('',#516,#518);
#520=EDGE_CURVE('',#515,#507,#519,.T.);
#521=ORIENTED_EDGE('',*,*,#520,.F.);
#522=CARTESIAN_POINT('',(0.5,1.126000000000001,-0.062));
#523=DIRECTION('',(0.0,0.0,1.0));
#524=VECTOR('',#523,0.062);
#525=LINE('',#522,#524);
#526=EDGE_CURVE('',#483,#515,#525,.T.);
#527=ORIENTED_EDGE('',*,*,#526,.F.);
#528=ORIENTED_EDGE('',*,*,#488,.T.);
#529=EDGE_LOOP('',(#513,#521,#527,#528));
#530=FACE_OUTER_BOUND('',#529,.T.);
#531=ADVANCED_FACE('',(#530),#505,.T.);
#532=CARTESIAN_POINT('',(0.5,0.938000000000001,-1.110223E-015));
#533=DIRECTION('',(-1.0,5.053195E-016,2.220446E-016));
#534=DIRECTION('',(5.143241E-016,0.707106781186545,0.70710678118655));
#535=AXIS2_PLACEMENT_3D('',#532,#533,#534);
#536=CYLINDRICAL_SURFACE('',#535,0.188000000000001);
#537=CARTESIAN_POINT('',(-0.5,0.938000000000001,0.188));
#538=VERTEX_POINT('',#537);
#539=CARTESIAN_POINT('',(-0.5,0.938000000000001,-8.881784E-016));
#540=DIRECTION('',(1.0,-3.253284E-016,-3.253284E-016));
#541=DIRECTION('',(4.600839E-016,0.707106781186545,0.70710678118655));
#542=AXIS2_PLACEMENT_3D('',#539,#540,#541);
#543=CIRCLE('',#542,0.188000000000001);
#544=EDGE_CURVE('',#507,#538,#543,.T.);
#545=ORIENTED_EDGE('',*,*,#544,.T.);
#546=CARTESIAN_POINT('',(0.5,0.938000000000001,0.187999999999999));
#547=VERTEX_POINT('',#546);
#548=CARTESIAN_POINT('',(0.5,0.938000000000001,0.187999999999999));
#549=DIRECTION('',(-1.0,0.0,0.0));
#550=VECTOR('',#549,1.0);
#551=LINE('',#548,#550);
#552=EDGE_CURVE('',#547,#538,#551,.T.);
#553=ORIENTED_EDGE('',*,*,#552,.F.);
#554=CARTESIAN_POINT('',(0.5,0.938000000000001,-1.110223E-015));
#555=DIRECTION('',(1.0,-3.253284E-016,-3.253284E-016));
#556=DIRECTION('',(4.600839E-016,0.707106781186545,0.70710678118655));
#557=AXIS2_PLACEMENT_3D('',#554,#555,#556);
#558=CIRCLE('',#557,0.188000000000001);
#559=EDGE_CURVE('',#515,#547,#558,.T.);
#560=ORIENTED_EDGE('',*,*,#559,.F.);
#561=ORIENTED_EDGE('',*,*,#520,.T.);
#562=EDGE_LOOP('',(#545,#553,#560,#561));
#563=FACE_OUTER_BOUND('',#562,.T.);
#564=ADVANCED_FACE('',(#563),#536,.T.);
#565=CARTESIAN_POINT('',(0.5,0.938000000000001,0.187999999999999));
#566=DIRECTION('',(0.0,0.0,1.0));
#567=DIRECTION('',(0.0,1.0,0.0));
#568=AXIS2_PLACEMENT_3D('',#565,#566,#567);
#569=PLANE('',#568);
#570=CARTESIAN_POINT('',(-0.5,0.188000000000002,0.187999999999999));
#571=VERTEX_POINT('',#570);
#572=CARTESIAN_POINT('',(-0.5,0.938000000000001,0.188));
#573=DIRECTION('',(0.0,-1.0,0.0));
#574=VECTOR('',#573,0.75);
#575=LINE('',#572,#574);
#576=EDGE_CURVE('',#538,#571,#575,.T.);
#577=ORIENTED_EDGE('',*,*,#576,.T.);
#578=CARTESIAN_POINT('',(0.5,0.188000000000001,0.187999999999999));
#579=VERTEX_POINT('',#578);
#580=CARTESIAN_POINT('',(0.5,0.188000000000001,0.187999999999999));
#581=DIRECTION('',(-1.0,0.0,0.0));
#582=VECTOR('',#581,1.0);
#583=LINE('',#580,#582);
#584=EDGE_CURVE('',#579,#571,#583,.T.);
#585=ORIENTED_EDGE('',*,*,#584,.F.);
#586=CARTESIAN_POINT('',(0.5,0.938000000000001,0.187999999999999));
#587=DIRECTION('',(0.0,-1.0,0.0));
#588=VECTOR('',#587,0.75);
#589=LINE('',#586,#588);
#590=EDGE_CURVE('',#547,#579,#589,.T.);
#591=ORIENTED_EDGE('',*,*,#590,.F.);
#592=ORIENTED_EDGE('',*,*,#552,.T.);
#593=EDGE_LOOP('',(#577,#585,#591,#592));
#594=FACE_OUTER_BOUND('',#593,.T.);
#595=ORIENTED_EDGE('',*,*,#162,.T.);
#596=ORIENTED_EDGE('',*,*,#244,.T.);
#597=EDGE_LOOP('',(#595,#596));
#598=FACE_BOUND('',#597,.T.);
#599=ADVANCED_FACE('',(#594,#598),#569,.T.);
#600=CARTESIAN_POINT('',(0.5,0.187999999999999,-3.885781E-016));
#601=DIRECTION('',(-1.0,5.053195E-016,2.220446E-016));
#602=DIRECTION('',(-2.003056E-016,-0.707106781186544,0.707106781186551));
#603=AXIS2_PLACEMENT_3D('',#600,#601,#602);
#604=CYLINDRICAL_SURFACE('',#603,0.187999999999999);
#605=CARTESIAN_POINT('',(-0.5,0.188,-1.665335E-016));
#606=DIRECTION('',(1.0,-1.032838E-016,1.032838E-016));
#607=DIRECTION('',(-1.460654E-016,-0.707106781186544,0.707106781186551));
#608=AXIS2_PLACEMENT_3D('',#605,#606,#607);
#609=CIRCLE('',#608,0.187999999999999);
#610=EDGE_CURVE('',#571,#263,#609,.T.);
#611=ORIENTED_EDGE('',*,*,#610,.T.);
#612=ORIENTED_EDGE('',*,*,#292,.F.);
#613=CARTESIAN_POINT('',(0.5,0.187999999999999,-3.885781E-016));
#614=DIRECTION('',(1.0,-1.032838E-016,1.032838E-016));
#615=DIRECTION('',(-1.460654E-016,-0.707106781186544,0.707106781186551));
#616=AXIS2_PLACEMENT_3D('',#613,#614,#615);
#617=CIRCLE('',#616,0.187999999999999);
#618=EDGE_CURVE('',#579,#281,#617,.T.);
#619=ORIENTED_EDGE('',*,*,#618,.F.);
#620=ORIENTED_EDGE('',*,*,#584,.T.);
#621=EDGE_LOOP('',(#611,#612,#619,#620));
#622=FACE_OUTER_BOUND('',#621,.T.);
#623=ADVANCED_FACE('',(#622),#604,.T.);
#624=CARTESIAN_POINT('',(-0.5,8.881784E-016,2.220446E-016));
#625=DIRECTION('',(1.0,0.0,0.0));
#626=DIRECTION('',(0.0,0.0,-1.0));
#627=AXIS2_PLACEMENT_3D('',#624,#625,#626);
#628=PLANE('',#627);
#629=ORIENTED_EDGE('',*,*,#270,.F.);
#630=ORIENTED_EDGE('',*,*,#610,.F.);
#631=ORIENTED_EDGE('',*,*,#576,.F.);
#632=ORIENTED_EDGE('',*,*,#544,.F.);
#633=ORIENTED_EDGE('',*,*,#512,.F.);
#634=ORIENTED_EDGE('',*,*,#480,.F.);
#635=ORIENTED_EDGE('',*,*,#444,.F.);
#636=ORIENTED_EDGE('',*,*,#412,.F.);
#637=ORIENTED_EDGE('',*,*,#376,.F.);
#638=ORIENTED_EDGE('',*,*,#345,.F.);
#639=ORIENTED_EDGE('',*,*,#313,.F.);
#640=EDGE_LOOP('',(#629,#630,#631,#632,#633,#634,#635,#636,#637,#638,#639));
#641=FACE_OUTER_BOUND('',#640,.T.);
#642=ADVANCED_FACE('',(#641),#628,.F.);
#643=CARTESIAN_POINT('',(0.5,1.008246543552153,-0.065323947089965));
#644=DIRECTION('',(1.0,0.0,0.0));
#645=DIRECTION('',(0.0,0.0,1.0));
#646=AXIS2_PLACEMENT_3D('',#643,#644,#645);
#647=PLANE('',#646);
#648=ORIENTED_EDGE('',*,*,#618,.T.);
#649=ORIENTED_EDGE('',*,*,#286,.T.);
#650=ORIENTED_EDGE('',*,*,#328,.T.);
#651=ORIENTED_EDGE('',*,*,#359,.T.);
#652=ORIENTED_EDGE('',*,*,#390,.T.);
#653=ORIENTED_EDGE('',*,*,#427,.T.);
#654=ORIENTED_EDGE('',*,*,#458,.T.);
#655=ORIENTED_EDGE('',*,*,#495,.T.);
#656=ORIENTED_EDGE('',*,*,#526,.T.);
#657=ORIENTED_EDGE('',*,*,#559,.T.);
#658=ORIENTED_EDGE('',*,*,#590,.T.);
#659=EDGE_LOOP('',(#648,#649,#650,#651,#652,#653,#654,#655,#656,#657,#658));
#660=FACE_OUTER_BOUND('',#659,.T.);
#661=ADVANCED_FACE('',(#660),#647,.T.);
#662=CLOSED_SHELL('',(#166,#208,#232,#256,#300,#333,#364,#399,#432,#467,#500,#531,#564,#599,#623,#642,#661));
#663=MANIFOLD_SOLID_BREP('2B',#662);
#664=ADVANCED_BREP_SHAPE_REPRESENTATION('ABSR1',(#663),#28);
#665=SHAPE_REPRESENTATION_RELATIONSHIP('SRRPL1','',#664,#122);
ENDSEC;
END-ISO-10303-21;
