ISO-10303-21;
HEADER;
/****************************************************************
 * Generated by software with PDElib inside                    *
 * PDElib Version v51a, created Fri 09/10/2010                  *
 * ITI Transcendata (http://www.transcendata.com/)              *
 ****************************************************************/
FILE_DESCRIPTION((''),'2;1');
FILE_NAME('10AC7760.stp','2015-07-02T14:52:31',(''),(''),'Mechanical Desktop 2011','Mechanical Desktop 2011',', , ');
FILE_SCHEMA(('CONFIG_CONTROL_DESIGN'));
ENDSEC;
DATA;
#10=(NAMED_UNIT(*)PLANE_ANGLE_UNIT()SI_UNIT($,.RADIAN.));
#11=DIMENSIONAL_EXPONENTS(0.0,0.0,0.0,0.0,0.0,0.0,0.0);
#12=PLANE_ANGLE_MEASURE_WITH_UNIT(PLANE_ANGLE_MEASURE(0.0174532925),#10);
#16=(CONVERSION_BASED_UNIT('DEGREE',#12)NAMED_UNIT(#11)PLANE_ANGLE_UNIT());
#20=(NAMED_UNIT(*)SI_UNIT($,.STERADIAN.)SOLID_ANGLE_UNIT());
#24=(LENGTH_UNIT()NAMED_UNIT(*)SI_UNIT(.MILLI.,.METRE.));
#26=UNCERTAINTY_MEASURE_WITH_UNIT(LENGTH_MEASURE(0.000001),#24,'DISTANCE_ACCURACY_VALUE','');
#28=(GEOMETRIC_REPRESENTATION_CONTEXT(3)GLOBAL_UNCERTAINTY_ASSIGNED_CONTEXT((#26))GLOBAL_UNIT_ASSIGNED_CONTEXT((#16,#20,#24))REPRESENTATION_CONTEXT('','3D'));
#29=APPLICATION_CONTEXT('CONFIGURATION CONTROLLED 3D DESIGNS OF MECHANICAL PARTS AND ASSEMBLIES');
#30=APPLICATION_PROTOCOL_DEFINITION('INTERNATIONAL STANDARD','config_control_design',1995,#29);
#31=MECHANICAL_CONTEXT('3D Mechanical Parts',#29,'mechanical');
#32=PRODUCT('Product','Product',' ',(#31));
#33=PRODUCT_RELATED_PRODUCT_CATEGORY('detail',$,(#32));
#34=PRODUCT_CATEGORY('part',$);
#35=PRODUCT_CATEGORY_RELATIONSHIP('None','None',#34,#33);
#36=PERSON('1','Design','Joe',$,$,$);
#37=ORGANIZATION($,'None','None');
#38=PERSON_AND_ORGANIZATION(#36,#37);
#39=PERSON_AND_ORGANIZATION_ROLE('design_owner');
#40=CC_DESIGN_PERSON_AND_ORGANIZATION_ASSIGNMENT(#38,#39,(#32));
#41=PRODUCT_DEFINITION_FORMATION_WITH_SPECIFIED_SOURCE('None','None',#32,.BOUGHT.);
#42=PERSON('2','Creator','Joe',$,$,$);
#43=ORGANIZATION($,'None','None');
#44=PERSON_AND_ORGANIZATION(#42,#43);
#45=PERSON_AND_ORGANIZATION_ROLE('creator');
#46=CC_DESIGN_PERSON_AND_ORGANIZATION_ASSIGNMENT(#44,#45,(#41));
#47=PERSON('3','Supplier','Joe',$,$,$);
#48=ORGANIZATION($,'None','None');
#49=PERSON_AND_ORGANIZATION(#47,#48);
#50=PERSON_AND_ORGANIZATION_ROLE('design_supplier');
#51=CC_DESIGN_PERSON_AND_ORGANIZATION_ASSIGNMENT(#49,#50,(#41));
#52=APPROVAL_STATUS('approved');
#53=APPROVAL(#52,'None');
#54=PERSON('4','Approver','Joe',$,$,$);
#55=ORGANIZATION($,'None','None');
#56=PERSON_AND_ORGANIZATION(#54,#55);
#57=APPROVAL_ROLE('approver');
#58=APPROVAL_PERSON_ORGANIZATION(#56,#53,#57);
#59=COORDINATED_UNIVERSAL_TIME_OFFSET(8,$,.EXACT.);
#60=CALENDAR_DATE(1996,29,5);
#61=LOCAL_TIME(12,0,0.0,#59);
#62=DATE_AND_TIME(#60,#61);
#63=APPROVAL_DATE_TIME(#62,#53);
#64=CC_DESIGN_APPROVAL(#53,(#41));
#65=SECURITY_CLASSIFICATION_LEVEL('unclassified');
#66=SECURITY_CLASSIFICATION('security','None',#65);
#67=CC_DESIGN_SECURITY_CLASSIFICATION(#66,(#41));
#68=APPROVAL_STATUS('approved');
#69=APPROVAL(#68,'None');
#70=PERSON('5','Approver','Joe',$,$,$);
#71=ORGANIZATION($,'None','None');
#72=PERSON_AND_ORGANIZATION(#70,#71);
#73=APPROVAL_ROLE('approver');
#74=APPROVAL_PERSON_ORGANIZATION(#72,#69,#73);
#75=COORDINATED_UNIVERSAL_TIME_OFFSET(8,$,.EXACT.);
#76=CALENDAR_DATE(1996,29,5);
#77=LOCAL_TIME(12,0,0.0,#75);
#78=DATE_AND_TIME(#76,#77);
#79=APPROVAL_DATE_TIME(#78,#69);
#80=CC_DESIGN_APPROVAL(#69,(#66));
#81=PERSON('6','Classifier','Joe',$,$,$);
#82=ORGANIZATION($,'None','None');
#83=PERSON_AND_ORGANIZATION(#81,#82);
#84=PERSON_AND_ORGANIZATION_ROLE('classification_officer');
#85=CC_DESIGN_PERSON_AND_ORGANIZATION_ASSIGNMENT(#83,#84,(#66));
#86=COORDINATED_UNIVERSAL_TIME_OFFSET(8,$,.EXACT.);
#87=CALENDAR_DATE(1996,29,5);
#88=LOCAL_TIME(12,0,0.0,#86);
#89=DATE_AND_TIME(#87,#88);
#90=DATE_TIME_ROLE('classification_date');
#91=CC_DESIGN_DATE_AND_TIME_ASSIGNMENT(#89,#90,(#66));
#92=DESIGN_CONTEXT('Design Context',#29,'design');
#93=PRODUCT_DEFINITION('None','None',#41,#92);
#94=PERSON('7','Creator','Joe',$,$,$);
#95=ORGANIZATION($,'None','None');
#96=PERSON_AND_ORGANIZATION(#94,#95);
#97=PERSON_AND_ORGANIZATION_ROLE('creator');
#98=CC_DESIGN_PERSON_AND_ORGANIZATION_ASSIGNMENT(#96,#97,(#93));
#99=COORDINATED_UNIVERSAL_TIME_OFFSET(8,$,.EXACT.);
#100=CALENDAR_DATE(1996,29,5);
#101=LOCAL_TIME(12,0,0.0,#99);
#102=DATE_AND_TIME(#100,#101);
#103=DATE_TIME_ROLE('creation_date');
#104=CC_DESIGN_DATE_AND_TIME_ASSIGNMENT(#102,#103,(#93));
#105=APPROVAL_STATUS('approved');
#106=APPROVAL(#105,'None');
#107=PERSON('8','Approver','Joe',$,$,$);
#108=ORGANIZATION($,'None','None');
#109=PERSON_AND_ORGANIZATION(#107,#108);
#110=APPROVAL_ROLE('approver');
#111=APPROVAL_PERSON_ORGANIZATION(#109,#106,#110);
#112=COORDINATED_UNIVERSAL_TIME_OFFSET(8,$,.EXACT.);
#113=CALENDAR_DATE(1996,29,5);
#114=LOCAL_TIME(12,0,0.0,#112);
#115=DATE_AND_TIME(#113,#114);
#116=APPROVAL_DATE_TIME(#115,#106);
#117=CC_DESIGN_APPROVAL(#106,(#93));
#118=CARTESIAN_POINT('NONE',(0.0,0.0,0.0));
#119=DIRECTION('NONE',(0.0,0.0,1.0));
#120=DIRECTION('NONE',(1.0,0.0,0.0));
#121=AXIS2_PLACEMENT_3D('NONE',#118,#119,#120);
#122=SHAPE_REPRESENTATION('SR1',(#121),#28);
#123=PRODUCT_DEFINITION_SHAPE('PDS1','Test Part',#93);
#124=SHAPE_DEFINITION_REPRESENTATION(#123,#122);
#125=CARTESIAN_POINT('',(-1.000002,0.0000002,-0.735998528));
#126=DIRECTION('',(3.330669E-016,1.0,-1.110223E-016));
#127=DIRECTION('',(0.0,0.0,1.0));
#128=AXIS2_PLACEMENT_3D('',#125,#126,#127);
#129=CYLINDRICAL_SURFACE('',#128,0.166);
#130=CARTESIAN_POINT('',(-1.000002,-0.0999998,-0.569998528));
#131=VERTEX_POINT('',#130);
#132=CARTESIAN_POINT('',(-1.000002,0.1000002,-0.569998528));
#133=VERTEX_POINT('',#132);
#134=CARTESIAN_POINT('',(-1.000002,-0.0999998,-0.569998528));
#135=DIRECTION('',(0.0,1.0,0.0));
#136=VECTOR('',#135,0.1999996);
#137=LINE('',#134,#136);
#138=EDGE_CURVE('',#131,#133,#137,.T.);
#139=ORIENTED_EDGE('',*,*,#138,.F.);
#140=CARTESIAN_POINT('',(-1.000002,-0.0999998,-0.901998528));
#141=VERTEX_POINT('',#140);
#142=CARTESIAN_POINT('',(-1.000002,-0.0999998,-0.735998528));
#143=DIRECTION('',(0.0,1.0,0.0));
#144=DIRECTION('',(0.0,0.0,1.0));
#145=AXIS2_PLACEMENT_3D('',#142,#143,#144);
#146=CIRCLE('',#145,0.166);
#147=EDGE_CURVE('',#141,#131,#146,.T.);
#148=ORIENTED_EDGE('',*,*,#147,.F.);
#149=CARTESIAN_POINT('',(-1.000002,0.0999998,-0.901998528));
#150=VERTEX_POINT('',#149);
#151=CARTESIAN_POINT('',(-1.000002,-0.0999998,-0.901998528));
#152=DIRECTION('',(0.0,1.0,0.0));
#153=VECTOR('',#152,0.1999996);
#154=LINE('',#151,#153);
#155=EDGE_CURVE('',#141,#150,#154,.T.);
#156=ORIENTED_EDGE('',*,*,#155,.T.);
#157=CARTESIAN_POINT('',(-1.000002,0.0999998,-0.735998528));
#158=DIRECTION('',(0.0,-1.0,0.0));
#159=DIRECTION('',(0.0,0.0,1.0));
#160=AXIS2_PLACEMENT_3D('',#157,#158,#159);
#161=CIRCLE('',#160,0.166);
#162=EDGE_CURVE('',#133,#150,#161,.T.);
#163=ORIENTED_EDGE('',*,*,#162,.F.);
#164=EDGE_LOOP('',(#139,#148,#156,#163));
#165=FACE_OUTER_BOUND('',#164,.T.);
#166=ADVANCED_FACE('',(#165),#129,.F.);
#167=CARTESIAN_POINT('',(-1.000002,0.0000002,-0.735998528));
#168=DIRECTION('',(3.330669E-016,1.0,-1.110223E-016));
#169=DIRECTION('',(0.0,0.0,1.0));
#170=AXIS2_PLACEMENT_3D('',#167,#168,#169);
#171=CYLINDRICAL_SURFACE('',#170,0.166);
#172=ORIENTED_EDGE('',*,*,#138,.T.);
#173=CARTESIAN_POINT('',(-1.000002,0.0999998,-0.735998528));
#174=DIRECTION('',(0.0,-1.0,0.0));
#175=DIRECTION('',(0.0,0.0,1.0));
#176=AXIS2_PLACEMENT_3D('',#173,#174,#175);
#177=CIRCLE('',#176,0.166);
#178=EDGE_CURVE('',#150,#133,#177,.T.);
#179=ORIENTED_EDGE('',*,*,#178,.F.);
#180=ORIENTED_EDGE('',*,*,#155,.F.);
#181=CARTESIAN_POINT('',(-1.000002,-0.0999998,-0.735998528));
#182=DIRECTION('',(0.0,1.0,0.0));
#183=DIRECTION('',(0.0,0.0,1.0));
#184=AXIS2_PLACEMENT_3D('',#181,#182,#183);
#185=CIRCLE('',#184,0.166);
#186=EDGE_CURVE('',#131,#141,#185,.T.);
#187=ORIENTED_EDGE('',*,*,#186,.F.);
#188=EDGE_LOOP('',(#172,#179,#180,#187));
#189=FACE_OUTER_BOUND('',#188,.T.);
#190=ADVANCED_FACE('',(#189),#171,.F.);
#191=CARTESIAN_POINT('',(-1.000002,3.330669E-016,0.0));
#192=DIRECTION('',(0.0,0.0,-1.0));
#193=DIRECTION('',(-1.0,0.0,0.0));
#194=AXIS2_PLACEMENT_3D('',#191,#192,#193);
#195=PLANE('',#194);
#196=CARTESIAN_POINT('',(-2.0,-0.0999998,0.0));
#197=VERTEX_POINT('',#196);
#198=CARTESIAN_POINT('',(-0.000004,-0.0999998,0.0));
#199=VERTEX_POINT('',#198);
#200=CARTESIAN_POINT('',(-2.0,-0.0999998,0.0));
#201=DIRECTION('',(1.0,0.0,0.0));
#202=VECTOR('',#201,1.999996);
#203=LINE('',#200,#202);
#204=EDGE_CURVE('',#197,#199,#203,.T.);
#205=ORIENTED_EDGE('',*,*,#204,.T.);
#206=CARTESIAN_POINT('',(-0.000004,-0.23499953,0.0));
#207=VERTEX_POINT('',#206);
#208=CARTESIAN_POINT('',(-0.000004,-0.23499953,0.0));
#209=DIRECTION('',(0.0,1.0,0.0));
#210=VECTOR('',#209,0.13499973);
#211=LINE('',#208,#210);
#212=EDGE_CURVE('',#207,#199,#211,.T.);
#213=ORIENTED_EDGE('',*,*,#212,.F.);
#214=CARTESIAN_POINT('',(-2.0,-0.23499953,0.0));
#215=VERTEX_POINT('',#214);
#216=CARTESIAN_POINT('',(-2.0,-0.23499953,0.0));
#217=DIRECTION('',(1.0,0.0,0.0));
#218=VECTOR('',#217,1.999996);
#219=LINE('',#216,#218);
#220=EDGE_CURVE('',#215,#207,#219,.T.);
#221=ORIENTED_EDGE('',*,*,#220,.F.);
#222=CARTESIAN_POINT('',(-2.0,-0.0999998,0.0));
#223=DIRECTION('',(0.0,-1.0,0.0));
#224=VECTOR('',#223,0.13499973);
#225=LINE('',#222,#224);
#226=EDGE_CURVE('',#197,#215,#225,.T.);
#227=ORIENTED_EDGE('',*,*,#226,.F.);
#228=EDGE_LOOP('',(#205,#213,#221,#227));
#229=FACE_OUTER_BOUND('',#228,.T.);
#230=ADVANCED_FACE('',(#229),#195,.T.);
#231=CARTESIAN_POINT('',(-0.64246157216105,0.0999998,-1.06999786));
#232=DIRECTION('',(0.0,-1.0,2.081668E-016));
#233=DIRECTION('',(0.502986377743209,0.0,-0.864294338639775));
#234=AXIS2_PLACEMENT_3D('',#231,#232,#233);
#235=CYLINDRICAL_SURFACE('',#234,0.02999994);
#236=CARTESIAN_POINT('',(-0.61637792760666,-0.0999998,-1.084818112587721));
#237=VERTEX_POINT('',#236);
#238=CARTESIAN_POINT('',(-0.64246157216105,-0.0999998,-1.0999978));
#239=VERTEX_POINT('',#238);
#240=CARTESIAN_POINT('',(-0.64246157216105,-0.0999998,-1.06999786));
#241=DIRECTION('',(0.0,1.0,0.0));
#242=DIRECTION('',(0.502986377743209,0.0,-0.864294338639775));
#243=AXIS2_PLACEMENT_3D('',#240,#241,#242);
#244=CIRCLE('',#243,0.02999994);
#245=EDGE_CURVE('',#237,#239,#244,.T.);
#246=ORIENTED_EDGE('',*,*,#245,.T.);
#247=CARTESIAN_POINT('',(-0.64246157216105,0.0999998,-1.0999978));
#248=VERTEX_POINT('',#247);
#249=CARTESIAN_POINT('',(-0.64246157216105,-0.0999998,-1.0999978));
#250=DIRECTION('',(0.0,1.0,0.0));
#251=VECTOR('',#250,0.1999996);
#252=LINE('',#249,#251);
#253=EDGE_CURVE('',#239,#248,#252,.T.);
#254=ORIENTED_EDGE('',*,*,#253,.T.);
#255=CARTESIAN_POINT('',(-0.61637792760666,0.0999998,-1.084818112587721));
#256=VERTEX_POINT('',#255);
#257=CARTESIAN_POINT('',(-0.64246157216105,0.0999998,-1.06999786));
#258=DIRECTION('',(0.0,-1.0,0.0));
#259=DIRECTION('',(0.502986377743209,0.0,-0.864294338639775));
#260=AXIS2_PLACEMENT_3D('',#257,#258,#259);
#261=CIRCLE('',#260,0.02999994);
#262=EDGE_CURVE('',#248,#256,#261,.T.);
#263=ORIENTED_EDGE('',*,*,#262,.T.);
#264=CARTESIAN_POINT('',(-0.61637792760666,0.0999998,-1.084818112587721));
#265=DIRECTION('',(0.0,-1.0,0.0));
#266=VECTOR('',#265,0.1999996);
#267=LINE('',#264,#266);
#268=EDGE_CURVE('',#256,#237,#267,.T.);
#269=ORIENTED_EDGE('',*,*,#268,.T.);
#270=EDGE_LOOP('',(#246,#254,#263,#269));
#271=FACE_OUTER_BOUND('',#270,.T.);
#272=ADVANCED_FACE('',(#271),#235,.T.);
#273=CARTESIAN_POINT('',(-0.62500275,0.0999998,-1.0999978));
#274=DIRECTION('',(0.0,0.0,-1.0));
#275=DIRECTION('',(-1.0,0.0,0.0));
#276=AXIS2_PLACEMENT_3D('',#273,#274,#275);
#277=PLANE('',#276);
#278=ORIENTED_EDGE('',*,*,#253,.F.);
#279=CARTESIAN_POINT('',(-1.357542427838951,-0.0999998,-1.0999978));
#280=VERTEX_POINT('',#279);
#281=CARTESIAN_POINT('',(-0.64246157216105,-0.0999998,-1.0999978));
#282=DIRECTION('',(-1.0,0.0,0.0));
#283=VECTOR('',#282,0.715080855677901);
#284=LINE('',#281,#283);
#285=EDGE_CURVE('',#239,#280,#284,.T.);
#286=ORIENTED_EDGE('',*,*,#285,.T.);
#287=CARTESIAN_POINT('',(-1.357542427838951,0.0999998,-1.0999978));
#288=VERTEX_POINT('',#287);
#289=CARTESIAN_POINT('',(-1.357542427838951,0.0999998,-1.0999978));
#290=DIRECTION('',(0.0,-1.0,0.0));
#291=VECTOR('',#290,0.1999996);
#292=LINE('',#289,#291);
#293=EDGE_CURVE('',#288,#280,#292,.T.);
#294=ORIENTED_EDGE('',*,*,#293,.F.);
#295=CARTESIAN_POINT('',(-0.64246157216105,0.0999998,-1.0999978));
#296=DIRECTION('',(-1.0,0.0,0.0));
#297=VECTOR('',#296,0.715080855677901);
#298=LINE('',#295,#297);
#299=EDGE_CURVE('',#248,#288,#298,.T.);
#300=ORIENTED_EDGE('',*,*,#299,.F.);
#301=EDGE_LOOP('',(#278,#286,#294,#300));
#302=FACE_OUTER_BOUND('',#301,.T.);
#303=ADVANCED_FACE('',(#302),#277,.T.);
#304=CARTESIAN_POINT('',(-1.37500125,-0.0999998,-1.0999978));
#305=DIRECTION('',(0.0,-1.0,0.0));
#306=DIRECTION('',(0.0,0.0,-1.0));
#307=AXIS2_PLACEMENT_3D('',#304,#305,#306);
#308=PLANE('',#307);
#309=ORIENTED_EDGE('',*,*,#204,.F.);
#310=CARTESIAN_POINT('',(-1.38362607239334,-0.0999998,-1.084818112587721));
#311=VERTEX_POINT('',#310);
#312=CARTESIAN_POINT('',(-1.38362607239334,-0.0999998,-1.084818112587721));
#313=DIRECTION('',(-0.494009407609527,2.002091E-016,0.869456557392768));
#314=VECTOR('',#313,1.247696740410764);
#315=LINE('',#312,#314);
#316=EDGE_CURVE('',#311,#197,#315,.T.);
#317=ORIENTED_EDGE('',*,*,#316,.F.);
#318=CARTESIAN_POINT('',(-1.357542427838951,-0.0999998,-1.06999786));
#319=DIRECTION('',(0.0,1.0,0.0));
#320=DIRECTION('',(-0.502986377743211,0.0,-0.864294338639774));
#321=AXIS2_PLACEMENT_3D('',#318,#319,#320);
#322=CIRCLE('',#321,0.02999994);
#323=EDGE_CURVE('',#280,#311,#322,.T.);
#324=ORIENTED_EDGE('',*,*,#323,.F.);
#325=ORIENTED_EDGE('',*,*,#285,.F.);
#326=ORIENTED_EDGE('',*,*,#245,.F.);
#327=CARTESIAN_POINT('',(-0.000004,-0.0999998,0.0));
#328=DIRECTION('',(-0.494009407609528,-1.890863E-016,-0.869456557392768));
#329=VECTOR('',#328,1.247696740410764);
#330=LINE('',#327,#329);
#331=EDGE_CURVE('',#199,#237,#330,.T.);
#332=ORIENTED_EDGE('',*,*,#331,.F.);
#333=EDGE_LOOP('',(#309,#317,#324,#325,#326,#332));
#334=FACE_OUTER_BOUND('',#333,.T.);
#335=ORIENTED_EDGE('',*,*,#186,.T.);
#336=ORIENTED_EDGE('',*,*,#147,.T.);
#337=EDGE_LOOP('',(#335,#336));
#338=FACE_BOUND('',#337,.T.);
#339=ADVANCED_FACE('',(#334,#338),#308,.T.);
#340=CARTESIAN_POINT('',(-1.357542427838951,0.0999998,-1.06999786));
#341=DIRECTION('',(0.0,-1.0,2.081668E-016));
#342=DIRECTION('',(-0.502986377743211,0.0,-0.864294338639774));
#343=AXIS2_PLACEMENT_3D('',#340,#341,#342);
#344=CYLINDRICAL_SURFACE('',#343,0.02999994);
#345=ORIENTED_EDGE('',*,*,#323,.T.);
#346=CARTESIAN_POINT('',(-1.38362607239334,0.0999998,-1.084818112587721));
#347=VERTEX_POINT('',#346);
#348=CARTESIAN_POINT('',(-1.38362607239334,-0.0999998,-1.084818112587721));
#349=DIRECTION('',(0.0,1.0,0.0));
#350=VECTOR('',#349,0.1999996);
#351=LINE('',#348,#350);
#352=EDGE_CURVE('',#311,#347,#351,.T.);
#353=ORIENTED_EDGE('',*,*,#352,.T.);
#354=CARTESIAN_POINT('',(-1.357542427838951,0.0999998,-1.06999786));
#355=DIRECTION('',(0.0,-1.0,0.0));
#356=DIRECTION('',(-0.502986377743211,0.0,-0.864294338639774));
#357=AXIS2_PLACEMENT_3D('',#354,#355,#356);
#358=CIRCLE('',#357,0.02999994);
#359=EDGE_CURVE('',#347,#288,#358,.T.);
#360=ORIENTED_EDGE('',*,*,#359,.T.);
#361=ORIENTED_EDGE('',*,*,#293,.T.);
#362=EDGE_LOOP('',(#345,#353,#360,#361));
#363=FACE_OUTER_BOUND('',#362,.T.);
#364=ADVANCED_FACE('',(#363),#344,.T.);
#365=CARTESIAN_POINT('',(-1.000002,3.330669E-016,0.0));
#366=DIRECTION('',(0.0,0.0,-1.0));
#367=DIRECTION('',(-1.0,0.0,0.0));
#368=AXIS2_PLACEMENT_3D('',#365,#366,#367);
#369=PLANE('',#368);
#370=CARTESIAN_POINT('',(-2.0,0.0999998,0.0));
#371=VERTEX_POINT('',#370);
#372=CARTESIAN_POINT('',(-0.000004,0.0999998,0.0));
#373=VERTEX_POINT('',#372);
#374=CARTESIAN_POINT('',(-2.0,0.0999998,0.0));
#375=DIRECTION('',(1.0,0.0,0.0));
#376=VECTOR('',#375,1.999996);
#377=LINE('',#374,#376);
#378=EDGE_CURVE('',#371,#373,#377,.T.);
#379=ORIENTED_EDGE('',*,*,#378,.F.);
#380=CARTESIAN_POINT('',(-2.0,0.23499953,0.0));
#381=VERTEX_POINT('',#380);
#382=CARTESIAN_POINT('',(-2.0,0.23499953,0.0));
#383=DIRECTION('',(0.0,-1.0,0.0));
#384=VECTOR('',#383,0.13499973);
#385=LINE('',#382,#384);
#386=EDGE_CURVE('',#381,#371,#385,.T.);
#387=ORIENTED_EDGE('',*,*,#386,.F.);
#388=CARTESIAN_POINT('',(-0.000004,0.23499953,0.0));
#389=VERTEX_POINT('',#388);
#390=CARTESIAN_POINT('',(-0.000004,0.23499953,0.0));
#391=DIRECTION('',(-1.0,0.0,0.0));
#392=VECTOR('',#391,1.999996);
#393=LINE('',#390,#392);
#394=EDGE_CURVE('',#389,#381,#393,.T.);
#395=ORIENTED_EDGE('',*,*,#394,.F.);
#396=CARTESIAN_POINT('',(-0.000004,0.0999998,0.0));
#397=DIRECTION('',(0.0,1.0,0.0));
#398=VECTOR('',#397,0.13499973);
#399=LINE('',#396,#398);
#400=EDGE_CURVE('',#373,#389,#399,.T.);
#401=ORIENTED_EDGE('',*,*,#400,.F.);
#402=EDGE_LOOP('',(#379,#387,#395,#401));
#403=FACE_OUTER_BOUND('',#402,.T.);
#404=ADVANCED_FACE('',(#403),#369,.T.);
#405=CARTESIAN_POINT('',(-2.0,0.23499953,0.0));
#406=DIRECTION('',(0.0,1.0,0.0));
#407=DIRECTION('',(0.0,0.0,1.0));
#408=AXIS2_PLACEMENT_3D('',#405,#406,#407);
#409=PLANE('',#408);
#410=CARTESIAN_POINT('',(-0.000004,0.23499953,0.02999994));
#411=VERTEX_POINT('',#410);
#412=CARTESIAN_POINT('',(-2.0,0.23499953,0.02999994));
#413=VERTEX_POINT('',#412);
#414=CARTESIAN_POINT('',(-0.000004,0.23499953,0.02999994));
#415=DIRECTION('',(-1.0,0.0,0.0));
#416=VECTOR('',#415,1.999996);
#417=LINE('',#414,#416);
#418=EDGE_CURVE('',#411,#413,#417,.T.);
#419=ORIENTED_EDGE('',*,*,#418,.F.);
#420=CARTESIAN_POINT('',(-0.000004,0.23499953,0.0));
#421=DIRECTION('',(0.0,0.0,1.0));
#422=VECTOR('',#421,0.02999994);
#423=LINE('',#420,#422);
#424=EDGE_CURVE('',#389,#411,#423,.T.);
#425=ORIENTED_EDGE('',*,*,#424,.F.);
#426=ORIENTED_EDGE('',*,*,#394,.T.);
#427=CARTESIAN_POINT('',(-2.0,0.23499953,0.0));
#428=DIRECTION('',(0.0,0.0,1.0));
#429=VECTOR('',#428,0.02999994);
#430=LINE('',#427,#429);
#431=EDGE_CURVE('',#381,#413,#430,.T.);
#432=ORIENTED_EDGE('',*,*,#431,.T.);
#433=EDGE_LOOP('',(#419,#425,#426,#432));
#434=FACE_OUTER_BOUND('',#433,.T.);
#435=ADVANCED_FACE('',(#434),#409,.T.);
#436=CARTESIAN_POINT('',(-0.000004,0.23499953,0.0));
#437=DIRECTION('',(1.0,0.0,0.0));
#438=DIRECTION('',(0.0,0.0,-1.0));
#439=AXIS2_PLACEMENT_3D('',#436,#437,#438);
#440=PLANE('',#439);
#441=CARTESIAN_POINT('',(-0.000004,-0.23499953,0.02999994));
#442=VERTEX_POINT('',#441);
#443=CARTESIAN_POINT('',(-0.000004,-0.23499953,0.02999994));
#444=DIRECTION('',(0.0,1.0,0.0));
#445=VECTOR('',#444,0.46999906);
#446=LINE('',#443,#445);
#447=EDGE_CURVE('',#442,#411,#446,.T.);
#448=ORIENTED_EDGE('',*,*,#447,.F.);
#449=CARTESIAN_POINT('',(-0.000004,-0.23499953,0.0));
#450=DIRECTION('',(0.0,0.0,1.0));
#451=VECTOR('',#450,0.02999994);
#452=LINE('',#449,#451);
#453=EDGE_CURVE('',#207,#442,#452,.T.);
#454=ORIENTED_EDGE('',*,*,#453,.F.);
#455=ORIENTED_EDGE('',*,*,#212,.T.);
#456=CARTESIAN_POINT('',(-0.000004,0.0999998,0.0));
#457=DIRECTION('',(0.0,-1.0,0.0));
#458=VECTOR('',#457,0.1999996);
#459=LINE('',#456,#458);
#460=EDGE_CURVE('',#373,#199,#459,.T.);
#461=ORIENTED_EDGE('',*,*,#460,.F.);
#462=ORIENTED_EDGE('',*,*,#400,.T.);
#463=ORIENTED_EDGE('',*,*,#424,.T.);
#464=EDGE_LOOP('',(#448,#454,#455,#461,#462,#463));
#465=FACE_OUTER_BOUND('',#464,.T.);
#466=ADVANCED_FACE('',(#465),#440,.T.);
#467=CARTESIAN_POINT('',(-0.000004,-0.23499953,0.0));
#468=DIRECTION('',(0.0,-1.0,0.0));
#469=DIRECTION('',(0.0,0.0,-1.0));
#470=AXIS2_PLACEMENT_3D('',#467,#468,#469);
#471=PLANE('',#470);
#472=CARTESIAN_POINT('',(-2.0,-0.23499953,0.02999994));
#473=VERTEX_POINT('',#472);
#474=CARTESIAN_POINT('',(-2.0,-0.23499953,0.02999994));
#475=DIRECTION('',(1.0,0.0,0.0));
#476=VECTOR('',#475,1.999996);
#477=LINE('',#474,#476);
#478=EDGE_CURVE('',#473,#442,#477,.T.);
#479=ORIENTED_EDGE('',*,*,#478,.F.);
#480=CARTESIAN_POINT('',(-2.0,-0.23499953,0.0));
#481=DIRECTION('',(0.0,0.0,1.0));
#482=VECTOR('',#481,0.02999994);
#483=LINE('',#480,#482);
#484=EDGE_CURVE('',#215,#473,#483,.T.);
#485=ORIENTED_EDGE('',*,*,#484,.F.);
#486=ORIENTED_EDGE('',*,*,#220,.T.);
#487=ORIENTED_EDGE('',*,*,#453,.T.);
#488=EDGE_LOOP('',(#479,#485,#486,#487));
#489=FACE_OUTER_BOUND('',#488,.T.);
#490=ADVANCED_FACE('',(#489),#471,.T.);
#491=CARTESIAN_POINT('',(-2.0,-0.23499953,0.0));
#492=DIRECTION('',(-1.0,0.0,0.0));
#493=DIRECTION('',(0.0,0.0,1.0));
#494=AXIS2_PLACEMENT_3D('',#491,#492,#493);
#495=PLANE('',#494);
#496=CARTESIAN_POINT('',(-2.0,0.23499953,0.02999994));
#497=DIRECTION('',(0.0,-1.0,0.0));
#498=VECTOR('',#497,0.46999906);
#499=LINE('',#496,#498);
#500=EDGE_CURVE('',#413,#473,#499,.T.);
#501=ORIENTED_EDGE('',*,*,#500,.F.);
#502=ORIENTED_EDGE('',*,*,#431,.F.);
#503=ORIENTED_EDGE('',*,*,#386,.T.);
#504=CARTESIAN_POINT('',(-2.0,0.0999998,0.0));
#505=DIRECTION('',(0.0,-1.0,0.0));
#506=VECTOR('',#505,0.1999996);
#507=LINE('',#504,#506);
#508=EDGE_CURVE('',#371,#197,#507,.T.);
#509=ORIENTED_EDGE('',*,*,#508,.T.);
#510=ORIENTED_EDGE('',*,*,#226,.T.);
#511=ORIENTED_EDGE('',*,*,#484,.T.);
#512=EDGE_LOOP('',(#501,#502,#503,#509,#510,#511));
#513=FACE_OUTER_BOUND('',#512,.T.);
#514=ADVANCED_FACE('',(#513),#495,.T.);
#515=CARTESIAN_POINT('',(-1.37500125,0.0999998,-1.0999978));
#516=DIRECTION('',(-0.869456557392768,-1.028364E-016,-0.494009407609527));
#517=DIRECTION('',(-0.494009407609527,0.0,0.869456557392768));
#518=AXIS2_PLACEMENT_3D('',#515,#516,#517);
#519=PLANE('',#518);
#520=ORIENTED_EDGE('',*,*,#352,.F.);
#521=ORIENTED_EDGE('',*,*,#316,.T.);
#522=ORIENTED_EDGE('',*,*,#508,.F.);
#523=CARTESIAN_POINT('',(-1.38362607239334,0.0999998,-1.084818112587721));
#524=DIRECTION('',(-0.494009407609527,2.002091E-016,0.869456557392768));
#525=VECTOR('',#524,1.247696740410764);
#526=LINE('',#523,#525);
#527=EDGE_CURVE('',#347,#371,#526,.T.);
#528=ORIENTED_EDGE('',*,*,#527,.F.);
#529=EDGE_LOOP('',(#520,#521,#522,#528));
#530=FACE_OUTER_BOUND('',#529,.T.);
#531=ADVANCED_FACE('',(#530),#519,.T.);
#532=CARTESIAN_POINT('',(-0.000004,0.0999998,0.0));
#533=DIRECTION('',(0.869456557392768,-1.028364E-016,-0.494009407609527));
#534=DIRECTION('',(-0.494009407609527,0.0,-0.869456557392768));
#535=AXIS2_PLACEMENT_3D('',#532,#533,#534);
#536=PLANE('',#535);
#537=ORIENTED_EDGE('',*,*,#268,.F.);
#538=CARTESIAN_POINT('',(-0.000004,0.0999998,0.0));
#539=DIRECTION('',(-0.494009407609528,-1.890863E-016,-0.869456557392768));
#540=VECTOR('',#539,1.247696740410764);
#541=LINE('',#538,#540);
#542=EDGE_CURVE('',#373,#256,#541,.T.);
#543=ORIENTED_EDGE('',*,*,#542,.F.);
#544=ORIENTED_EDGE('',*,*,#460,.T.);
#545=ORIENTED_EDGE('',*,*,#331,.T.);
#546=EDGE_LOOP('',(#537,#543,#544,#545));
#547=FACE_OUTER_BOUND('',#546,.T.);
#548=ADVANCED_FACE('',(#547),#536,.T.);
#549=CARTESIAN_POINT('',(-1.000002,0.0999998,-0.5499989));
#550=DIRECTION('',(0.0,-1.0,0.0));
#551=DIRECTION('',(0.0,0.0,-1.0));
#552=AXIS2_PLACEMENT_3D('',#549,#550,#551);
#553=PLANE('',#552);
#554=ORIENTED_EDGE('',*,*,#262,.F.);
#555=ORIENTED_EDGE('',*,*,#299,.T.);
#556=ORIENTED_EDGE('',*,*,#359,.F.);
#557=ORIENTED_EDGE('',*,*,#527,.T.);
#558=ORIENTED_EDGE('',*,*,#378,.T.);
#559=ORIENTED_EDGE('',*,*,#542,.T.);
#560=EDGE_LOOP('',(#554,#555,#556,#557,#558,#559));
#561=FACE_OUTER_BOUND('',#560,.T.);
#562=ORIENTED_EDGE('',*,*,#162,.T.);
#563=ORIENTED_EDGE('',*,*,#178,.T.);
#564=EDGE_LOOP('',(#562,#563));
#565=FACE_BOUND('',#564,.T.);
#566=ADVANCED_FACE('',(#561,#565),#553,.F.);
#567=CARTESIAN_POINT('',(-0.000004,0.23499953,0.02999994));
#568=DIRECTION('',(0.788010753606721,0.0,0.615661475325659));
#569=DIRECTION('',(0.0,1.0,0.0));
#570=AXIS2_PLACEMENT_3D('',#567,#568,#569);
#571=PLANE('',#570);
#572=CARTESIAN_POINT('',(-0.123446882101804,0.111556647898197,0.187999624));
#573=VERTEX_POINT('',#572);
#574=CARTESIAN_POINT('',(-0.123446882101804,-0.111556647898197,0.187999624));
#575=VERTEX_POINT('',#574);
#576=CARTESIAN_POINT('',(-0.123446882101804,0.111556647898197,0.187999624));
#577=DIRECTION('',(0.0,-1.0,0.0));
#578=VECTOR('',#577,0.223113295796394);
#579=LINE('',#576,#578);
#580=EDGE_CURVE('',#573,#575,#579,.T.);
#581=ORIENTED_EDGE('',*,*,#580,.T.);
#582=CARTESIAN_POINT('',(-0.000004,-0.23499953,0.02999994));
#583=DIRECTION('',(-0.524268417664047,0.524268417664047,0.671032974212202));
#584=VECTOR('',#583,0.235457406821912);
#585=LINE('',#582,#584);
#586=EDGE_CURVE('',#442,#575,#585,.T.);
#587=ORIENTED_EDGE('',*,*,#586,.F.);
#588=ORIENTED_EDGE('',*,*,#447,.T.);
#589=CARTESIAN_POINT('',(-0.000004,0.234999530000001,0.02999994));
#590=DIRECTION('',(-0.524268417664047,-0.524268417664047,0.671032974212202));
#591=VECTOR('',#590,0.235457406821912);
#592=LINE('',#589,#591);
#593=EDGE_CURVE('',#411,#573,#592,.T.);
#594=ORIENTED_EDGE('',*,*,#593,.T.);
#595=EDGE_LOOP('',(#581,#587,#588,#594));
#596=FACE_OUTER_BOUND('',#595,.T.);
#597=ADVANCED_FACE('',(#596),#571,.T.);
#598=CARTESIAN_POINT('',(-0.000004,-0.23499953,0.02999994));
#599=DIRECTION('',(0.0,-0.788010753606721,0.615661475325659));
#600=DIRECTION('',(1.0,0.0,0.0));
#601=AXIS2_PLACEMENT_3D('',#598,#599,#600);
#602=PLANE('',#601);
#603=CARTESIAN_POINT('',(-1.876557117898197,-0.111556647898197,0.187999624));
#604=VERTEX_POINT('',#603);
#605=CARTESIAN_POINT('',(-0.123446882101804,-0.111556647898196,0.187999624));
#606=DIRECTION('',(-1.0,0.0,0.0));
#607=VECTOR('',#606,1.753110235796393);
#608=LINE('',#605,#607);
#609=EDGE_CURVE('',#575,#604,#608,.T.);
#610=ORIENTED_EDGE('',*,*,#609,.T.);
#611=CARTESIAN_POINT('',(-2.0,-0.23499953,0.02999994));
#612=DIRECTION('',(0.524268417664046,0.524268417664047,0.671032974212202));
#613=VECTOR('',#612,0.235457406821911);
#614=LINE('',#611,#613);
#615=EDGE_CURVE('',#473,#604,#614,.T.);
#616=ORIENTED_EDGE('',*,*,#615,.F.);
#617=ORIENTED_EDGE('',*,*,#478,.T.);
#618=ORIENTED_EDGE('',*,*,#586,.T.);
#619=EDGE_LOOP('',(#610,#616,#617,#618));
#620=FACE_OUTER_BOUND('',#619,.T.);
#621=ADVANCED_FACE('',(#620),#602,.T.);
#622=CARTESIAN_POINT('',(-2.0,-0.23499953,0.02999994));
#623=DIRECTION('',(-0.788010753606722,0.0,0.615661475325658));
#624=DIRECTION('',(0.0,-1.0,0.0));
#625=AXIS2_PLACEMENT_3D('',#622,#623,#624);
#626=PLANE('',#625);
#627=CARTESIAN_POINT('',(-1.876557117898197,0.111556647898197,0.187999624));
#628=VERTEX_POINT('',#627);
#629=CARTESIAN_POINT('',(-1.876557117898197,-0.111556647898197,0.187999624));
#630=DIRECTION('',(0.0,1.0,0.0));
#631=VECTOR('',#630,0.223113295796394);
#632=LINE('',#629,#631);
#633=EDGE_CURVE('',#604,#628,#632,.T.);
#634=ORIENTED_EDGE('',*,*,#633,.T.);
#635=CARTESIAN_POINT('',(-2.0,0.234999530000001,0.02999994));
#636=DIRECTION('',(0.524268417664046,-0.524268417664047,0.671032974212202));
#637=VECTOR('',#636,0.235457406821912);
#638=LINE('',#635,#637);
#639=EDGE_CURVE('',#413,#628,#638,.T.);
#640=ORIENTED_EDGE('',*,*,#639,.F.);
#641=ORIENTED_EDGE('',*,*,#500,.T.);
#642=ORIENTED_EDGE('',*,*,#615,.T.);
#643=EDGE_LOOP('',(#634,#640,#641,#642));
#644=FACE_OUTER_BOUND('',#643,.T.);
#645=ADVANCED_FACE('',(#644),#626,.T.);
#646=CARTESIAN_POINT('',(-2.0,0.23499953,0.02999994));
#647=DIRECTION('',(0.0,0.788010753606721,0.615661475325659));
#648=DIRECTION('',(-1.0,0.0,0.0));
#649=AXIS2_PLACEMENT_3D('',#646,#647,#648);
#650=PLANE('',#649);
#651=CARTESIAN_POINT('',(-1.876557117898197,0.111556647898197,0.187999624));
#652=DIRECTION('',(1.0,0.0,0.0));
#653=VECTOR('',#652,1.753110235796393);
#654=LINE('',#651,#653);
#655=EDGE_CURVE('',#628,#573,#654,.T.);
#656=ORIENTED_EDGE('',*,*,#655,.T.);
#657=ORIENTED_EDGE('',*,*,#593,.F.);
#658=ORIENTED_EDGE('',*,*,#418,.T.);
#659=ORIENTED_EDGE('',*,*,#639,.T.);
#660=EDGE_LOOP('',(#656,#657,#658,#659));
#661=FACE_OUTER_BOUND('',#660,.T.);
#662=ADVANCED_FACE('',(#661),#650,.T.);
#663=CARTESIAN_POINT('',(-0.000004,0.23499953,0.187999624));
#664=DIRECTION('',(0.0,0.0,-1.0));
#665=DIRECTION('',(-1.0,0.0,0.0));
#666=AXIS2_PLACEMENT_3D('',#663,#664,#665);
#667=PLANE('',#666);
#668=ORIENTED_EDGE('',*,*,#580,.F.);
#669=ORIENTED_EDGE('',*,*,#655,.F.);
#670=ORIENTED_EDGE('',*,*,#633,.F.);
#671=ORIENTED_EDGE('',*,*,#609,.F.);
#672=EDGE_LOOP('',(#668,#669,#670,#671));
#673=FACE_OUTER_BOUND('',#672,.T.);
#674=ADVANCED_FACE('',(#673),#667,.F.);
#675=CLOSED_SHELL('',(#166,#190,#230,#272,#303,#339,#364,#404,#435,#466,#490,#514,#531,#548,#566,#597,#621,#645,#662,#674));
#676=MANIFOLD_SOLID_BREP('2D',#675);
#677=ADVANCED_BREP_SHAPE_REPRESENTATION('ABSR1',(#676),#28);
#678=SHAPE_REPRESENTATION_RELATIONSHIP('SRRPL1','',#677,#122);
ENDSEC;
END-ISO-10303-21;
