ISO-10303-21;
HEADER;
/****************************************************************
 * Generated by software with PDE/Lib inside                    *
 * PDE/Lib Version 3.2.2, created Thu Mar 23, 2000 at 18:38:49  *
 * International Technegroup Inc. (www.iti-oh.com)              *
 ****************************************************************/
FILE_DESCRIPTION((''),'2;1');
FILE_NAME('40CB4801.stp','2006-03-13T15:21:44',('Shawn Mantel'),('Faztek, LLC'),'Mechanical Desktop 2005','Mechanical Desktop 2005',', , ');
FILE_SCHEMA(('CONFIG_CONTROL_DESIGN'));
ENDSEC;
DATA;
#8=(NAMED_UNIT(*)PLANE_ANGLE_UNIT()SI_UNIT($,.RADIAN.));
#9=DIMENSIONAL_EXPONENTS(0.0,0.0,0.0,0.0,0.0,0.0,0.0);
#10=PLANE_ANGLE_MEASURE_WITH_UNIT(PLANE_ANGLE_MEASURE(0.017453292500000),#8);
#14=(CONVERSION_BASED_UNIT('DEGREE',#10)NAMED_UNIT(#9)PLANE_ANGLE_UNIT());
#18=(NAMED_UNIT(*)SI_UNIT($,.STERADIAN.)SOLID_ANGLE_UNIT());
#20=DIMENSIONAL_EXPONENTS(1.0,0.0,0.0,0.0,0.0,0.0,0.0);
#24=(LENGTH_UNIT()NAMED_UNIT(*)SI_UNIT(.MILLI.,.METRE.));
#25=LENGTH_MEASURE_WITH_UNIT(LENGTH_MEASURE(25.399999999999999),#24);
#27=(CONVERSION_BASED_UNIT('INCH',#25)LENGTH_UNIT()NAMED_UNIT(#20));
#28=UNCERTAINTY_MEASURE_WITH_UNIT(LENGTH_MEASURE(0.000001000000000),#27,'DISTANCE_ACCURACY_VALUE','');
#33=(GEOMETRIC_REPRESENTATION_CONTEXT(3)GLOBAL_UNCERTAINTY_ASSIGNED_CONTEXT((#28))GLOBAL_UNIT_ASSIGNED_CONTEXT((#14,#18,#27))REPRESENTATION_CONTEXT('None','None'));
#34=APPLICATION_CONTEXT('CONFIGURATION CONTROLLED 3D DESIGNS OF MECHANICAL PARTS AND ASSEMBLIES');
#35=APPLICATION_PROTOCOL_DEFINITION('INTERNATIONAL STANDARD','config_control_design',1995,#34);
#36=MECHANICAL_CONTEXT('3D Mechanical Parts',#34,'mechanical');
#37=PRODUCT('Product','Product',' ',(#36));
#38=PRODUCT_RELATED_PRODUCT_CATEGORY('detail',$,(#37));
#39=PRODUCT_CATEGORY('part',$);
#40=PRODUCT_CATEGORY_RELATIONSHIP('None','None',#39,#38);
#41=PERSON('1','Design','Joe',$,$,$);
#42=ORGANIZATION($,'None','None');
#43=PERSON_AND_ORGANIZATION(#41,#42);
#44=PERSON_AND_ORGANIZATION_ROLE('design_owner');
#45=CC_DESIGN_PERSON_AND_ORGANIZATION_ASSIGNMENT(#43,#44,(#37));
#46=PRODUCT_DEFINITION_FORMATION_WITH_SPECIFIED_SOURCE('None','None',#37,.NOT_KNOWN.);
#47=PERSON('2','Creator','Joe',$,$,$);
#48=ORGANIZATION($,'None','None');
#49=PERSON_AND_ORGANIZATION(#47,#48);
#50=PERSON_AND_ORGANIZATION_ROLE('creator');
#51=CC_DESIGN_PERSON_AND_ORGANIZATION_ASSIGNMENT(#49,#50,(#46));
#52=PERSON('3','Supplier','Joe',$,$,$);
#53=ORGANIZATION($,'None','None');
#54=PERSON_AND_ORGANIZATION(#52,#53);
#55=PERSON_AND_ORGANIZATION_ROLE('design_supplier');
#56=CC_DESIGN_PERSON_AND_ORGANIZATION_ASSIGNMENT(#54,#55,(#46));
#57=APPROVAL_STATUS('approved');
#58=APPROVAL(#57,'None');
#59=PERSON('4','Approver','Joe',$,$,$);
#60=ORGANIZATION($,'None','None');
#61=PERSON_AND_ORGANIZATION(#59,#60);
#62=APPROVAL_ROLE('approver');
#63=APPROVAL_PERSON_ORGANIZATION(#61,#58,#62);
#64=COORDINATED_UNIVERSAL_TIME_OFFSET(8,$,.BEHIND.);
#65=CALENDAR_DATE(1996,29,5);
#66=LOCAL_TIME(12,0,0.0,#64);
#67=DATE_AND_TIME(#65,#66);
#68=APPROVAL_DATE_TIME(#67,#58);
#69=CC_DESIGN_APPROVAL(#58,(#46));
#70=SECURITY_CLASSIFICATION_LEVEL('unclassified');
#71=SECURITY_CLASSIFICATION('security','None',#70);
#72=CC_DESIGN_SECURITY_CLASSIFICATION(#71,(#46));
#73=APPROVAL_STATUS('approved');
#74=APPROVAL(#73,'None');
#75=PERSON('5','Approver','Joe',$,$,$);
#76=ORGANIZATION($,'None','None');
#77=PERSON_AND_ORGANIZATION(#75,#76);
#78=APPROVAL_ROLE('approver');
#79=APPROVAL_PERSON_ORGANIZATION(#77,#74,#78);
#80=COORDINATED_UNIVERSAL_TIME_OFFSET(8,$,.BEHIND.);
#81=CALENDAR_DATE(1996,29,5);
#82=LOCAL_TIME(12,0,0.0,#80);
#83=DATE_AND_TIME(#81,#82);
#84=APPROVAL_DATE_TIME(#83,#74);
#85=CC_DESIGN_APPROVAL(#74,(#71));
#86=PERSON('6','Classifier','Joe',$,$,$);
#87=ORGANIZATION($,'None','None');
#88=PERSON_AND_ORGANIZATION(#86,#87);
#89=PERSON_AND_ORGANIZATION_ROLE('classification_officer');
#90=CC_DESIGN_PERSON_AND_ORGANIZATION_ASSIGNMENT(#88,#89,(#71));
#91=COORDINATED_UNIVERSAL_TIME_OFFSET(8,$,.BEHIND.);
#92=CALENDAR_DATE(1996,29,5);
#93=LOCAL_TIME(12,0,0.0,#91);
#94=DATE_AND_TIME(#92,#93);
#95=DATE_TIME_ROLE('classification_date');
#96=CC_DESIGN_DATE_AND_TIME_ASSIGNMENT(#94,#95,(#71));
#97=DESIGN_CONTEXT('Design Context',#34,'design');
#98=PRODUCT_DEFINITION('None','None',#46,#97);
#99=PERSON('7','Creator','Joe',$,$,$);
#100=ORGANIZATION($,'None','None');
#101=PERSON_AND_ORGANIZATION(#99,#100);
#102=PERSON_AND_ORGANIZATION_ROLE('creator');
#103=CC_DESIGN_PERSON_AND_ORGANIZATION_ASSIGNMENT(#101,#102,(#98));
#104=COORDINATED_UNIVERSAL_TIME_OFFSET(8,$,.BEHIND.);
#105=CALENDAR_DATE(1996,29,5);
#106=LOCAL_TIME(12,0,0.0,#104);
#107=DATE_AND_TIME(#105,#106);
#108=DATE_TIME_ROLE('creation_date');
#109=CC_DESIGN_DATE_AND_TIME_ASSIGNMENT(#107,#108,(#98));
#110=APPROVAL_STATUS('approved');
#111=APPROVAL(#110,'None');
#112=PERSON('8','Approver','Joe',$,$,$);
#113=ORGANIZATION($,'None','None');
#114=PERSON_AND_ORGANIZATION(#112,#113);
#115=APPROVAL_ROLE('approver');
#116=APPROVAL_PERSON_ORGANIZATION(#114,#111,#115);
#117=COORDINATED_UNIVERSAL_TIME_OFFSET(8,$,.BEHIND.);
#118=CALENDAR_DATE(1996,29,5);
#119=LOCAL_TIME(12,0,0.0,#117);
#120=DATE_AND_TIME(#118,#119);
#121=APPROVAL_DATE_TIME(#120,#111);
#122=CC_DESIGN_APPROVAL(#111,(#98));
#123=CARTESIAN_POINT('NONE',(0.0,0.0,0.0));
#124=DIRECTION('NONE',(0.0,0.0,1.0));
#125=DIRECTION('NONE',(1.0,0.0,0.0));
#126=AXIS2_PLACEMENT_3D('NONE',#123,#124,#125);
#127=SHAPE_REPRESENTATION('SR1',(#126),#33);
#128=PRODUCT_DEFINITION_SHAPE('PDS1','Test Part',#98);
#129=SHAPE_DEFINITION_REPRESENTATION(#128,#127);
#130=CARTESIAN_POINT('',(-0.655000000000000,1.110223E-015,1.250000000000001));
#131=DIRECTION('',(1.0,-3.835365E-017,-2.832749E-016));
#132=DIRECTION('',(1.731855E-016,-0.707106781186548,0.707106781186547));
#133=AXIS2_PLACEMENT_3D('',#130,#131,#132);
#134=CYLINDRICAL_SURFACE('',#133,0.250000000000000);
#135=CARTESIAN_POINT('',(-0.655000000000000,-0.176776695296636,1.426776695296638));
#136=VERTEX_POINT('',#135);
#137=CARTESIAN_POINT('',(0.655000000000000,-0.176776695296636,1.426776695296637));
#138=VERTEX_POINT('',#137);
#139=CARTESIAN_POINT('',(-0.655000000000000,-0.176776695296636,1.426776695296638));
#140=DIRECTION('',(1.0,0.0,0.0));
#141=VECTOR('',#140,1.310000000000000);
#142=LINE('',#139,#141);
#143=EDGE_CURVE('',#136,#138,#142,.T.);
#144=ORIENTED_EDGE('',*,*,#143,.F.);
#145=CARTESIAN_POINT('',(-0.655000000000000,-0.249999999999999,1.250000000000001));
#146=VERTEX_POINT('',#145);
#147=CARTESIAN_POINT('',(-0.655000000000000,1.110223E-015,1.250000000000001));
#148=DIRECTION('',(1.0,1.224606E-016,-1.224606E-016));
#149=DIRECTION('',(1.731855E-016,-0.707106781186548,0.707106781186547));
#150=AXIS2_PLACEMENT_3D('',#147,#148,#149);
#151=CIRCLE('',#150,0.250000000000000);
#152=EDGE_CURVE('',#136,#146,#151,.T.);
#153=ORIENTED_EDGE('',*,*,#152,.T.);
#154=CARTESIAN_POINT('',(0.655000000000000,-0.249999999999999,1.250000000000001));
#155=VERTEX_POINT('',#154);
#156=CARTESIAN_POINT('',(-0.655000000000000,-0.249999999999999,1.250000000000001));
#157=DIRECTION('',(1.0,0.0,0.0));
#158=VECTOR('',#157,1.310000000000000);
#159=LINE('',#156,#158);
#160=EDGE_CURVE('',#146,#155,#159,.T.);
#161=ORIENTED_EDGE('',*,*,#160,.T.);
#162=CARTESIAN_POINT('',(0.655000000000000,1.059980E-015,1.250000000000001));
#163=DIRECTION('',(-1.0,-1.224606E-016,1.224606E-016));
#164=DIRECTION('',(1.731855E-016,-0.707106781186548,0.707106781186547));
#165=AXIS2_PLACEMENT_3D('',#162,#163,#164);
#166=CIRCLE('',#165,0.250000000000000);
#167=EDGE_CURVE('',#155,#138,#166,.T.);
#168=ORIENTED_EDGE('',*,*,#167,.T.);
#169=EDGE_LOOP('',(#144,#153,#161,#168));
#170=FACE_OUTER_BOUND('',#169,.T.);
#171=ADVANCED_FACE('',(#170),#134,.T.);
#172=CARTESIAN_POINT('',(-0.655000000000000,-0.499999999999999,0.500000000000001));
#173=DIRECTION('',(1.0,-3.835365E-017,-2.832749E-016));
#174=DIRECTION('',(-1.731855E-016,0.707106781186548,-0.707106781186547));
#175=AXIS2_PLACEMENT_3D('',#172,#173,#174);
#176=CYLINDRICAL_SURFACE('',#175,0.250000000000000);
#177=CARTESIAN_POINT('',(-0.655000000000000,-0.323223304703362,0.323223304703364));
#178=VERTEX_POINT('',#177);
#179=CARTESIAN_POINT('',(0.655000000000000,-0.323223304703362,0.323223304703364));
#180=VERTEX_POINT('',#179);
#181=CARTESIAN_POINT('',(-0.655000000000000,-0.323223304703362,0.323223304703364));
#182=DIRECTION('',(1.0,0.0,0.0));
#183=VECTOR('',#182,1.310000000000000);
#184=LINE('',#181,#183);
#185=EDGE_CURVE('',#178,#180,#184,.T.);
#186=ORIENTED_EDGE('',*,*,#185,.F.);
#187=CARTESIAN_POINT('',(-0.655000000000000,-0.499999999999999,0.250000000000001));
#188=VERTEX_POINT('',#187);
#189=CARTESIAN_POINT('',(-0.655000000000000,-0.499999999999999,0.500000000000001));
#190=DIRECTION('',(-1.0,-1.224606E-016,1.224606E-016));
#191=DIRECTION('',(-1.731855E-016,0.707106781186548,-0.707106781186547));
#192=AXIS2_PLACEMENT_3D('',#189,#190,#191);
#193=CIRCLE('',#192,0.250000000000000);
#194=EDGE_CURVE('',#178,#188,#193,.T.);
#195=ORIENTED_EDGE('',*,*,#194,.T.);
#196=CARTESIAN_POINT('',(0.655000000000000,-0.499999999999999,0.250000000000001));
#197=VERTEX_POINT('',#196);
#198=CARTESIAN_POINT('',(-0.655000000000000,-0.499999999999999,0.250000000000001));
#199=DIRECTION('',(1.0,0.0,0.0));
#200=VECTOR('',#199,1.310000000000000);
#201=LINE('',#198,#200);
#202=EDGE_CURVE('',#188,#197,#201,.T.);
#203=ORIENTED_EDGE('',*,*,#202,.T.);
#204=CARTESIAN_POINT('',(0.655000000000000,-0.499999999999999,0.500000000000001));
#205=DIRECTION('',(1.0,1.224606E-016,-1.224606E-016));
#206=DIRECTION('',(-1.731855E-016,0.707106781186548,-0.707106781186547));
#207=AXIS2_PLACEMENT_3D('',#204,#205,#206);
#208=CIRCLE('',#207,0.250000000000000);
#209=EDGE_CURVE('',#197,#180,#208,.T.);
#210=ORIENTED_EDGE('',*,*,#209,.T.);
#211=EDGE_LOOP('',(#186,#195,#203,#210));
#212=FACE_OUTER_BOUND('',#211,.T.);
#213=ADVANCED_FACE('',(#212),#176,.F.);
#214=CARTESIAN_POINT('',(-0.655000000000000,-1.249999999999999,8.326673E-016));
#215=DIRECTION('',(1.0,-3.835365E-017,-2.832749E-016));
#216=DIRECTION('',(1.731855E-016,-0.707106781186548,0.707106781186547));
#217=AXIS2_PLACEMENT_3D('',#214,#215,#216);
#218=CYLINDRICAL_SURFACE('',#217,0.250000000000000);
#219=CARTESIAN_POINT('',(-0.655000000000000,-1.426776695296636,0.176776695296638));
#220=VERTEX_POINT('',#219);
#221=CARTESIAN_POINT('',(0.655000000000000,-1.426776695296636,0.176776695296637));
#222=VERTEX_POINT('',#221);
#223=CARTESIAN_POINT('',(-0.655000000000000,-1.426776695296636,0.176776695296638));
#224=DIRECTION('',(1.0,0.0,0.0));
#225=VECTOR('',#224,1.310000000000000);
#226=LINE('',#223,#225);
#227=EDGE_CURVE('',#220,#222,#226,.T.);
#228=ORIENTED_EDGE('',*,*,#227,.F.);
#229=CARTESIAN_POINT('',(-0.655000000000000,-1.499999999999999,7.771561E-016));
#230=VERTEX_POINT('',#229);
#231=CARTESIAN_POINT('',(-0.655000000000000,-1.249999999999999,8.326673E-016));
#232=DIRECTION('',(1.0,1.224606E-016,-1.224606E-016));
#233=DIRECTION('',(1.731855E-016,-0.707106781186548,0.707106781186547));
#234=AXIS2_PLACEMENT_3D('',#231,#232,#233);
#235=CIRCLE('',#234,0.250000000000000);
#236=EDGE_CURVE('',#220,#230,#235,.T.);
#237=ORIENTED_EDGE('',*,*,#236,.T.);
#238=CARTESIAN_POINT('',(0.655000000000000,-1.499999999999999,4.060660E-016));
#239=VERTEX_POINT('',#238);
#240=CARTESIAN_POINT('',(-0.655000000000000,-1.499999999999999,7.771561E-016));
#241=DIRECTION('',(1.0,0.0,0.0));
#242=VECTOR('',#241,1.310000000000000);
#243=LINE('',#240,#242);
#244=EDGE_CURVE('',#230,#239,#243,.T.);
#245=ORIENTED_EDGE('',*,*,#244,.T.);
#246=CARTESIAN_POINT('',(0.655000000000000,-1.249999999999999,4.615771E-016));
#247=DIRECTION('',(-1.0,-1.224606E-016,1.224606E-016));
#248=DIRECTION('',(1.731855E-016,-0.707106781186548,0.707106781186547));
#249=AXIS2_PLACEMENT_3D('',#246,#247,#248);
#250=CIRCLE('',#249,0.250000000000000);
#251=EDGE_CURVE('',#239,#222,#250,.T.);
#252=ORIENTED_EDGE('',*,*,#251,.T.);
#253=EDGE_LOOP('',(#228,#237,#245,#252));
#254=FACE_OUTER_BOUND('',#253,.T.);
#255=ADVANCED_FACE('',(#254),#218,.T.);
#256=CARTESIAN_POINT('',(-3.330669E-016,-0.786999999999999,5.916110E-016));
#257=DIRECTION('',(0.0,0.0,1.0));
#258=DIRECTION('',(1.0,0.0,0.0));
#259=AXIS2_PLACEMENT_3D('',#256,#257,#258);
#260=CYLINDRICAL_SURFACE('',#259,0.170000000000000);
#261=CARTESIAN_POINT('',(0.170000000000000,-0.786999999999999,0.250000000000001));
#262=VERTEX_POINT('',#261);
#263=CARTESIAN_POINT('',(0.170000000000000,-0.786999999999999,5.916110E-016));
#264=VERTEX_POINT('',#263);
#265=CARTESIAN_POINT('',(0.170000000000000,-0.786999999999999,0.250000000000001));
#266=DIRECTION('',(0.0,0.0,-1.0));
#267=VECTOR('',#266,0.250000000000000);
#268=LINE('',#265,#267);
#269=EDGE_CURVE('',#262,#264,#268,.T.);
#270=ORIENTED_EDGE('',*,*,#269,.F.);
#271=CARTESIAN_POINT('',(-0.170000000000000,-0.786999999999999,0.250000000000001));
#272=VERTEX_POINT('',#271);
#273=CARTESIAN_POINT('',(-3.330669E-016,-0.786999999999999,0.250000000000001));
#274=DIRECTION('',(0.0,0.0,-1.0));
#275=DIRECTION('',(1.0,0.0,0.0));
#276=AXIS2_PLACEMENT_3D('',#273,#274,#275);
#277=CIRCLE('',#276,0.170000000000000);
#278=EDGE_CURVE('',#272,#262,#277,.T.);
#279=ORIENTED_EDGE('',*,*,#278,.F.);
#280=CARTESIAN_POINT('',(-0.170000000000000,-0.786999999999999,1.158380E-015));
#281=VERTEX_POINT('',#280);
#282=CARTESIAN_POINT('',(-0.170000000000000,-0.786999999999999,1.158380E-015));
#283=DIRECTION('',(0.0,0.0,1.0));
#284=VECTOR('',#283,0.250000000000000);
#285=LINE('',#282,#284);
#286=EDGE_CURVE('',#281,#272,#285,.T.);
#287=ORIENTED_EDGE('',*,*,#286,.F.);
#288=CARTESIAN_POINT('',(-3.330669E-016,-0.786999999999999,1.110223E-015));
#289=DIRECTION('',(0.0,0.0,1.0));
#290=DIRECTION('',(1.0,0.0,0.0));
#291=AXIS2_PLACEMENT_3D('',#288,#289,#290);
#292=CIRCLE('',#291,0.170000000000000);
#293=EDGE_CURVE('',#264,#281,#292,.T.);
#294=ORIENTED_EDGE('',*,*,#293,.F.);
#295=EDGE_LOOP('',(#270,#279,#287,#294));
#296=FACE_OUTER_BOUND('',#295,.T.);
#297=ADVANCED_FACE('',(#296),#260,.F.);
#298=CARTESIAN_POINT('',(-3.330669E-016,1.307146E-015,0.787000000000001));
#299=DIRECTION('',(0.0,-1.0,0.0));
#300=DIRECTION('',(1.0,0.0,0.0));
#301=AXIS2_PLACEMENT_3D('',#298,#299,#300);
#302=CYLINDRICAL_SURFACE('',#301,0.170000000000000);
#303=CARTESIAN_POINT('',(0.170000000000000,-0.249999999999999,0.787000000000001));
#304=VERTEX_POINT('',#303);
#305=CARTESIAN_POINT('',(0.170000000000000,1.307146E-015,0.787000000000001));
#306=VERTEX_POINT('',#305);
#307=CARTESIAN_POINT('',(0.170000000000000,-0.249999999999999,0.787000000000001));
#308=DIRECTION('',(0.0,1.0,0.0));
#309=VECTOR('',#308,0.250000000000000);
#310=LINE('',#307,#309);
#311=EDGE_CURVE('',#304,#306,#310,.T.);
#312=ORIENTED_EDGE('',*,*,#311,.F.);
#313=CARTESIAN_POINT('',(-0.170000000000000,-0.249999999999999,0.787000000000001));
#314=VERTEX_POINT('',#313);
#315=CARTESIAN_POINT('',(-3.330669E-016,-0.249999999999999,0.787000000000001));
#316=DIRECTION('',(0.0,1.0,0.0));
#317=DIRECTION('',(1.0,0.0,0.0));
#318=AXIS2_PLACEMENT_3D('',#315,#316,#317);
#319=CIRCLE('',#318,0.170000000000000);
#320=EDGE_CURVE('',#314,#304,#319,.T.);
#321=ORIENTED_EDGE('',*,*,#320,.F.);
#322=CARTESIAN_POINT('',(-0.170000000000000,1.116743E-015,0.787000000000001));
#323=VERTEX_POINT('',#322);
#324=CARTESIAN_POINT('',(-0.170000000000000,1.116743E-015,0.787000000000001));
#325=DIRECTION('',(0.0,-1.0,0.0));
#326=VECTOR('',#325,0.250000000000000);
#327=LINE('',#324,#326);
#328=EDGE_CURVE('',#323,#314,#327,.T.);
#329=ORIENTED_EDGE('',*,*,#328,.F.);
#330=CARTESIAN_POINT('',(-3.330669E-016,1.110223E-015,0.787000000000001));
#331=DIRECTION('',(0.0,-1.0,0.0));
#332=DIRECTION('',(1.0,0.0,0.0));
#333=AXIS2_PLACEMENT_3D('',#330,#331,#332);
#334=CIRCLE('',#333,0.170000000000000);
#335=EDGE_CURVE('',#306,#323,#334,.T.);
#336=ORIENTED_EDGE('',*,*,#335,.F.);
#337=EDGE_LOOP('',(#312,#321,#329,#336));
#338=FACE_OUTER_BOUND('',#337,.T.);
#339=ADVANCED_FACE('',(#338),#302,.F.);
#340=CARTESIAN_POINT('',(-3.330669E-016,1.307146E-015,0.787000000000001));
#341=DIRECTION('',(0.0,-1.0,0.0));
#342=DIRECTION('',(1.0,0.0,0.0));
#343=AXIS2_PLACEMENT_3D('',#340,#341,#342);
#344=CYLINDRICAL_SURFACE('',#343,0.170000000000000);
#345=ORIENTED_EDGE('',*,*,#311,.T.);
#346=CARTESIAN_POINT('',(-3.330669E-016,1.110223E-015,0.787000000000001));
#347=DIRECTION('',(0.0,-1.0,0.0));
#348=DIRECTION('',(1.0,0.0,0.0));
#349=AXIS2_PLACEMENT_3D('',#346,#347,#348);
#350=CIRCLE('',#349,0.170000000000000);
#351=EDGE_CURVE('',#323,#306,#350,.T.);
#352=ORIENTED_EDGE('',*,*,#351,.F.);
#353=ORIENTED_EDGE('',*,*,#328,.T.);
#354=CARTESIAN_POINT('',(-3.330669E-016,-0.249999999999999,0.787000000000001));
#355=DIRECTION('',(0.0,1.0,0.0));
#356=DIRECTION('',(1.0,0.0,0.0));
#357=AXIS2_PLACEMENT_3D('',#354,#355,#356);
#358=CIRCLE('',#357,0.170000000000000);
#359=EDGE_CURVE('',#304,#314,#358,.T.);
#360=ORIENTED_EDGE('',*,*,#359,.F.);
#361=EDGE_LOOP('',(#345,#352,#353,#360));
#362=FACE_OUTER_BOUND('',#361,.T.);
#363=ADVANCED_FACE('',(#362),#344,.F.);
#364=CARTESIAN_POINT('',(-3.330669E-016,-0.786999999999999,5.916110E-016));
#365=DIRECTION('',(0.0,0.0,1.0));
#366=DIRECTION('',(1.0,0.0,0.0));
#367=AXIS2_PLACEMENT_3D('',#364,#365,#366);
#368=CYLINDRICAL_SURFACE('',#367,0.170000000000000);
#369=ORIENTED_EDGE('',*,*,#269,.T.);
#370=CARTESIAN_POINT('',(-3.330669E-016,-0.786999999999999,1.110223E-015));
#371=DIRECTION('',(0.0,0.0,1.0));
#372=DIRECTION('',(1.0,0.0,0.0));
#373=AXIS2_PLACEMENT_3D('',#370,#371,#372);
#374=CIRCLE('',#373,0.170000000000000);
#375=EDGE_CURVE('',#281,#264,#374,.T.);
#376=ORIENTED_EDGE('',*,*,#375,.F.);
#377=ORIENTED_EDGE('',*,*,#286,.T.);
#378=CARTESIAN_POINT('',(-3.330669E-016,-0.786999999999999,0.250000000000001));
#379=DIRECTION('',(0.0,0.0,-1.0));
#380=DIRECTION('',(1.0,0.0,0.0));
#381=AXIS2_PLACEMENT_3D('',#378,#379,#380);
#382=CIRCLE('',#381,0.170000000000000);
#383=EDGE_CURVE('',#262,#272,#382,.T.);
#384=ORIENTED_EDGE('',*,*,#383,.F.);
#385=EDGE_LOOP('',(#369,#376,#377,#384));
#386=FACE_OUTER_BOUND('',#385,.T.);
#387=ADVANCED_FACE('',(#386),#368,.F.);
#388=CARTESIAN_POINT('',(-0.655000000000000,1.332268E-015,1.110223E-015));
#389=DIRECTION('',(0.0,0.0,-1.0));
#390=DIRECTION('',(-1.0,0.0,0.0));
#391=AXIS2_PLACEMENT_3D('',#388,#389,#390);
#392=PLANE('',#391);
#393=CARTESIAN_POINT('',(0.655000000000000,1.282024E-015,7.391329E-016));
#394=VERTEX_POINT('',#393);
#395=CARTESIAN_POINT('',(0.655000000000000,1.282024E-015,7.391329E-016));
#396=DIRECTION('',(0.0,-1.0,0.0));
#397=VECTOR('',#396,1.500000000000000);
#398=LINE('',#395,#397);
#399=EDGE_CURVE('',#394,#239,#398,.T.);
#400=ORIENTED_EDGE('',*,*,#399,.T.);
#401=ORIENTED_EDGE('',*,*,#244,.F.);
#402=CARTESIAN_POINT('',(-0.655000000000000,1.332268E-015,1.110223E-015));
#403=VERTEX_POINT('',#402);
#404=CARTESIAN_POINT('',(-0.655000000000000,-1.499999999999999,7.771561E-016));
#405=DIRECTION('',(0.0,1.0,0.0));
#406=VECTOR('',#405,1.500000000000000);
#407=LINE('',#404,#406);
#408=EDGE_CURVE('',#230,#403,#407,.T.);
#409=ORIENTED_EDGE('',*,*,#408,.T.);
#410=CARTESIAN_POINT('',(-0.655000000000000,1.332268E-015,1.110223E-015));
#411=DIRECTION('',(1.0,0.0,0.0));
#412=VECTOR('',#411,1.310000000000000);
#413=LINE('',#410,#412);
#414=EDGE_CURVE('',#403,#394,#413,.T.);
#415=ORIENTED_EDGE('',*,*,#414,.T.);
#416=EDGE_LOOP('',(#400,#401,#409,#415));
#417=FACE_OUTER_BOUND('',#416,.T.);
#418=ORIENTED_EDGE('',*,*,#293,.T.);
#419=ORIENTED_EDGE('',*,*,#375,.T.);
#420=EDGE_LOOP('',(#418,#419));
#421=FACE_BOUND('',#420,.T.);
#422=ADVANCED_FACE('',(#417,#421),#392,.T.);
#423=CARTESIAN_POINT('',(-0.655000000000000,-1.249999999999999,8.326673E-016));
#424=DIRECTION('',(1.0,-3.835365E-017,-2.832749E-016));
#425=DIRECTION('',(1.731855E-016,-0.707106781186548,0.707106781186547));
#426=AXIS2_PLACEMENT_3D('',#423,#424,#425);
#427=CYLINDRICAL_SURFACE('',#426,0.250000000000000);
#428=ORIENTED_EDGE('',*,*,#227,.T.);
#429=CARTESIAN_POINT('',(0.655000000000000,-1.249999999999999,0.250000000000001));
#430=VERTEX_POINT('',#429);
#431=CARTESIAN_POINT('',(0.655000000000000,-1.249999999999999,4.615771E-016));
#432=DIRECTION('',(-1.0,-1.224606E-016,1.224606E-016));
#433=DIRECTION('',(1.731855E-016,-0.707106781186548,0.707106781186547));
#434=AXIS2_PLACEMENT_3D('',#431,#432,#433);
#435=CIRCLE('',#434,0.250000000000000);
#436=EDGE_CURVE('',#222,#430,#435,.T.);
#437=ORIENTED_EDGE('',*,*,#436,.T.);
#438=CARTESIAN_POINT('',(-0.655000000000000,-1.249999999999999,0.250000000000001));
#439=VERTEX_POINT('',#438);
#440=CARTESIAN_POINT('',(-0.655000000000000,-1.249999999999999,0.250000000000001));
#441=DIRECTION('',(1.0,0.0,0.0));
#442=VECTOR('',#441,1.310000000000000);
#443=LINE('',#440,#442);
#444=EDGE_CURVE('',#439,#430,#443,.T.);
#445=ORIENTED_EDGE('',*,*,#444,.F.);
#446=CARTESIAN_POINT('',(-0.655000000000000,-1.249999999999999,8.326673E-016));
#447=DIRECTION('',(1.0,1.224606E-016,-1.224606E-016));
#448=DIRECTION('',(1.731855E-016,-0.707106781186548,0.707106781186547));
#449=AXIS2_PLACEMENT_3D('',#446,#447,#448);
#450=CIRCLE('',#449,0.250000000000000);
#451=EDGE_CURVE('',#439,#220,#450,.T.);
#452=ORIENTED_EDGE('',*,*,#451,.T.);
#453=EDGE_LOOP('',(#428,#437,#445,#452));
#454=FACE_OUTER_BOUND('',#453,.T.);
#455=ADVANCED_FACE('',(#454),#427,.T.);
#456=CARTESIAN_POINT('',(-0.655000000000000,-1.249999999999999,0.250000000000001));
#457=DIRECTION('',(0.0,0.0,1.0));
#458=DIRECTION('',(1.0,0.0,0.0));
#459=AXIS2_PLACEMENT_3D('',#456,#457,#458);
#460=PLANE('',#459);
#461=CARTESIAN_POINT('',(0.655000000000000,-1.249999999999999,0.250000000000001));
#462=DIRECTION('',(0.0,1.0,0.0));
#463=VECTOR('',#462,0.750000000000000);
#464=LINE('',#461,#463);
#465=EDGE_CURVE('',#430,#197,#464,.T.);
#466=ORIENTED_EDGE('',*,*,#465,.T.);
#467=ORIENTED_EDGE('',*,*,#202,.F.);
#468=CARTESIAN_POINT('',(-0.655000000000000,-0.499999999999999,0.250000000000001));
#469=DIRECTION('',(0.0,-1.0,0.0));
#470=VECTOR('',#469,0.750000000000000);
#471=LINE('',#468,#470);
#472=EDGE_CURVE('',#188,#439,#471,.T.);
#473=ORIENTED_EDGE('',*,*,#472,.T.);
#474=ORIENTED_EDGE('',*,*,#444,.T.);
#475=EDGE_LOOP('',(#466,#467,#473,#474));
#476=FACE_OUTER_BOUND('',#475,.T.);
#477=ORIENTED_EDGE('',*,*,#383,.T.);
#478=ORIENTED_EDGE('',*,*,#278,.T.);
#479=EDGE_LOOP('',(#477,#478));
#480=FACE_BOUND('',#479,.T.);
#481=ADVANCED_FACE('',(#476,#480),#460,.T.);
#482=CARTESIAN_POINT('',(-0.655000000000000,-0.499999999999999,0.500000000000001));
#483=DIRECTION('',(1.0,-3.835365E-017,-2.832749E-016));
#484=DIRECTION('',(-1.731855E-016,0.707106781186548,-0.707106781186547));
#485=AXIS2_PLACEMENT_3D('',#482,#483,#484);
#486=CYLINDRICAL_SURFACE('',#485,0.250000000000000);
#487=ORIENTED_EDGE('',*,*,#185,.T.);
#488=CARTESIAN_POINT('',(0.655000000000000,-0.249999999999999,0.500000000000001));
#489=VERTEX_POINT('',#488);
#490=CARTESIAN_POINT('',(0.655000000000000,-0.499999999999999,0.500000000000001));
#491=DIRECTION('',(1.0,1.224606E-016,-1.224606E-016));
#492=DIRECTION('',(-1.731855E-016,0.707106781186548,-0.707106781186547));
#493=AXIS2_PLACEMENT_3D('',#490,#491,#492);
#494=CIRCLE('',#493,0.250000000000000);
#495=EDGE_CURVE('',#180,#489,#494,.T.);
#496=ORIENTED_EDGE('',*,*,#495,.T.);
#497=CARTESIAN_POINT('',(-0.655000000000000,-0.249999999999999,0.500000000000001));
#498=VERTEX_POINT('',#497);
#499=CARTESIAN_POINT('',(-0.655000000000000,-0.249999999999999,0.500000000000001));
#500=DIRECTION('',(1.0,0.0,0.0));
#501=VECTOR('',#500,1.310000000000000);
#502=LINE('',#499,#501);
#503=EDGE_CURVE('',#498,#489,#502,.T.);
#504=ORIENTED_EDGE('',*,*,#503,.F.);
#505=CARTESIAN_POINT('',(-0.655000000000000,-0.499999999999999,0.500000000000001));
#506=DIRECTION('',(-1.0,-1.224606E-016,1.224606E-016));
#507=DIRECTION('',(-1.731855E-016,0.707106781186548,-0.707106781186547));
#508=AXIS2_PLACEMENT_3D('',#505,#506,#507);
#509=CIRCLE('',#508,0.250000000000000);
#510=EDGE_CURVE('',#498,#178,#509,.T.);
#511=ORIENTED_EDGE('',*,*,#510,.T.);
#512=EDGE_LOOP('',(#487,#496,#504,#511));
#513=FACE_OUTER_BOUND('',#512,.T.);
#514=ADVANCED_FACE('',(#513),#486,.F.);
#515=CARTESIAN_POINT('',(-0.655000000000000,-0.249999999999999,0.500000000000001));
#516=DIRECTION('',(0.0,-1.0,0.0));
#517=DIRECTION('',(0.0,0.0,-1.0));
#518=AXIS2_PLACEMENT_3D('',#515,#516,#517);
#519=PLANE('',#518);
#520=CARTESIAN_POINT('',(0.655000000000000,-0.249999999999999,0.500000000000001));
#521=DIRECTION('',(0.0,0.0,1.0));
#522=VECTOR('',#521,0.750000000000000);
#523=LINE('',#520,#522);
#524=EDGE_CURVE('',#489,#155,#523,.T.);
#525=ORIENTED_EDGE('',*,*,#524,.T.);
#526=ORIENTED_EDGE('',*,*,#160,.F.);
#527=CARTESIAN_POINT('',(-0.655000000000000,-0.249999999999999,1.250000000000001));
#528=DIRECTION('',(0.0,0.0,-1.0));
#529=VECTOR('',#528,0.750000000000000);
#530=LINE('',#527,#529);
#531=EDGE_CURVE('',#146,#498,#530,.T.);
#532=ORIENTED_EDGE('',*,*,#531,.T.);
#533=ORIENTED_EDGE('',*,*,#503,.T.);
#534=EDGE_LOOP('',(#525,#526,#532,#533));
#535=FACE_OUTER_BOUND('',#534,.T.);
#536=ORIENTED_EDGE('',*,*,#359,.T.);
#537=ORIENTED_EDGE('',*,*,#320,.T.);
#538=EDGE_LOOP('',(#536,#537));
#539=FACE_BOUND('',#538,.T.);
#540=ADVANCED_FACE('',(#535,#539),#519,.T.);
#541=CARTESIAN_POINT('',(-0.655000000000000,1.110223E-015,1.250000000000001));
#542=DIRECTION('',(1.0,-3.835365E-017,-2.832749E-016));
#543=DIRECTION('',(1.731855E-016,-0.707106781186548,0.707106781186547));
#544=AXIS2_PLACEMENT_3D('',#541,#542,#543);
#545=CYLINDRICAL_SURFACE('',#544,0.250000000000000);
#546=ORIENTED_EDGE('',*,*,#143,.T.);
#547=CARTESIAN_POINT('',(0.655000000000000,1.059980E-015,1.500000000000001));
#548=VERTEX_POINT('',#547);
#549=CARTESIAN_POINT('',(0.655000000000000,1.059980E-015,1.250000000000001));
#550=DIRECTION('',(-1.0,-1.224606E-016,1.224606E-016));
#551=DIRECTION('',(1.731855E-016,-0.707106781186548,0.707106781186547));
#552=AXIS2_PLACEMENT_3D('',#549,#550,#551);
#553=CIRCLE('',#552,0.250000000000000);
#554=EDGE_CURVE('',#138,#548,#553,.T.);
#555=ORIENTED_EDGE('',*,*,#554,.T.);
#556=CARTESIAN_POINT('',(-0.655000000000000,1.110223E-015,1.500000000000001));
#557=VERTEX_POINT('',#556);
#558=CARTESIAN_POINT('',(-0.655000000000000,1.110223E-015,1.500000000000001));
#559=DIRECTION('',(1.0,0.0,0.0));
#560=VECTOR('',#559,1.310000000000000);
#561=LINE('',#558,#560);
#562=EDGE_CURVE('',#557,#548,#561,.T.);
#563=ORIENTED_EDGE('',*,*,#562,.F.);
#564=CARTESIAN_POINT('',(-0.655000000000000,1.110223E-015,1.250000000000001));
#565=DIRECTION('',(1.0,1.224606E-016,-1.224606E-016));
#566=DIRECTION('',(1.731855E-016,-0.707106781186548,0.707106781186547));
#567=AXIS2_PLACEMENT_3D('',#564,#565,#566);
#568=CIRCLE('',#567,0.250000000000000);
#569=EDGE_CURVE('',#557,#136,#568,.T.);
#570=ORIENTED_EDGE('',*,*,#569,.T.);
#571=EDGE_LOOP('',(#546,#555,#563,#570));
#572=FACE_OUTER_BOUND('',#571,.T.);
#573=ADVANCED_FACE('',(#572),#545,.T.);
#574=CARTESIAN_POINT('',(-0.655000000000000,1.110223E-015,1.500000000000001));
#575=DIRECTION('',(0.0,1.0,0.0));
#576=DIRECTION('',(0.0,0.0,1.0));
#577=AXIS2_PLACEMENT_3D('',#574,#575,#576);
#578=PLANE('',#577);
#579=CARTESIAN_POINT('',(0.655000000000000,1.059980E-015,1.500000000000001));
#580=DIRECTION('',(0.0,0.0,-1.0));
#581=VECTOR('',#580,1.500000000000000);
#582=LINE('',#579,#581);
#583=EDGE_CURVE('',#548,#394,#582,.T.);
#584=ORIENTED_EDGE('',*,*,#583,.T.);
#585=ORIENTED_EDGE('',*,*,#414,.F.);
#586=CARTESIAN_POINT('',(-0.655000000000000,1.332268E-015,1.110223E-015));
#587=DIRECTION('',(0.0,0.0,1.0));
#588=VECTOR('',#587,1.500000000000000);
#589=LINE('',#586,#588);
#590=EDGE_CURVE('',#403,#557,#589,.T.);
#591=ORIENTED_EDGE('',*,*,#590,.T.);
#592=ORIENTED_EDGE('',*,*,#562,.T.);
#593=EDGE_LOOP('',(#584,#585,#591,#592));
#594=FACE_OUTER_BOUND('',#593,.T.);
#595=ORIENTED_EDGE('',*,*,#335,.T.);
#596=ORIENTED_EDGE('',*,*,#351,.T.);
#597=EDGE_LOOP('',(#595,#596));
#598=FACE_BOUND('',#597,.T.);
#599=ADVANCED_FACE('',(#594,#598),#578,.T.);
#600=CARTESIAN_POINT('',(0.655000000000000,-0.567677669529663,0.567677669529664));
#601=DIRECTION('',(-1.0,0.0,0.0));
#602=DIRECTION('',(0.0,-1.0,0.0));
#603=AXIS2_PLACEMENT_3D('',#600,#601,#602);
#604=PLANE('',#603);
#605=ORIENTED_EDGE('',*,*,#399,.F.);
#606=ORIENTED_EDGE('',*,*,#583,.F.);
#607=ORIENTED_EDGE('',*,*,#554,.F.);
#608=ORIENTED_EDGE('',*,*,#167,.F.);
#609=ORIENTED_EDGE('',*,*,#524,.F.);
#610=ORIENTED_EDGE('',*,*,#495,.F.);
#611=ORIENTED_EDGE('',*,*,#209,.F.);
#612=ORIENTED_EDGE('',*,*,#465,.F.);
#613=ORIENTED_EDGE('',*,*,#436,.F.);
#614=ORIENTED_EDGE('',*,*,#251,.F.);
#615=EDGE_LOOP('',(#605,#606,#607,#608,#609,#610,#611,#612,#613,#614));
#616=FACE_OUTER_BOUND('',#615,.T.);
#617=ADVANCED_FACE('',(#616),#604,.F.);
#618=CARTESIAN_POINT('',(-0.655000000000000,-0.567677669529663,0.567677669529665));
#619=DIRECTION('',(-1.0,0.0,0.0));
#620=DIRECTION('',(0.0,-1.0,0.0));
#621=AXIS2_PLACEMENT_3D('',#618,#619,#620);
#622=PLANE('',#621);
#623=ORIENTED_EDGE('',*,*,#590,.F.);
#624=ORIENTED_EDGE('',*,*,#408,.F.);
#625=ORIENTED_EDGE('',*,*,#236,.F.);
#626=ORIENTED_EDGE('',*,*,#451,.F.);
#627=ORIENTED_EDGE('',*,*,#472,.F.);
#628=ORIENTED_EDGE('',*,*,#194,.F.);
#629=ORIENTED_EDGE('',*,*,#510,.F.);
#630=ORIENTED_EDGE('',*,*,#531,.F.);
#631=ORIENTED_EDGE('',*,*,#152,.F.);
#632=ORIENTED_EDGE('',*,*,#569,.F.);
#633=EDGE_LOOP('',(#623,#624,#625,#626,#627,#628,#629,#630,#631,#632));
#634=FACE_OUTER_BOUND('',#633,.T.);
#635=ADVANCED_FACE('',(#634),#622,.T.);
#636=CLOSED_SHELL('',(#171,#213,#255,#297,#339,#363,#387,#422,#455,#481,#514,#540,#573,#599,#617,#635));
#637=MANIFOLD_SOLID_BREP('1466',#636);
#638=ADVANCED_BREP_SHAPE_REPRESENTATION('ABSR1',(#637),#33);
#639=SHAPE_REPRESENTATION_RELATIONSHIP('SRRPL1',' ',#638,#127);
ENDSEC;
END-ISO-10303-21;
