ISO-10303-21;
HEADER;
/****************************************************************
 * Generated by software with PDE/Lib inside                    *
 * PDE/Lib Version 3.2.2, created Thu Mar 23, 2000 at 18:38:49  *
 * International Technegroup Inc. (www.iti-oh.com)              *
 ****************************************************************/
FILE_DESCRIPTION((''),'2;1');
FILE_NAME('15SP1868.stp','2006-03-13T15:25:47',('Shawn Mantel'),('Faztek, LLC'),'Mechanical Desktop 2005','Mechanical Desktop 2005',', , ');
FILE_SCHEMA(('CONFIG_CONTROL_DESIGN'));
ENDSEC;
DATA;
#8=(NAMED_UNIT(*)PLANE_ANGLE_UNIT()SI_UNIT($,.RADIAN.));
#9=DIMENSIONAL_EXPONENTS(0.0,0.0,0.0,0.0,0.0,0.0,0.0);
#10=PLANE_ANGLE_MEASURE_WITH_UNIT(PLANE_ANGLE_MEASURE(0.017453292500000),#8);
#14=(CONVERSION_BASED_UNIT('DEGREE',#10)NAMED_UNIT(#9)PLANE_ANGLE_UNIT());
#18=(NAMED_UNIT(*)SI_UNIT($,.STERADIAN.)SOLID_ANGLE_UNIT());
#20=DIMENSIONAL_EXPONENTS(1.0,0.0,0.0,0.0,0.0,0.0,0.0);
#24=(LENGTH_UNIT()NAMED_UNIT(*)SI_UNIT(.MILLI.,.METRE.));
#25=LENGTH_MEASURE_WITH_UNIT(LENGTH_MEASURE(25.399999999999999),#24);
#27=(CONVERSION_BASED_UNIT('INCH',#25)LENGTH_UNIT()NAMED_UNIT(#20));
#28=UNCERTAINTY_MEASURE_WITH_UNIT(LENGTH_MEASURE(0.000001000000000),#27,'DISTANCE_ACCURACY_VALUE','');
#33=(GEOMETRIC_REPRESENTATION_CONTEXT(3)GLOBAL_UNCERTAINTY_ASSIGNED_CONTEXT((#28))GLOBAL_UNIT_ASSIGNED_CONTEXT((#14,#18,#27))REPRESENTATION_CONTEXT('None','None'));
#34=APPLICATION_CONTEXT('CONFIGURATION CONTROLLED 3D DESIGNS OF MECHANICAL PARTS AND ASSEMBLIES');
#35=APPLICATION_PROTOCOL_DEFINITION('INTERNATIONAL STANDARD','config_control_design',1995,#34);
#36=MECHANICAL_CONTEXT('3D Mechanical Parts',#34,'mechanical');
#37=PRODUCT('Product','Product',' ',(#36));
#38=PRODUCT_RELATED_PRODUCT_CATEGORY('detail',$,(#37));
#39=PRODUCT_CATEGORY('part',$);
#40=PRODUCT_CATEGORY_RELATIONSHIP('None','None',#39,#38);
#41=PERSON('1','Design','Joe',$,$,$);
#42=ORGANIZATION($,'None','None');
#43=PERSON_AND_ORGANIZATION(#41,#42);
#44=PERSON_AND_ORGANIZATION_ROLE('design_owner');
#45=CC_DESIGN_PERSON_AND_ORGANIZATION_ASSIGNMENT(#43,#44,(#37));
#46=PRODUCT_DEFINITION_FORMATION_WITH_SPECIFIED_SOURCE('None','None',#37,.NOT_KNOWN.);
#47=PERSON('2','Creator','Joe',$,$,$);
#48=ORGANIZATION($,'None','None');
#49=PERSON_AND_ORGANIZATION(#47,#48);
#50=PERSON_AND_ORGANIZATION_ROLE('creator');
#51=CC_DESIGN_PERSON_AND_ORGANIZATION_ASSIGNMENT(#49,#50,(#46));
#52=PERSON('3','Supplier','Joe',$,$,$);
#53=ORGANIZATION($,'None','None');
#54=PERSON_AND_ORGANIZATION(#52,#53);
#55=PERSON_AND_ORGANIZATION_ROLE('design_supplier');
#56=CC_DESIGN_PERSON_AND_ORGANIZATION_ASSIGNMENT(#54,#55,(#46));
#57=APPROVAL_STATUS('approved');
#58=APPROVAL(#57,'None');
#59=PERSON('4','Approver','Joe',$,$,$);
#60=ORGANIZATION($,'None','None');
#61=PERSON_AND_ORGANIZATION(#59,#60);
#62=APPROVAL_ROLE('approver');
#63=APPROVAL_PERSON_ORGANIZATION(#61,#58,#62);
#64=COORDINATED_UNIVERSAL_TIME_OFFSET(8,$,.BEHIND.);
#65=CALENDAR_DATE(1996,29,5);
#66=LOCAL_TIME(12,0,0.0,#64);
#67=DATE_AND_TIME(#65,#66);
#68=APPROVAL_DATE_TIME(#67,#58);
#69=CC_DESIGN_APPROVAL(#58,(#46));
#70=SECURITY_CLASSIFICATION_LEVEL('unclassified');
#71=SECURITY_CLASSIFICATION('security','None',#70);
#72=CC_DESIGN_SECURITY_CLASSIFICATION(#71,(#46));
#73=APPROVAL_STATUS('approved');
#74=APPROVAL(#73,'None');
#75=PERSON('5','Approver','Joe',$,$,$);
#76=ORGANIZATION($,'None','None');
#77=PERSON_AND_ORGANIZATION(#75,#76);
#78=APPROVAL_ROLE('approver');
#79=APPROVAL_PERSON_ORGANIZATION(#77,#74,#78);
#80=COORDINATED_UNIVERSAL_TIME_OFFSET(8,$,.BEHIND.);
#81=CALENDAR_DATE(1996,29,5);
#82=LOCAL_TIME(12,0,0.0,#80);
#83=DATE_AND_TIME(#81,#82);
#84=APPROVAL_DATE_TIME(#83,#74);
#85=CC_DESIGN_APPROVAL(#74,(#71));
#86=PERSON('6','Classifier','Joe',$,$,$);
#87=ORGANIZATION($,'None','None');
#88=PERSON_AND_ORGANIZATION(#86,#87);
#89=PERSON_AND_ORGANIZATION_ROLE('classification_officer');
#90=CC_DESIGN_PERSON_AND_ORGANIZATION_ASSIGNMENT(#88,#89,(#71));
#91=COORDINATED_UNIVERSAL_TIME_OFFSET(8,$,.BEHIND.);
#92=CALENDAR_DATE(1996,29,5);
#93=LOCAL_TIME(12,0,0.0,#91);
#94=DATE_AND_TIME(#92,#93);
#95=DATE_TIME_ROLE('classification_date');
#96=CC_DESIGN_DATE_AND_TIME_ASSIGNMENT(#94,#95,(#71));
#97=DESIGN_CONTEXT('Design Context',#34,'design');
#98=PRODUCT_DEFINITION('None','None',#46,#97);
#99=PERSON('7','Creator','Joe',$,$,$);
#100=ORGANIZATION($,'None','None');
#101=PERSON_AND_ORGANIZATION(#99,#100);
#102=PERSON_AND_ORGANIZATION_ROLE('creator');
#103=CC_DESIGN_PERSON_AND_ORGANIZATION_ASSIGNMENT(#101,#102,(#98));
#104=COORDINATED_UNIVERSAL_TIME_OFFSET(8,$,.BEHIND.);
#105=CALENDAR_DATE(1996,29,5);
#106=LOCAL_TIME(12,0,0.0,#104);
#107=DATE_AND_TIME(#105,#106);
#108=DATE_TIME_ROLE('creation_date');
#109=CC_DESIGN_DATE_AND_TIME_ASSIGNMENT(#107,#108,(#98));
#110=APPROVAL_STATUS('approved');
#111=APPROVAL(#110,'None');
#112=PERSON('8','Approver','Joe',$,$,$);
#113=ORGANIZATION($,'None','None');
#114=PERSON_AND_ORGANIZATION(#112,#113);
#115=APPROVAL_ROLE('approver');
#116=APPROVAL_PERSON_ORGANIZATION(#114,#111,#115);
#117=COORDINATED_UNIVERSAL_TIME_OFFSET(8,$,.BEHIND.);
#118=CALENDAR_DATE(1996,29,5);
#119=LOCAL_TIME(12,0,0.0,#117);
#120=DATE_AND_TIME(#118,#119);
#121=APPROVAL_DATE_TIME(#120,#111);
#122=CC_DESIGN_APPROVAL(#111,(#98));
#123=CARTESIAN_POINT('NONE',(0.0,0.0,0.0));
#124=DIRECTION('NONE',(0.0,0.0,1.0));
#125=DIRECTION('NONE',(1.0,0.0,0.0));
#126=AXIS2_PLACEMENT_3D('NONE',#123,#124,#125);
#127=SHAPE_REPRESENTATION('SR1',(#126),#33);
#128=PRODUCT_DEFINITION_SHAPE('PDS1','Test Part',#98);
#129=SHAPE_DEFINITION_REPRESENTATION(#128,#127);
#130=CARTESIAN_POINT('',(-1.500000000000002,-1.590990257669731,14.318912319027588));
#131=DIRECTION('',(-1.0,0.0,0.0));
#132=DIRECTION('',(0.0,-0.707106781186547,0.707106781186548));
#133=AXIS2_PLACEMENT_3D('',#130,#131,#132);
#134=PLANE('',#133);
#135=CARTESIAN_POINT('',(-1.500000000000002,1.776357E-015,16.970562748477143));
#136=VERTEX_POINT('',#135);
#137=CARTESIAN_POINT('',(-1.500000000000002,-16.970562748477136,7.771561E-016));
#138=VERTEX_POINT('',#137);
#139=CARTESIAN_POINT('',(-1.500000000000002,1.776357E-015,16.970562748477143));
#140=DIRECTION('',(-3.700743E-017,-0.707106781186547,-0.707106781186548));
#141=VECTOR('',#140,23.999999999999996);
#142=LINE('',#139,#141);
#143=EDGE_CURVE('',#136,#138,#142,.T.);
#144=ORIENTED_EDGE('',*,*,#143,.F.);
#145=CARTESIAN_POINT('',(-1.500000000000002,8.881784E-016,14.849242404917499));
#146=VERTEX_POINT('',#145);
#147=CARTESIAN_POINT('',(-1.500000000000002,8.881784E-016,14.849242404917499));
#148=DIRECTION('',(0.0,0.0,1.0));
#149=VECTOR('',#148,2.121320343559644);
#150=LINE('',#147,#149);
#151=EDGE_CURVE('',#146,#136,#150,.T.);
#152=ORIENTED_EDGE('',*,*,#151,.F.);
#153=CARTESIAN_POINT('',(-1.500000000000002,-14.849242404917495,1.110223E-016));
#154=VERTEX_POINT('',#153);
#155=CARTESIAN_POINT('',(-1.500000000000002,-14.849242404917495,1.110223E-016));
#156=DIRECTION('',(2.114711E-017,0.707106781186547,0.707106781186548));
#157=VECTOR('',#156,21.0);
#158=LINE('',#155,#157);
#159=EDGE_CURVE('',#154,#146,#158,.T.);
#160=ORIENTED_EDGE('',*,*,#159,.F.);
#161=CARTESIAN_POINT('',(-1.500000000000002,-16.970562748477136,7.771561E-016));
#162=DIRECTION('',(0.0,1.0,0.0));
#163=VECTOR('',#162,2.121320343559640);
#164=LINE('',#161,#163);
#165=EDGE_CURVE('',#138,#154,#164,.T.);
#166=ORIENTED_EDGE('',*,*,#165,.F.);
#167=EDGE_LOOP('',(#144,#152,#160,#166));
#168=FACE_OUTER_BOUND('',#167,.T.);
#169=ADVANCED_FACE('',(#168),#134,.T.);
#170=CARTESIAN_POINT('',(-2.220446E-015,-14.849242404917495,-1.110223E-016));
#171=DIRECTION('',(0.0,0.0,-1.0));
#172=DIRECTION('',(-1.0,0.0,0.0));
#173=AXIS2_PLACEMENT_3D('',#170,#171,#172);
#174=PLANE('',#173);
#175=CARTESIAN_POINT('',(1.499999999999998,-14.849242404917495,-3.330669E-016));
#176=VERTEX_POINT('',#175);
#177=CARTESIAN_POINT('',(1.499999999999997,-16.970562748477136,3.330669E-016));
#178=VERTEX_POINT('',#177);
#179=CARTESIAN_POINT('',(1.499999999999998,-14.849242404917495,-3.330669E-016));
#180=DIRECTION('',(0.0,-1.0,0.0));
#181=VECTOR('',#180,2.121320343559640);
#182=LINE('',#179,#181);
#183=EDGE_CURVE('',#176,#178,#182,.T.);
#184=ORIENTED_EDGE('',*,*,#183,.T.);
#185=CARTESIAN_POINT('',(-1.500000000000002,-16.970562748477136,7.771561E-016));
#186=DIRECTION('',(1.0,0.0,0.0));
#187=VECTOR('',#186,3.0);
#188=LINE('',#185,#187);
#189=EDGE_CURVE('',#138,#178,#188,.T.);
#190=ORIENTED_EDGE('',*,*,#189,.F.);
#191=ORIENTED_EDGE('',*,*,#165,.T.);
#192=CARTESIAN_POINT('',(-1.500000000000002,-14.849242404917495,1.110223E-016));
#193=DIRECTION('',(1.0,0.0,0.0));
#194=VECTOR('',#193,3.0);
#195=LINE('',#192,#194);
#196=EDGE_CURVE('',#154,#176,#195,.T.);
#197=ORIENTED_EDGE('',*,*,#196,.T.);
#198=EDGE_LOOP('',(#184,#190,#191,#197));
#199=FACE_OUTER_BOUND('',#198,.T.);
#200=ADVANCED_FACE('',(#199),#174,.T.);
#201=CARTESIAN_POINT('',(-1.776357E-015,8.881784E-016,14.849242404917499));
#202=DIRECTION('',(-2.668171E-017,0.707106781186547,-0.707106781186548));
#203=DIRECTION('',(-1.0,0.0,0.0));
#204=AXIS2_PLACEMENT_3D('',#201,#202,#203);
#205=PLANE('',#204);
#206=CARTESIAN_POINT('',(1.499999999999998,1.776357E-015,14.849242404917499));
#207=VERTEX_POINT('',#206);
#208=CARTESIAN_POINT('',(-1.500000000000002,8.881784E-016,14.849242404917499));
#209=DIRECTION('',(1.0,0.0,0.0));
#210=VECTOR('',#209,3.0);
#211=LINE('',#208,#210);
#212=EDGE_CURVE('',#146,#207,#211,.T.);
#213=ORIENTED_EDGE('',*,*,#212,.T.);
#214=CARTESIAN_POINT('',(1.499999999999998,1.776357E-015,14.849242404917499));
#215=DIRECTION('',(-2.114711E-017,-0.707106781186547,-0.707106781186548));
#216=VECTOR('',#215,21.0);
#217=LINE('',#214,#216);
#218=EDGE_CURVE('',#207,#176,#217,.T.);
#219=ORIENTED_EDGE('',*,*,#218,.T.);
#220=ORIENTED_EDGE('',*,*,#196,.F.);
#221=ORIENTED_EDGE('',*,*,#159,.T.);
#222=EDGE_LOOP('',(#213,#219,#220,#221));
#223=FACE_OUTER_BOUND('',#222,.T.);
#224=ADVANCED_FACE('',(#223),#205,.T.);
#225=CARTESIAN_POINT('',(-2.442491E-015,-4.242640687119285,12.727922061357857));
#226=DIRECTION('',(2.668171E-017,-0.707106781186547,0.707106781186548));
#227=DIRECTION('',(1.0,0.0,0.0));
#228=AXIS2_PLACEMENT_3D('',#225,#226,#227);
#229=PLANE('',#228);
#230=CARTESIAN_POINT('',(1.499999999999998,1.776357E-015,16.970562748477143));
#231=VERTEX_POINT('',#230);
#232=CARTESIAN_POINT('',(1.499999999999997,-16.970562748477136,3.330669E-016));
#233=DIRECTION('',(3.700743E-017,0.707106781186547,0.707106781186548));
#234=VECTOR('',#233,23.999999999999996);
#235=LINE('',#232,#234);
#236=EDGE_CURVE('',#178,#231,#235,.T.);
#237=ORIENTED_EDGE('',*,*,#236,.T.);
#238=CARTESIAN_POINT('',(-1.500000000000002,1.776357E-015,16.970562748477143));
#239=DIRECTION('',(1.0,0.0,0.0));
#240=VECTOR('',#239,3.0);
#241=LINE('',#238,#240);
#242=EDGE_CURVE('',#136,#231,#241,.T.);
#243=ORIENTED_EDGE('',*,*,#242,.F.);
#244=ORIENTED_EDGE('',*,*,#143,.T.);
#245=ORIENTED_EDGE('',*,*,#189,.T.);
#246=EDGE_LOOP('',(#237,#243,#244,#245));
#247=FACE_OUTER_BOUND('',#246,.T.);
#248=ADVANCED_FACE('',(#247),#229,.T.);
#249=CARTESIAN_POINT('',(1.499999999999997,-4.242640687119285,12.727922061357857));
#250=DIRECTION('',(-1.0,0.0,0.0));
#251=DIRECTION('',(0.0,-0.707106781186547,0.707106781186548));
#252=AXIS2_PLACEMENT_3D('',#249,#250,#251);
#253=PLANE('',#252);
#254=ORIENTED_EDGE('',*,*,#218,.F.);
#255=CARTESIAN_POINT('',(1.499999999999998,1.776357E-015,16.970562748477143));
#256=DIRECTION('',(0.0,0.0,-1.0));
#257=VECTOR('',#256,2.121320343559644);
#258=LINE('',#255,#257);
#259=EDGE_CURVE('',#231,#207,#258,.T.);
#260=ORIENTED_EDGE('',*,*,#259,.F.);
#261=ORIENTED_EDGE('',*,*,#236,.F.);
#262=ORIENTED_EDGE('',*,*,#183,.F.);
#263=EDGE_LOOP('',(#254,#260,#261,#262));
#264=FACE_OUTER_BOUND('',#263,.T.);
#265=ADVANCED_FACE('',(#264),#253,.F.);
#266=CARTESIAN_POINT('',(-1.554312E-015,1.776357E-015,16.970562748477143));
#267=DIRECTION('',(0.0,1.0,0.0));
#268=DIRECTION('',(-1.0,0.0,0.0));
#269=AXIS2_PLACEMENT_3D('',#266,#267,#268);
#270=PLANE('',#269);
#271=ORIENTED_EDGE('',*,*,#259,.T.);
#272=ORIENTED_EDGE('',*,*,#212,.F.);
#273=ORIENTED_EDGE('',*,*,#151,.T.);
#274=ORIENTED_EDGE('',*,*,#242,.T.);
#275=EDGE_LOOP('',(#271,#272,#273,#274));
#276=FACE_OUTER_BOUND('',#275,.T.);
#277=ADVANCED_FACE('',(#276),#270,.T.);
#278=CLOSED_SHELL('',(#169,#200,#224,#248,#265,#277));
#279=MANIFOLD_SOLID_BREP('2DB',#278);
#280=ADVANCED_BREP_SHAPE_REPRESENTATION('ABSR1',(#279),#33);
#281=SHAPE_REPRESENTATION_RELATIONSHIP('SRRPL1',' ',#280,#127);
ENDSEC;
END-ISO-10303-21;
