ISO-10303-21;
HEADER;
/****************************************************************
 * Generated by software with PDE/Lib inside                    *
 * PDE/Lib Version 3.2.2, created Thu Mar 23, 2000 at 18:38:49  *
 * International Technegroup Inc. (www.iti-oh.com)              *
 ****************************************************************/
FILE_DESCRIPTION((''),'2;1');
FILE_NAME('15SP1851.stp','2006-03-13T15:26:48',('Shawn Mantel'),('Faztek, LLC'),'Mechanical Desktop 2005','Mechanical Desktop 2005',', , ');
FILE_SCHEMA(('CONFIG_CONTROL_DESIGN'));
ENDSEC;
DATA;
#8=(NAMED_UNIT(*)PLANE_ANGLE_UNIT()SI_UNIT($,.RADIAN.));
#9=DIMENSIONAL_EXPONENTS(0.0,0.0,0.0,0.0,0.0,0.0,0.0);
#10=PLANE_ANGLE_MEASURE_WITH_UNIT(PLANE_ANGLE_MEASURE(0.017453292500000),#8);
#14=(CONVERSION_BASED_UNIT('DEGREE',#10)NAMED_UNIT(#9)PLANE_ANGLE_UNIT());
#18=(NAMED_UNIT(*)SI_UNIT($,.STERADIAN.)SOLID_ANGLE_UNIT());
#20=DIMENSIONAL_EXPONENTS(1.0,0.0,0.0,0.0,0.0,0.0,0.0);
#24=(LENGTH_UNIT()NAMED_UNIT(*)SI_UNIT(.MILLI.,.METRE.));
#25=LENGTH_MEASURE_WITH_UNIT(LENGTH_MEASURE(25.399999999999999),#24);
#27=(CONVERSION_BASED_UNIT('INCH',#25)LENGTH_UNIT()NAMED_UNIT(#20));
#28=UNCERTAINTY_MEASURE_WITH_UNIT(LENGTH_MEASURE(0.000001000000000),#27,'DISTANCE_ACCURACY_VALUE','');
#33=(GEOMETRIC_REPRESENTATION_CONTEXT(3)GLOBAL_UNCERTAINTY_ASSIGNED_CONTEXT((#28))GLOBAL_UNIT_ASSIGNED_CONTEXT((#14,#18,#27))REPRESENTATION_CONTEXT('None','None'));
#34=APPLICATION_CONTEXT('CONFIGURATION CONTROLLED 3D DESIGNS OF MECHANICAL PARTS AND ASSEMBLIES');
#35=APPLICATION_PROTOCOL_DEFINITION('INTERNATIONAL STANDARD','config_control_design',1995,#34);
#36=MECHANICAL_CONTEXT('3D Mechanical Parts',#34,'mechanical');
#37=PRODUCT('Product','Product',' ',(#36));
#38=PRODUCT_RELATED_PRODUCT_CATEGORY('detail',$,(#37));
#39=PRODUCT_CATEGORY('part',$);
#40=PRODUCT_CATEGORY_RELATIONSHIP('None','None',#39,#38);
#41=PERSON('1','Design','Joe',$,$,$);
#42=ORGANIZATION($,'None','None');
#43=PERSON_AND_ORGANIZATION(#41,#42);
#44=PERSON_AND_ORGANIZATION_ROLE('design_owner');
#45=CC_DESIGN_PERSON_AND_ORGANIZATION_ASSIGNMENT(#43,#44,(#37));
#46=PRODUCT_DEFINITION_FORMATION_WITH_SPECIFIED_SOURCE('None','None',#37,.NOT_KNOWN.);
#47=PERSON('2','Creator','Joe',$,$,$);
#48=ORGANIZATION($,'None','None');
#49=PERSON_AND_ORGANIZATION(#47,#48);
#50=PERSON_AND_ORGANIZATION_ROLE('creator');
#51=CC_DESIGN_PERSON_AND_ORGANIZATION_ASSIGNMENT(#49,#50,(#46));
#52=PERSON('3','Supplier','Joe',$,$,$);
#53=ORGANIZATION($,'None','None');
#54=PERSON_AND_ORGANIZATION(#52,#53);
#55=PERSON_AND_ORGANIZATION_ROLE('design_supplier');
#56=CC_DESIGN_PERSON_AND_ORGANIZATION_ASSIGNMENT(#54,#55,(#46));
#57=APPROVAL_STATUS('approved');
#58=APPROVAL(#57,'None');
#59=PERSON('4','Approver','Joe',$,$,$);
#60=ORGANIZATION($,'None','None');
#61=PERSON_AND_ORGANIZATION(#59,#60);
#62=APPROVAL_ROLE('approver');
#63=APPROVAL_PERSON_ORGANIZATION(#61,#58,#62);
#64=COORDINATED_UNIVERSAL_TIME_OFFSET(8,$,.BEHIND.);
#65=CALENDAR_DATE(1996,29,5);
#66=LOCAL_TIME(12,0,0.0,#64);
#67=DATE_AND_TIME(#65,#66);
#68=APPROVAL_DATE_TIME(#67,#58);
#69=CC_DESIGN_APPROVAL(#58,(#46));
#70=SECURITY_CLASSIFICATION_LEVEL('unclassified');
#71=SECURITY_CLASSIFICATION('security','None',#70);
#72=CC_DESIGN_SECURITY_CLASSIFICATION(#71,(#46));
#73=APPROVAL_STATUS('approved');
#74=APPROVAL(#73,'None');
#75=PERSON('5','Approver','Joe',$,$,$);
#76=ORGANIZATION($,'None','None');
#77=PERSON_AND_ORGANIZATION(#75,#76);
#78=APPROVAL_ROLE('approver');
#79=APPROVAL_PERSON_ORGANIZATION(#77,#74,#78);
#80=COORDINATED_UNIVERSAL_TIME_OFFSET(8,$,.BEHIND.);
#81=CALENDAR_DATE(1996,29,5);
#82=LOCAL_TIME(12,0,0.0,#80);
#83=DATE_AND_TIME(#81,#82);
#84=APPROVAL_DATE_TIME(#83,#74);
#85=CC_DESIGN_APPROVAL(#74,(#71));
#86=PERSON('6','Classifier','Joe',$,$,$);
#87=ORGANIZATION($,'None','None');
#88=PERSON_AND_ORGANIZATION(#86,#87);
#89=PERSON_AND_ORGANIZATION_ROLE('classification_officer');
#90=CC_DESIGN_PERSON_AND_ORGANIZATION_ASSIGNMENT(#88,#89,(#71));
#91=COORDINATED_UNIVERSAL_TIME_OFFSET(8,$,.BEHIND.);
#92=CALENDAR_DATE(1996,29,5);
#93=LOCAL_TIME(12,0,0.0,#91);
#94=DATE_AND_TIME(#92,#93);
#95=DATE_TIME_ROLE('classification_date');
#96=CC_DESIGN_DATE_AND_TIME_ASSIGNMENT(#94,#95,(#71));
#97=DESIGN_CONTEXT('Design Context',#34,'design');
#98=PRODUCT_DEFINITION('None','None',#46,#97);
#99=PERSON('7','Creator','Joe',$,$,$);
#100=ORGANIZATION($,'None','None');
#101=PERSON_AND_ORGANIZATION(#99,#100);
#102=PERSON_AND_ORGANIZATION_ROLE('creator');
#103=CC_DESIGN_PERSON_AND_ORGANIZATION_ASSIGNMENT(#101,#102,(#98));
#104=COORDINATED_UNIVERSAL_TIME_OFFSET(8,$,.BEHIND.);
#105=CALENDAR_DATE(1996,29,5);
#106=LOCAL_TIME(12,0,0.0,#104);
#107=DATE_AND_TIME(#105,#106);
#108=DATE_TIME_ROLE('creation_date');
#109=CC_DESIGN_DATE_AND_TIME_ASSIGNMENT(#107,#108,(#98));
#110=APPROVAL_STATUS('approved');
#111=APPROVAL(#110,'None');
#112=PERSON('8','Approver','Joe',$,$,$);
#113=ORGANIZATION($,'None','None');
#114=PERSON_AND_ORGANIZATION(#112,#113);
#115=APPROVAL_ROLE('approver');
#116=APPROVAL_PERSON_ORGANIZATION(#114,#111,#115);
#117=COORDINATED_UNIVERSAL_TIME_OFFSET(8,$,.BEHIND.);
#118=CALENDAR_DATE(1996,29,5);
#119=LOCAL_TIME(12,0,0.0,#117);
#120=DATE_AND_TIME(#118,#119);
#121=APPROVAL_DATE_TIME(#120,#111);
#122=CC_DESIGN_APPROVAL(#111,(#98));
#123=CARTESIAN_POINT('NONE',(0.0,0.0,0.0));
#124=DIRECTION('NONE',(0.0,0.0,1.0));
#125=DIRECTION('NONE',(1.0,0.0,0.0));
#126=AXIS2_PLACEMENT_3D('NONE',#123,#124,#125);
#127=SHAPE_REPRESENTATION('SR1',(#126),#33);
#128=PRODUCT_DEFINITION_SHAPE('PDS1','Test Part',#98);
#129=SHAPE_DEFINITION_REPRESENTATION(#128,#127);
#130=CARTESIAN_POINT('',(-0.750000000000002,-6.363961030678926,2.937189E-015));
#131=DIRECTION('',(0.0,0.0,-1.0));
#132=DIRECTION('',(-1.0,0.0,0.0));
#133=AXIS2_PLACEMENT_3D('',#130,#131,#132);
#134=PLANE('',#133);
#135=CARTESIAN_POINT('',(0.749999999999998,-6.363961030678926,2.715144E-015));
#136=VERTEX_POINT('',#135);
#137=CARTESIAN_POINT('',(0.749999999999997,-8.485281374238568,3.381278E-015));
#138=VERTEX_POINT('',#137);
#139=CARTESIAN_POINT('',(0.749999999999998,-6.363961030678926,2.715144E-015));
#140=DIRECTION('',(0.0,-1.0,0.0));
#141=VECTOR('',#140,2.121320343559642);
#142=LINE('',#139,#141);
#143=EDGE_CURVE('',#136,#138,#142,.T.);
#144=ORIENTED_EDGE('',*,*,#143,.T.);
#145=CARTESIAN_POINT('',(-0.750000000000002,-8.485281374238568,3.603323E-015));
#146=VERTEX_POINT('',#145);
#147=CARTESIAN_POINT('',(-0.750000000000002,-8.485281374238568,3.603323E-015));
#148=DIRECTION('',(1.0,0.0,0.0));
#149=VECTOR('',#148,1.500000000000000);
#150=LINE('',#147,#149);
#151=EDGE_CURVE('',#146,#138,#150,.T.);
#152=ORIENTED_EDGE('',*,*,#151,.F.);
#153=CARTESIAN_POINT('',(-0.750000000000002,-6.363961030678926,2.937189E-015));
#154=VERTEX_POINT('',#153);
#155=CARTESIAN_POINT('',(-0.750000000000002,-8.485281374238568,3.603323E-015));
#156=DIRECTION('',(0.0,1.0,0.0));
#157=VECTOR('',#156,2.121320343559642);
#158=LINE('',#155,#157);
#159=EDGE_CURVE('',#146,#154,#158,.T.);
#160=ORIENTED_EDGE('',*,*,#159,.T.);
#161=CARTESIAN_POINT('',(-0.750000000000002,-6.363961030678926,2.937189E-015));
#162=DIRECTION('',(1.0,0.0,0.0));
#163=VECTOR('',#162,1.500000000000000);
#164=LINE('',#161,#163);
#165=EDGE_CURVE('',#154,#136,#164,.T.);
#166=ORIENTED_EDGE('',*,*,#165,.T.);
#167=EDGE_LOOP('',(#144,#152,#160,#166));
#168=FACE_OUTER_BOUND('',#167,.T.);
#169=ADVANCED_FACE('',(#168),#134,.T.);
#170=CARTESIAN_POINT('',(0.749999999999997,-4.242640687119284,4.242640687119289));
#171=DIRECTION('',(-1.0,0.0,0.0));
#172=DIRECTION('',(0.0,-0.707106781186547,0.707106781186548));
#173=AXIS2_PLACEMENT_3D('',#170,#171,#172);
#174=PLANE('',#173);
#175=CARTESIAN_POINT('',(0.749999999999998,2.664535E-015,6.363961030678931));
#176=VERTEX_POINT('',#175);
#177=CARTESIAN_POINT('',(0.749999999999998,2.664535E-015,6.363961030678931));
#178=DIRECTION('',(-4.934325E-017,-0.707106781186548,-0.707106781186548));
#179=VECTOR('',#178,9.0);
#180=LINE('',#177,#179);
#181=EDGE_CURVE('',#176,#136,#180,.T.);
#182=ORIENTED_EDGE('',*,*,#181,.F.);
#183=CARTESIAN_POINT('',(0.749999999999998,2.664535E-015,8.485281374238573));
#184=VERTEX_POINT('',#183);
#185=CARTESIAN_POINT('',(0.749999999999998,2.664535E-015,8.485281374238573));
#186=DIRECTION('',(0.0,0.0,-1.0));
#187=VECTOR('',#186,2.121320343559642);
#188=LINE('',#185,#187);
#189=EDGE_CURVE('',#184,#176,#188,.T.);
#190=ORIENTED_EDGE('',*,*,#189,.F.);
#191=CARTESIAN_POINT('',(0.749999999999997,-8.485281374238568,3.381278E-015));
#192=DIRECTION('',(7.401487E-017,0.707106781186548,0.707106781186547));
#193=VECTOR('',#192,12.0);
#194=LINE('',#191,#193);
#195=EDGE_CURVE('',#138,#184,#194,.T.);
#196=ORIENTED_EDGE('',*,*,#195,.F.);
#197=ORIENTED_EDGE('',*,*,#143,.F.);
#198=EDGE_LOOP('',(#182,#190,#196,#197));
#199=FACE_OUTER_BOUND('',#198,.T.);
#200=ADVANCED_FACE('',(#199),#174,.F.);
#201=CARTESIAN_POINT('',(-0.750000000000002,-4.242640687119284,4.242640687119289));
#202=DIRECTION('',(2.668171E-017,-0.707106781186547,0.707106781186548));
#203=DIRECTION('',(1.0,0.0,0.0));
#204=AXIS2_PLACEMENT_3D('',#201,#202,#203);
#205=PLANE('',#204);
#206=ORIENTED_EDGE('',*,*,#195,.T.);
#207=CARTESIAN_POINT('',(-0.750000000000002,2.664535E-015,8.485281374238573));
#208=VERTEX_POINT('',#207);
#209=CARTESIAN_POINT('',(-0.750000000000002,2.664535E-015,8.485281374238573));
#210=DIRECTION('',(1.0,0.0,0.0));
#211=VECTOR('',#210,1.500000000000000);
#212=LINE('',#209,#211);
#213=EDGE_CURVE('',#208,#184,#212,.T.);
#214=ORIENTED_EDGE('',*,*,#213,.F.);
#215=CARTESIAN_POINT('',(-0.750000000000002,2.664535E-015,8.485281374238573));
#216=DIRECTION('',(-7.401487E-017,-0.707106781186548,-0.707106781186547));
#217=VECTOR('',#216,12.0);
#218=LINE('',#215,#217);
#219=EDGE_CURVE('',#208,#146,#218,.T.);
#220=ORIENTED_EDGE('',*,*,#219,.T.);
#221=ORIENTED_EDGE('',*,*,#151,.T.);
#222=EDGE_LOOP('',(#206,#214,#220,#221));
#223=FACE_OUTER_BOUND('',#222,.T.);
#224=ADVANCED_FACE('',(#223),#205,.T.);
#225=CARTESIAN_POINT('',(-0.750000000000002,2.664535E-015,8.485281374238573));
#226=DIRECTION('',(0.0,1.0,0.0));
#227=DIRECTION('',(-1.0,0.0,0.0));
#228=AXIS2_PLACEMENT_3D('',#225,#226,#227);
#229=PLANE('',#228);
#230=ORIENTED_EDGE('',*,*,#189,.T.);
#231=CARTESIAN_POINT('',(-0.750000000000002,1.776357E-015,6.363961030678931));
#232=VERTEX_POINT('',#231);
#233=CARTESIAN_POINT('',(-0.750000000000002,1.776357E-015,6.363961030678931));
#234=DIRECTION('',(1.0,0.0,0.0));
#235=VECTOR('',#234,1.500000000000000);
#236=LINE('',#233,#235);
#237=EDGE_CURVE('',#232,#176,#236,.T.);
#238=ORIENTED_EDGE('',*,*,#237,.F.);
#239=CARTESIAN_POINT('',(-0.750000000000002,1.776357E-015,6.363961030678931));
#240=DIRECTION('',(0.0,0.0,1.0));
#241=VECTOR('',#240,2.121320343559642);
#242=LINE('',#239,#241);
#243=EDGE_CURVE('',#232,#208,#242,.T.);
#244=ORIENTED_EDGE('',*,*,#243,.T.);
#245=ORIENTED_EDGE('',*,*,#213,.T.);
#246=EDGE_LOOP('',(#230,#238,#244,#245));
#247=FACE_OUTER_BOUND('',#246,.T.);
#248=ADVANCED_FACE('',(#247),#229,.T.);
#249=CARTESIAN_POINT('',(-0.750000000000002,1.776357E-015,6.363961030678931));
#250=DIRECTION('',(-2.668171E-017,0.707106781186547,-0.707106781186548));
#251=DIRECTION('',(-1.0,0.0,0.0));
#252=AXIS2_PLACEMENT_3D('',#249,#250,#251);
#253=PLANE('',#252);
#254=ORIENTED_EDGE('',*,*,#181,.T.);
#255=ORIENTED_EDGE('',*,*,#165,.F.);
#256=CARTESIAN_POINT('',(-0.750000000000002,-6.363961030678926,2.937189E-015));
#257=DIRECTION('',(4.934325E-017,0.707106781186547,0.707106781186548));
#258=VECTOR('',#257,9.0);
#259=LINE('',#256,#258);
#260=EDGE_CURVE('',#154,#232,#259,.T.);
#261=ORIENTED_EDGE('',*,*,#260,.T.);
#262=ORIENTED_EDGE('',*,*,#237,.T.);
#263=EDGE_LOOP('',(#254,#255,#261,#262));
#264=FACE_OUTER_BOUND('',#263,.T.);
#265=ADVANCED_FACE('',(#264),#253,.T.);
#266=CARTESIAN_POINT('',(-0.750000000000002,-1.590990257669730,5.833630944789021));
#267=DIRECTION('',(-1.0,0.0,0.0));
#268=DIRECTION('',(0.0,-0.707106781186547,0.707106781186548));
#269=AXIS2_PLACEMENT_3D('',#266,#267,#268);
#270=PLANE('',#269);
#271=ORIENTED_EDGE('',*,*,#219,.F.);
#272=ORIENTED_EDGE('',*,*,#243,.F.);
#273=ORIENTED_EDGE('',*,*,#260,.F.);
#274=ORIENTED_EDGE('',*,*,#159,.F.);
#275=EDGE_LOOP('',(#271,#272,#273,#274));
#276=FACE_OUTER_BOUND('',#275,.T.);
#277=ADVANCED_FACE('',(#276),#270,.T.);
#278=CLOSED_SHELL('',(#169,#200,#224,#248,#265,#277));
#279=MANIFOLD_SOLID_BREP('2BD',#278);
#280=ADVANCED_BREP_SHAPE_REPRESENTATION('ABSR1',(#279),#33);
#281=SHAPE_REPRESENTATION_RELATIONSHIP('SRRPL1',' ',#280,#127);
ENDSEC;
END-ISO-10303-21;
