ISO-10303-21;
HEADER;
/****************************************************************
 * Generated by software with PDElib inside                    *
 * PDElib Version v51a, created Fri 09/10/2010                  *
 * ITI Transcendata (http://www.transcendata.com/)              *
 ****************************************************************/
FILE_DESCRIPTION((''),'2;1');
FILE_NAME('15CB4803.stp','2015-07-20T13:29:12',(''),(''),'Mechanical Desktop 2011','Mechanical Desktop 2011',', , ');
FILE_SCHEMA(('CONFIG_CONTROL_DESIGN'));
ENDSEC;
DATA;
#10=(NAMED_UNIT(*)PLANE_ANGLE_UNIT()SI_UNIT($,.RADIAN.));
#11=DIMENSIONAL_EXPONENTS(0.0,0.0,0.0,0.0,0.0,0.0,0.0);
#12=PLANE_ANGLE_MEASURE_WITH_UNIT(PLANE_ANGLE_MEASURE(0.0174532925),#10);
#16=(CONVERSION_BASED_UNIT('DEGREE',#12)NAMED_UNIT(#11)PLANE_ANGLE_UNIT());
#20=(NAMED_UNIT(*)SI_UNIT($,.STERADIAN.)SOLID_ANGLE_UNIT());
#24=(LENGTH_UNIT()NAMED_UNIT(*)SI_UNIT(.MILLI.,.METRE.));
#26=UNCERTAINTY_MEASURE_WITH_UNIT(LENGTH_MEASURE(0.000001),#24,'DISTANCE_ACCURACY_VALUE','');
#28=(GEOMETRIC_REPRESENTATION_CONTEXT(3)GLOBAL_UNCERTAINTY_ASSIGNED_CONTEXT((#26))GLOBAL_UNIT_ASSIGNED_CONTEXT((#16,#20,#24))REPRESENTATION_CONTEXT('','3D'));
#29=APPLICATION_CONTEXT('CONFIGURATION CONTROLLED 3D DESIGNS OF MECHANICAL PARTS AND ASSEMBLIES');
#30=APPLICATION_PROTOCOL_DEFINITION('INTERNATIONAL STANDARD','config_control_design',1995,#29);
#31=MECHANICAL_CONTEXT('3D Mechanical Parts',#29,'mechanical');
#32=PRODUCT('Product','Product',' ',(#31));
#33=PRODUCT_RELATED_PRODUCT_CATEGORY('detail',$,(#32));
#34=PRODUCT_CATEGORY('part',$);
#35=PRODUCT_CATEGORY_RELATIONSHIP('None','None',#34,#33);
#36=PERSON('1','Design','Joe',$,$,$);
#37=ORGANIZATION($,'None','None');
#38=PERSON_AND_ORGANIZATION(#36,#37);
#39=PERSON_AND_ORGANIZATION_ROLE('design_owner');
#40=CC_DESIGN_PERSON_AND_ORGANIZATION_ASSIGNMENT(#38,#39,(#32));
#41=PRODUCT_DEFINITION_FORMATION_WITH_SPECIFIED_SOURCE('None','None',#32,.BOUGHT.);
#42=PERSON('2','Creator','Joe',$,$,$);
#43=ORGANIZATION($,'None','None');
#44=PERSON_AND_ORGANIZATION(#42,#43);
#45=PERSON_AND_ORGANIZATION_ROLE('creator');
#46=CC_DESIGN_PERSON_AND_ORGANIZATION_ASSIGNMENT(#44,#45,(#41));
#47=PERSON('3','Supplier','Joe',$,$,$);
#48=ORGANIZATION($,'None','None');
#49=PERSON_AND_ORGANIZATION(#47,#48);
#50=PERSON_AND_ORGANIZATION_ROLE('design_supplier');
#51=CC_DESIGN_PERSON_AND_ORGANIZATION_ASSIGNMENT(#49,#50,(#41));
#52=APPROVAL_STATUS('approved');
#53=APPROVAL(#52,'None');
#54=PERSON('4','Approver','Joe',$,$,$);
#55=ORGANIZATION($,'None','None');
#56=PERSON_AND_ORGANIZATION(#54,#55);
#57=APPROVAL_ROLE('approver');
#58=APPROVAL_PERSON_ORGANIZATION(#56,#53,#57);
#59=COORDINATED_UNIVERSAL_TIME_OFFSET(8,$,.EXACT.);
#60=CALENDAR_DATE(1996,29,5);
#61=LOCAL_TIME(12,0,0.0,#59);
#62=DATE_AND_TIME(#60,#61);
#63=APPROVAL_DATE_TIME(#62,#53);
#64=CC_DESIGN_APPROVAL(#53,(#41));
#65=SECURITY_CLASSIFICATION_LEVEL('unclassified');
#66=SECURITY_CLASSIFICATION('security','None',#65);
#67=CC_DESIGN_SECURITY_CLASSIFICATION(#66,(#41));
#68=APPROVAL_STATUS('approved');
#69=APPROVAL(#68,'None');
#70=PERSON('5','Approver','Joe',$,$,$);
#71=ORGANIZATION($,'None','None');
#72=PERSON_AND_ORGANIZATION(#70,#71);
#73=APPROVAL_ROLE('approver');
#74=APPROVAL_PERSON_ORGANIZATION(#72,#69,#73);
#75=COORDINATED_UNIVERSAL_TIME_OFFSET(8,$,.EXACT.);
#76=CALENDAR_DATE(1996,29,5);
#77=LOCAL_TIME(12,0,0.0,#75);
#78=DATE_AND_TIME(#76,#77);
#79=APPROVAL_DATE_TIME(#78,#69);
#80=CC_DESIGN_APPROVAL(#69,(#66));
#81=PERSON('6','Classifier','Joe',$,$,$);
#82=ORGANIZATION($,'None','None');
#83=PERSON_AND_ORGANIZATION(#81,#82);
#84=PERSON_AND_ORGANIZATION_ROLE('classification_officer');
#85=CC_DESIGN_PERSON_AND_ORGANIZATION_ASSIGNMENT(#83,#84,(#66));
#86=COORDINATED_UNIVERSAL_TIME_OFFSET(8,$,.EXACT.);
#87=CALENDAR_DATE(1996,29,5);
#88=LOCAL_TIME(12,0,0.0,#86);
#89=DATE_AND_TIME(#87,#88);
#90=DATE_TIME_ROLE('classification_date');
#91=CC_DESIGN_DATE_AND_TIME_ASSIGNMENT(#89,#90,(#66));
#92=DESIGN_CONTEXT('Design Context',#29,'design');
#93=PRODUCT_DEFINITION('None','None',#41,#92);
#94=PERSON('7','Creator','Joe',$,$,$);
#95=ORGANIZATION($,'None','None');
#96=PERSON_AND_ORGANIZATION(#94,#95);
#97=PERSON_AND_ORGANIZATION_ROLE('creator');
#98=CC_DESIGN_PERSON_AND_ORGANIZATION_ASSIGNMENT(#96,#97,(#93));
#99=COORDINATED_UNIVERSAL_TIME_OFFSET(8,$,.EXACT.);
#100=CALENDAR_DATE(1996,29,5);
#101=LOCAL_TIME(12,0,0.0,#99);
#102=DATE_AND_TIME(#100,#101);
#103=DATE_TIME_ROLE('creation_date');
#104=CC_DESIGN_DATE_AND_TIME_ASSIGNMENT(#102,#103,(#93));
#105=APPROVAL_STATUS('approved');
#106=APPROVAL(#105,'None');
#107=PERSON('8','Approver','Joe',$,$,$);
#108=ORGANIZATION($,'None','None');
#109=PERSON_AND_ORGANIZATION(#107,#108);
#110=APPROVAL_ROLE('approver');
#111=APPROVAL_PERSON_ORGANIZATION(#109,#106,#110);
#112=COORDINATED_UNIVERSAL_TIME_OFFSET(8,$,.EXACT.);
#113=CALENDAR_DATE(1996,29,5);
#114=LOCAL_TIME(12,0,0.0,#112);
#115=DATE_AND_TIME(#113,#114);
#116=APPROVAL_DATE_TIME(#115,#106);
#117=CC_DESIGN_APPROVAL(#106,(#93));
#118=CARTESIAN_POINT('NONE',(0.0,0.0,0.0));
#119=DIRECTION('NONE',(0.0,0.0,1.0));
#120=DIRECTION('NONE',(1.0,0.0,0.0));
#121=AXIS2_PLACEMENT_3D('NONE',#118,#119,#120);
#122=SHAPE_REPRESENTATION('SR1',(#121),#28);
#123=PRODUCT_DEFINITION_SHAPE('PDS1','Test Part',#93);
#124=SHAPE_DEFINITION_REPRESENTATION(#123,#122);
#125=CARTESIAN_POINT('',(0.75,-4.440892E-016,0.75));
#126=DIRECTION('',(-3.445052E-016,-1.0,-1.836910E-016));
#127=DIRECTION('',(0.0,0.0,-1.0));
#128=AXIS2_PLACEMENT_3D('',#125,#126,#127);
#129=CYLINDRICAL_SURFACE('',#128,0.171875);
#130=CARTESIAN_POINT('',(0.75,-4.440892E-016,0.578125));
#131=VERTEX_POINT('',#130);
#132=CARTESIAN_POINT('',(0.75,-0.25,0.578125));
#133=VERTEX_POINT('',#132);
#134=CARTESIAN_POINT('',(0.75,-4.440892E-016,0.578125));
#135=DIRECTION('',(0.0,-1.0,0.0));
#136=VECTOR('',#135,0.25);
#137=LINE('',#134,#136);
#138=EDGE_CURVE('',#131,#133,#137,.T.);
#139=ORIENTED_EDGE('',*,*,#138,.F.);
#140=CARTESIAN_POINT('',(0.75,-3.646388E-016,0.921875));
#141=VERTEX_POINT('',#140);
#142=CARTESIAN_POINT('',(0.75,-3.330669E-016,0.75));
#143=DIRECTION('',(0.0,-1.0,0.0));
#144=DIRECTION('',(0.0,0.0,-1.0));
#145=AXIS2_PLACEMENT_3D('',#142,#143,#144);
#146=CIRCLE('',#145,0.171875);
#147=EDGE_CURVE('',#141,#131,#146,.T.);
#148=ORIENTED_EDGE('',*,*,#147,.F.);
#149=CARTESIAN_POINT('',(0.749999999999999,-0.25,0.921875));
#150=VERTEX_POINT('',#149);
#151=CARTESIAN_POINT('',(0.75,-3.646388E-016,0.921875));
#152=DIRECTION('',(0.0,-1.0,0.0));
#153=VECTOR('',#152,0.25);
#154=LINE('',#151,#153);
#155=EDGE_CURVE('',#141,#150,#154,.T.);
#156=ORIENTED_EDGE('',*,*,#155,.T.);
#157=CARTESIAN_POINT('',(0.75,-0.25,0.75));
#158=DIRECTION('',(0.0,1.0,0.0));
#159=DIRECTION('',(0.0,0.0,-1.0));
#160=AXIS2_PLACEMENT_3D('',#157,#158,#159);
#161=CIRCLE('',#160,0.171875);
#162=EDGE_CURVE('',#133,#150,#161,.T.);
#163=ORIENTED_EDGE('',*,*,#162,.F.);
#164=EDGE_LOOP('',(#139,#148,#156,#163));
#165=FACE_OUTER_BOUND('',#164,.T.);
#166=ADVANCED_FACE('',(#165),#129,.F.);
#167=CARTESIAN_POINT('',(0.75,-0.750000000000001,0.499999999999999));
#168=DIRECTION('',(-2.832749E-016,1.836910E-016,-1.0));
#169=DIRECTION('',(1.0,0.0,0.0));
#170=AXIS2_PLACEMENT_3D('',#167,#168,#169);
#171=CYLINDRICAL_SURFACE('',#170,0.171875);
#172=CARTESIAN_POINT('',(0.921875,-0.750000000000001,0.249999999999999));
#173=VERTEX_POINT('',#172);
#174=CARTESIAN_POINT('',(0.921875,-0.750000000000001,-4.534879E-016));
#175=VERTEX_POINT('',#174);
#176=CARTESIAN_POINT('',(0.921875,-0.750000000000001,0.249999999999999));
#177=DIRECTION('',(0.0,0.0,-1.0));
#178=VECTOR('',#177,0.25);
#179=LINE('',#176,#178);
#180=EDGE_CURVE('',#173,#175,#179,.T.);
#181=ORIENTED_EDGE('',*,*,#180,.F.);
#182=CARTESIAN_POINT('',(0.578125,-0.750000000000002,0.249999999999999));
#183=VERTEX_POINT('',#182);
#184=CARTESIAN_POINT('',(0.75,-0.750000000000001,0.249999999999999));
#185=DIRECTION('',(0.0,0.0,-1.0));
#186=DIRECTION('',(1.0,0.0,0.0));
#187=AXIS2_PLACEMENT_3D('',#184,#185,#186);
#188=CIRCLE('',#187,0.171875);
#189=EDGE_CURVE('',#183,#173,#188,.T.);
#190=ORIENTED_EDGE('',*,*,#189,.F.);
#191=CARTESIAN_POINT('',(0.578125,-0.75,-3.330669E-016));
#192=VERTEX_POINT('',#191);
#193=CARTESIAN_POINT('',(0.578125,-0.750000000000001,0.249999999999999));
#194=DIRECTION('',(0.0,0.0,-1.0));
#195=VECTOR('',#194,0.25);
#196=LINE('',#193,#195);
#197=EDGE_CURVE('',#183,#192,#196,.T.);
#198=ORIENTED_EDGE('',*,*,#197,.T.);
#199=CARTESIAN_POINT('',(0.75,-0.750000000000001,-4.153240E-016));
#200=DIRECTION('',(0.0,0.0,1.0));
#201=DIRECTION('',(1.0,0.0,0.0));
#202=AXIS2_PLACEMENT_3D('',#199,#200,#201);
#203=CIRCLE('',#202,0.171875);
#204=EDGE_CURVE('',#175,#192,#203,.T.);
#205=ORIENTED_EDGE('',*,*,#204,.F.);
#206=EDGE_LOOP('',(#181,#190,#198,#205));
#207=FACE_OUTER_BOUND('',#206,.T.);
#208=ADVANCED_FACE('',(#207),#171,.F.);
#209=CARTESIAN_POINT('',(-0.75,1.110223E-016,0.75));
#210=DIRECTION('',(-3.445052E-016,-1.0,-1.836910E-016));
#211=DIRECTION('',(0.0,0.0,-1.0));
#212=AXIS2_PLACEMENT_3D('',#209,#210,#211);
#213=CYLINDRICAL_SURFACE('',#212,0.171875);
#214=CARTESIAN_POINT('',(-0.75,2.220446E-016,0.578125));
#215=VERTEX_POINT('',#214);
#216=CARTESIAN_POINT('',(-0.75,-0.25,0.578125));
#217=VERTEX_POINT('',#216);
#218=CARTESIAN_POINT('',(-0.75,1.425942E-016,0.578125));
#219=DIRECTION('',(0.0,-1.0,0.0));
#220=VECTOR('',#219,0.25);
#221=LINE('',#218,#220);
#222=EDGE_CURVE('',#215,#217,#221,.T.);
#223=ORIENTED_EDGE('',*,*,#222,.F.);
#224=CARTESIAN_POINT('',(-0.75,7.945042E-017,0.921875));
#225=VERTEX_POINT('',#224);
#226=CARTESIAN_POINT('',(-0.75,1.110223E-016,0.75));
#227=DIRECTION('',(0.0,-1.0,0.0));
#228=DIRECTION('',(0.0,0.0,-1.0));
#229=AXIS2_PLACEMENT_3D('',#226,#227,#228);
#230=CIRCLE('',#229,0.171875);
#231=EDGE_CURVE('',#225,#215,#230,.T.);
#232=ORIENTED_EDGE('',*,*,#231,.F.);
#233=CARTESIAN_POINT('',(-0.750000000000001,-0.25,0.921875));
#234=VERTEX_POINT('',#233);
#235=CARTESIAN_POINT('',(-0.75,7.945042E-017,0.921875));
#236=DIRECTION('',(0.0,-1.0,0.0));
#237=VECTOR('',#236,0.25);
#238=LINE('',#235,#237);
#239=EDGE_CURVE('',#225,#234,#238,.T.);
#240=ORIENTED_EDGE('',*,*,#239,.T.);
#241=CARTESIAN_POINT('',(-0.75,-0.25,0.75));
#242=DIRECTION('',(0.0,1.0,0.0));
#243=DIRECTION('',(0.0,0.0,-1.0));
#244=AXIS2_PLACEMENT_3D('',#241,#242,#243);
#245=CIRCLE('',#244,0.171875);
#246=EDGE_CURVE('',#217,#234,#245,.T.);
#247=ORIENTED_EDGE('',*,*,#246,.F.);
#248=EDGE_LOOP('',(#223,#232,#240,#247));
#249=FACE_OUTER_BOUND('',#248,.T.);
#250=ADVANCED_FACE('',(#249),#213,.F.);
#251=CARTESIAN_POINT('',(-0.75,-0.75,1.397875E-016));
#252=DIRECTION('',(2.832749E-016,-1.836910E-016,1.0));
#253=DIRECTION('',(1.0,0.0,0.0));
#254=AXIS2_PLACEMENT_3D('',#251,#252,#253);
#255=CYLINDRICAL_SURFACE('',#254,0.171875);
#256=CARTESIAN_POINT('',(-0.578125,-0.75,1.016236E-016));
#257=VERTEX_POINT('',#256);
#258=CARTESIAN_POINT('',(-0.578125,-0.75,0.25));
#259=VERTEX_POINT('',#258);
#260=CARTESIAN_POINT('',(-0.578125,-0.75,1.016236E-016));
#261=DIRECTION('',(0.0,0.0,1.0));
#262=VECTOR('',#261,0.25);
#263=LINE('',#260,#262);
#264=EDGE_CURVE('',#257,#259,#263,.T.);
#265=ORIENTED_EDGE('',*,*,#264,.F.);
#266=CARTESIAN_POINT('',(-0.921875,-0.75,1.884754E-016));
#267=VERTEX_POINT('',#266);
#268=CARTESIAN_POINT('',(-0.75,-0.75,1.397875E-016));
#269=DIRECTION('',(0.0,0.0,1.0));
#270=DIRECTION('',(1.0,0.0,0.0));
#271=AXIS2_PLACEMENT_3D('',#268,#269,#270);
#272=CIRCLE('',#271,0.171875);
#273=EDGE_CURVE('',#267,#257,#272,.T.);
#274=ORIENTED_EDGE('',*,*,#273,.F.);
#275=CARTESIAN_POINT('',(-0.921875,-0.750000000000001,0.25));
#276=VERTEX_POINT('',#275);
#277=CARTESIAN_POINT('',(-0.921875,-0.75,1.884754E-016));
#278=DIRECTION('',(0.0,0.0,1.0));
#279=VECTOR('',#278,0.25);
#280=LINE('',#277,#279);
#281=EDGE_CURVE('',#267,#276,#280,.T.);
#282=ORIENTED_EDGE('',*,*,#281,.T.);
#283=CARTESIAN_POINT('',(-0.75,-0.75,0.25));
#284=DIRECTION('',(0.0,0.0,-1.0));
#285=DIRECTION('',(1.0,0.0,0.0));
#286=AXIS2_PLACEMENT_3D('',#283,#284,#285);
#287=CIRCLE('',#286,0.171875);
#288=EDGE_CURVE('',#259,#276,#287,.T.);
#289=ORIENTED_EDGE('',*,*,#288,.F.);
#290=EDGE_LOOP('',(#265,#274,#282,#289));
#291=FACE_OUTER_BOUND('',#290,.T.);
#292=ADVANCED_FACE('',(#291),#255,.F.);
#293=CARTESIAN_POINT('',(-0.75,-0.75,1.397875E-016));
#294=DIRECTION('',(2.832749E-016,-1.836910E-016,1.0));
#295=DIRECTION('',(1.0,0.0,0.0));
#296=AXIS2_PLACEMENT_3D('',#293,#294,#295);
#297=CYLINDRICAL_SURFACE('',#296,0.171875);
#298=ORIENTED_EDGE('',*,*,#264,.T.);
#299=CARTESIAN_POINT('',(-0.75,-0.75,0.25));
#300=DIRECTION('',(0.0,0.0,-1.0));
#301=DIRECTION('',(1.0,0.0,0.0));
#302=AXIS2_PLACEMENT_3D('',#299,#300,#301);
#303=CIRCLE('',#302,0.171875);
#304=EDGE_CURVE('',#276,#259,#303,.T.);
#305=ORIENTED_EDGE('',*,*,#304,.F.);
#306=ORIENTED_EDGE('',*,*,#281,.F.);
#307=CARTESIAN_POINT('',(-0.75,-0.75,1.397875E-016));
#308=DIRECTION('',(0.0,0.0,1.0));
#309=DIRECTION('',(1.0,0.0,0.0));
#310=AXIS2_PLACEMENT_3D('',#307,#308,#309);
#311=CIRCLE('',#310,0.171875);
#312=EDGE_CURVE('',#257,#267,#311,.T.);
#313=ORIENTED_EDGE('',*,*,#312,.F.);
#314=EDGE_LOOP('',(#298,#305,#306,#313));
#315=FACE_OUTER_BOUND('',#314,.T.);
#316=ADVANCED_FACE('',(#315),#297,.F.);
#317=CARTESIAN_POINT('',(-0.75,1.110223E-016,0.75));
#318=DIRECTION('',(-3.445052E-016,-1.0,-1.836910E-016));
#319=DIRECTION('',(0.0,0.0,-1.0));
#320=AXIS2_PLACEMENT_3D('',#317,#318,#319);
#321=CYLINDRICAL_SURFACE('',#320,0.171875);
#322=ORIENTED_EDGE('',*,*,#222,.T.);
#323=CARTESIAN_POINT('',(-0.75,-0.25,0.75));
#324=DIRECTION('',(0.0,1.0,0.0));
#325=DIRECTION('',(0.0,0.0,-1.0));
#326=AXIS2_PLACEMENT_3D('',#323,#324,#325);
#327=CIRCLE('',#326,0.171875);
#328=EDGE_CURVE('',#234,#217,#327,.T.);
#329=ORIENTED_EDGE('',*,*,#328,.F.);
#330=ORIENTED_EDGE('',*,*,#239,.F.);
#331=CARTESIAN_POINT('',(-0.75,1.110223E-016,0.75));
#332=DIRECTION('',(0.0,-1.0,0.0));
#333=DIRECTION('',(0.0,0.0,-1.0));
#334=AXIS2_PLACEMENT_3D('',#331,#332,#333);
#335=CIRCLE('',#334,0.171875);
#336=EDGE_CURVE('',#215,#225,#335,.T.);
#337=ORIENTED_EDGE('',*,*,#336,.F.);
#338=EDGE_LOOP('',(#322,#329,#330,#337));
#339=FACE_OUTER_BOUND('',#338,.T.);
#340=ADVANCED_FACE('',(#339),#321,.F.);
#341=CARTESIAN_POINT('',(0.75,-0.750000000000001,0.499999999999999));
#342=DIRECTION('',(-2.832749E-016,1.836910E-016,-1.0));
#343=DIRECTION('',(1.0,0.0,0.0));
#344=AXIS2_PLACEMENT_3D('',#341,#342,#343);
#345=CYLINDRICAL_SURFACE('',#344,0.171875);
#346=ORIENTED_EDGE('',*,*,#180,.T.);
#347=CARTESIAN_POINT('',(0.75,-0.750000000000001,-4.153240E-016));
#348=DIRECTION('',(0.0,0.0,1.0));
#349=DIRECTION('',(1.0,0.0,0.0));
#350=AXIS2_PLACEMENT_3D('',#347,#348,#349);
#351=CIRCLE('',#350,0.171875);
#352=EDGE_CURVE('',#192,#175,#351,.T.);
#353=ORIENTED_EDGE('',*,*,#352,.F.);
#354=ORIENTED_EDGE('',*,*,#197,.F.);
#355=CARTESIAN_POINT('',(0.75,-0.750000000000001,0.249999999999999));
#356=DIRECTION('',(0.0,0.0,-1.0));
#357=DIRECTION('',(1.0,0.0,0.0));
#358=AXIS2_PLACEMENT_3D('',#355,#356,#357);
#359=CIRCLE('',#358,0.171875);
#360=EDGE_CURVE('',#173,#183,#359,.T.);
#361=ORIENTED_EDGE('',*,*,#360,.F.);
#362=EDGE_LOOP('',(#346,#353,#354,#361));
#363=FACE_OUTER_BOUND('',#362,.T.);
#364=ADVANCED_FACE('',(#363),#345,.F.);
#365=CARTESIAN_POINT('',(0.75,-4.440892E-016,0.75));
#366=DIRECTION('',(-3.445052E-016,-1.0,-1.836910E-016));
#367=DIRECTION('',(0.0,0.0,-1.0));
#368=AXIS2_PLACEMENT_3D('',#365,#366,#367);
#369=CYLINDRICAL_SURFACE('',#368,0.171875);
#370=ORIENTED_EDGE('',*,*,#138,.T.);
#371=CARTESIAN_POINT('',(0.75,-0.25,0.75));
#372=DIRECTION('',(0.0,1.0,0.0));
#373=DIRECTION('',(0.0,0.0,-1.0));
#374=AXIS2_PLACEMENT_3D('',#371,#372,#373);
#375=CIRCLE('',#374,0.171875);
#376=EDGE_CURVE('',#150,#133,#375,.T.);
#377=ORIENTED_EDGE('',*,*,#376,.F.);
#378=ORIENTED_EDGE('',*,*,#155,.F.);
#379=CARTESIAN_POINT('',(0.75,-3.330669E-016,0.75));
#380=DIRECTION('',(0.0,-1.0,0.0));
#381=DIRECTION('',(0.0,0.0,-1.0));
#382=AXIS2_PLACEMENT_3D('',#379,#380,#381);
#383=CIRCLE('',#382,0.171875);
#384=EDGE_CURVE('',#131,#141,#383,.T.);
#385=ORIENTED_EDGE('',*,*,#384,.F.);
#386=EDGE_LOOP('',(#370,#377,#378,#385));
#387=FACE_OUTER_BOUND('',#386,.T.);
#388=ADVANCED_FACE('',(#387),#369,.F.);
#389=CARTESIAN_POINT('',(1.40625,-1.5,-6.988090E-016));
#390=DIRECTION('',(0.0,0.0,-1.0));
#391=DIRECTION('',(0.0,1.0,0.0));
#392=AXIS2_PLACEMENT_3D('',#389,#390,#391);
#393=PLANE('',#392);
#394=CARTESIAN_POINT('',(-1.40625,-1.5,1.477361E-016));
#395=VERTEX_POINT('',#394);
#396=CARTESIAN_POINT('',(-1.40625,3.330669E-016,4.232725E-016));
#397=VERTEX_POINT('',#396);
#398=CARTESIAN_POINT('',(-1.40625,-1.5,1.477361E-016));
#399=DIRECTION('',(0.0,1.0,0.0));
#400=VECTOR('',#399,1.5);
#401=LINE('',#398,#400);
#402=EDGE_CURVE('',#395,#397,#401,.T.);
#403=ORIENTED_EDGE('',*,*,#402,.T.);
#404=CARTESIAN_POINT('',(1.40625,-4.440892E-016,-4.232725E-016));
#405=VERTEX_POINT('',#404);
#406=CARTESIAN_POINT('',(1.40625,-4.440892E-016,-4.232725E-016));
#407=DIRECTION('',(-1.0,0.0,0.0));
#408=VECTOR('',#407,2.8125);
#409=LINE('',#406,#408);
#410=EDGE_CURVE('',#405,#397,#409,.T.);
#411=ORIENTED_EDGE('',*,*,#410,.F.);
#412=CARTESIAN_POINT('',(1.40625,-1.5,-6.988090E-016));
#413=VERTEX_POINT('',#412);
#414=CARTESIAN_POINT('',(1.40625,-4.440892E-016,-4.232725E-016));
#415=DIRECTION('',(0.0,-1.0,0.0));
#416=VECTOR('',#415,1.5);
#417=LINE('',#414,#416);
#418=EDGE_CURVE('',#405,#413,#417,.T.);
#419=ORIENTED_EDGE('',*,*,#418,.T.);
#420=CARTESIAN_POINT('',(1.40625,-1.5,-6.988090E-016));
#421=DIRECTION('',(-1.0,0.0,0.0));
#422=VECTOR('',#421,2.8125);
#423=LINE('',#420,#422);
#424=EDGE_CURVE('',#413,#395,#423,.T.);
#425=ORIENTED_EDGE('',*,*,#424,.T.);
#426=EDGE_LOOP('',(#403,#411,#419,#425));
#427=FACE_OUTER_BOUND('',#426,.T.);
#428=ORIENTED_EDGE('',*,*,#312,.T.);
#429=ORIENTED_EDGE('',*,*,#273,.T.);
#430=EDGE_LOOP('',(#428,#429));
#431=FACE_BOUND('',#430,.T.);
#432=ORIENTED_EDGE('',*,*,#204,.T.);
#433=ORIENTED_EDGE('',*,*,#352,.T.);
#434=EDGE_LOOP('',(#432,#433));
#435=FACE_BOUND('',#434,.T.);
#436=ADVANCED_FACE('',(#427,#431,#435),#393,.T.);
#437=CARTESIAN_POINT('',(1.40625,-4.440892E-016,-4.232725E-016));
#438=DIRECTION('',(0.0,1.0,0.0));
#439=DIRECTION('',(0.0,0.0,1.0));
#440=AXIS2_PLACEMENT_3D('',#437,#438,#439);
#441=PLANE('',#440);
#442=CARTESIAN_POINT('',(-1.40625,0.0,1.5));
#443=VERTEX_POINT('',#442);
#444=CARTESIAN_POINT('',(-1.40625,2.755364E-016,4.440892E-016));
#445=DIRECTION('',(0.0,0.0,1.0));
#446=VECTOR('',#445,1.5);
#447=LINE('',#444,#446);
#448=EDGE_CURVE('',#397,#443,#447,.T.);
#449=ORIENTED_EDGE('',*,*,#448,.T.);
#450=CARTESIAN_POINT('',(1.40625,-7.216450E-016,1.5));
#451=VERTEX_POINT('',#450);
#452=CARTESIAN_POINT('',(1.40625,-7.216450E-016,1.5));
#453=DIRECTION('',(-1.0,0.0,0.0));
#454=VECTOR('',#453,2.8125);
#455=LINE('',#452,#454);
#456=EDGE_CURVE('',#451,#443,#455,.T.);
#457=ORIENTED_EDGE('',*,*,#456,.F.);
#458=CARTESIAN_POINT('',(1.40625,-7.216450E-016,1.5));
#459=DIRECTION('',(0.0,0.0,-1.0));
#460=VECTOR('',#459,1.5);
#461=LINE('',#458,#460);
#462=EDGE_CURVE('',#451,#405,#461,.T.);
#463=ORIENTED_EDGE('',*,*,#462,.T.);
#464=ORIENTED_EDGE('',*,*,#410,.T.);
#465=EDGE_LOOP('',(#449,#457,#463,#464));
#466=FACE_OUTER_BOUND('',#465,.T.);
#467=ORIENTED_EDGE('',*,*,#336,.T.);
#468=ORIENTED_EDGE('',*,*,#231,.T.);
#469=EDGE_LOOP('',(#467,#468));
#470=FACE_BOUND('',#469,.T.);
#471=ORIENTED_EDGE('',*,*,#384,.T.);
#472=ORIENTED_EDGE('',*,*,#147,.T.);
#473=EDGE_LOOP('',(#471,#472));
#474=FACE_BOUND('',#473,.T.);
#475=ADVANCED_FACE('',(#466,#470,#474),#441,.T.);
#476=CARTESIAN_POINT('',(1.40625,-6.661338E-016,1.25));
#477=DIRECTION('',(-1.0,1.753284E-016,2.832749E-016));
#478=DIRECTION('',(7.632972E-017,-0.707106781186548,0.707106781186547));
#479=AXIS2_PLACEMENT_3D('',#476,#477,#478);
#480=CYLINDRICAL_SURFACE('',#479,0.25);
#481=CARTESIAN_POINT('',(-1.40625,-0.25,1.25));
#482=VERTEX_POINT('',#481);
#483=CARTESIAN_POINT('',(-1.40625,1.110223E-016,1.25));
#484=DIRECTION('',(1.0,8.040714E-017,-8.040714E-017));
#485=DIRECTION('',(1.137129E-016,-0.707106781186548,0.707106781186547));
#486=AXIS2_PLACEMENT_3D('',#483,#484,#485);
#487=CIRCLE('',#486,0.25);
#488=EDGE_CURVE('',#443,#482,#487,.T.);
#489=ORIENTED_EDGE('',*,*,#488,.T.);
#490=CARTESIAN_POINT('',(1.40625,-0.250000000000001,1.25));
#491=VERTEX_POINT('',#490);
#492=CARTESIAN_POINT('',(1.40625,-0.250000000000001,1.25));
#493=DIRECTION('',(-1.0,0.0,0.0));
#494=VECTOR('',#493,2.8125);
#495=LINE('',#492,#494);
#496=EDGE_CURVE('',#491,#482,#495,.T.);
#497=ORIENTED_EDGE('',*,*,#496,.F.);
#498=CARTESIAN_POINT('',(1.40625,-6.661338E-016,1.25));
#499=DIRECTION('',(-1.0,-8.040714E-017,8.040714E-017));
#500=DIRECTION('',(1.137129E-016,-0.707106781186548,0.707106781186547));
#501=AXIS2_PLACEMENT_3D('',#498,#499,#500);
#502=CIRCLE('',#501,0.25);
#503=EDGE_CURVE('',#491,#451,#502,.T.);
#504=ORIENTED_EDGE('',*,*,#503,.T.);
#505=ORIENTED_EDGE('',*,*,#456,.T.);
#506=EDGE_LOOP('',(#489,#497,#504,#505));
#507=FACE_OUTER_BOUND('',#506,.T.);
#508=ADVANCED_FACE('',(#507),#480,.T.);
#509=CARTESIAN_POINT('',(1.40625,-0.250000000000001,1.25));
#510=DIRECTION('',(0.0,-1.0,0.0));
#511=DIRECTION('',(0.0,0.0,-1.0));
#512=AXIS2_PLACEMENT_3D('',#509,#510,#511);
#513=PLANE('',#512);
#514=CARTESIAN_POINT('',(-1.40625,-0.25,0.562));
#515=VERTEX_POINT('',#514);
#516=CARTESIAN_POINT('',(-1.40625,-0.25,1.25));
#517=DIRECTION('',(0.0,0.0,-1.0));
#518=VECTOR('',#517,0.688);
#519=LINE('',#516,#518);
#520=EDGE_CURVE('',#482,#515,#519,.T.);
#521=ORIENTED_EDGE('',*,*,#520,.T.);
#522=CARTESIAN_POINT('',(1.40625,-0.250000000000001,0.561999999999999));
#523=VERTEX_POINT('',#522);
#524=CARTESIAN_POINT('',(1.40625,-0.250000000000001,0.561999999999999));
#525=DIRECTION('',(-1.0,0.0,0.0));
#526=VECTOR('',#525,2.8125);
#527=LINE('',#524,#526);
#528=EDGE_CURVE('',#523,#515,#527,.T.);
#529=ORIENTED_EDGE('',*,*,#528,.F.);
#530=CARTESIAN_POINT('',(1.40625,-0.250000000000001,0.561999999999999));
#531=DIRECTION('',(0.0,0.0,1.0));
#532=VECTOR('',#531,0.688);
#533=LINE('',#530,#532);
#534=EDGE_CURVE('',#523,#491,#533,.T.);
#535=ORIENTED_EDGE('',*,*,#534,.T.);
#536=ORIENTED_EDGE('',*,*,#496,.T.);
#537=EDGE_LOOP('',(#521,#529,#535,#536));
#538=FACE_OUTER_BOUND('',#537,.T.);
#539=ORIENTED_EDGE('',*,*,#328,.T.);
#540=ORIENTED_EDGE('',*,*,#246,.T.);
#541=EDGE_LOOP('',(#539,#540));
#542=FACE_BOUND('',#541,.T.);
#543=ORIENTED_EDGE('',*,*,#376,.T.);
#544=ORIENTED_EDGE('',*,*,#162,.T.);
#545=EDGE_LOOP('',(#543,#544));
#546=FACE_BOUND('',#545,.T.);
#547=ADVANCED_FACE('',(#538,#542,#546),#513,.T.);
#548=CARTESIAN_POINT('',(1.40625,-0.562000000000001,0.561999999999999));
#549=DIRECTION('',(-1.0,1.753284E-016,2.832749E-016));
#550=DIRECTION('',(-7.632972E-017,0.707106781186548,-0.707106781186547));
#551=AXIS2_PLACEMENT_3D('',#548,#549,#550);
#552=CYLINDRICAL_SURFACE('',#551,0.312);
#553=CARTESIAN_POINT('',(-1.40625,-0.562,0.25));
#554=VERTEX_POINT('',#553);
#555=CARTESIAN_POINT('',(-1.40625,-0.562,0.562));
#556=DIRECTION('',(-1.0,-8.040714E-017,8.040714E-017));
#557=DIRECTION('',(-1.137129E-016,0.707106781186548,-0.707106781186547));
#558=AXIS2_PLACEMENT_3D('',#555,#556,#557);
#559=CIRCLE('',#558,0.312);
#560=EDGE_CURVE('',#515,#554,#559,.T.);
#561=ORIENTED_EDGE('',*,*,#560,.T.);
#562=CARTESIAN_POINT('',(1.40625,-0.562000000000001,0.249999999999999));
#563=VERTEX_POINT('',#562);
#564=CARTESIAN_POINT('',(1.40625,-0.562000000000001,0.249999999999999));
#565=DIRECTION('',(-1.0,0.0,0.0));
#566=VECTOR('',#565,2.8125);
#567=LINE('',#564,#566);
#568=EDGE_CURVE('',#563,#554,#567,.T.);
#569=ORIENTED_EDGE('',*,*,#568,.F.);
#570=CARTESIAN_POINT('',(1.40625,-0.562000000000001,0.561999999999999));
#571=DIRECTION('',(1.0,8.040714E-017,-8.040714E-017));
#572=DIRECTION('',(-1.137129E-016,0.707106781186548,-0.707106781186547));
#573=AXIS2_PLACEMENT_3D('',#570,#571,#572);
#574=CIRCLE('',#573,0.312);
#575=EDGE_CURVE('',#563,#523,#574,.T.);
#576=ORIENTED_EDGE('',*,*,#575,.T.);
#577=ORIENTED_EDGE('',*,*,#528,.T.);
#578=EDGE_LOOP('',(#561,#569,#576,#577));
#579=FACE_OUTER_BOUND('',#578,.T.);
#580=ADVANCED_FACE('',(#579),#552,.F.);
#581=CARTESIAN_POINT('',(1.40625,-0.562000000000001,0.249999999999999));
#582=DIRECTION('',(0.0,0.0,1.0));
#583=DIRECTION('',(0.0,-1.0,0.0));
#584=AXIS2_PLACEMENT_3D('',#581,#582,#583);
#585=PLANE('',#584);
#586=CARTESIAN_POINT('',(-1.40625,-1.25,0.25));
#587=VERTEX_POINT('',#586);
#588=CARTESIAN_POINT('',(-1.40625,-0.562,0.25));
#589=DIRECTION('',(0.0,-1.0,0.0));
#590=VECTOR('',#589,0.688);
#591=LINE('',#588,#590);
#592=EDGE_CURVE('',#554,#587,#591,.T.);
#593=ORIENTED_EDGE('',*,*,#592,.T.);
#594=CARTESIAN_POINT('',(1.40625,-1.25,0.249999999999999));
#595=VERTEX_POINT('',#594);
#596=CARTESIAN_POINT('',(1.40625,-1.25,0.249999999999999));
#597=DIRECTION('',(-1.0,0.0,0.0));
#598=VECTOR('',#597,2.8125);
#599=LINE('',#596,#598);
#600=EDGE_CURVE('',#595,#587,#599,.T.);
#601=ORIENTED_EDGE('',*,*,#600,.F.);
#602=CARTESIAN_POINT('',(1.40625,-1.25,0.249999999999999));
#603=DIRECTION('',(0.0,1.0,0.0));
#604=VECTOR('',#603,0.688);
#605=LINE('',#602,#604);
#606=EDGE_CURVE('',#595,#563,#605,.T.);
#607=ORIENTED_EDGE('',*,*,#606,.T.);
#608=ORIENTED_EDGE('',*,*,#568,.T.);
#609=EDGE_LOOP('',(#593,#601,#607,#608));
#610=FACE_OUTER_BOUND('',#609,.T.);
#611=ORIENTED_EDGE('',*,*,#304,.T.);
#612=ORIENTED_EDGE('',*,*,#288,.T.);
#613=EDGE_LOOP('',(#611,#612));
#614=FACE_BOUND('',#613,.T.);
#615=ORIENTED_EDGE('',*,*,#189,.T.);
#616=ORIENTED_EDGE('',*,*,#360,.T.);
#617=EDGE_LOOP('',(#615,#616));
#618=FACE_BOUND('',#617,.T.);
#619=ADVANCED_FACE('',(#610,#614,#618),#585,.T.);
#620=CARTESIAN_POINT('',(1.40625,-1.25,-6.528862E-016));
#621=DIRECTION('',(-1.0,1.753284E-016,2.832749E-016));
#622=DIRECTION('',(7.632972E-017,-0.707106781186548,0.707106781186547));
#623=AXIS2_PLACEMENT_3D('',#620,#621,#622);
#624=CYLINDRICAL_SURFACE('',#623,0.25);
#625=CARTESIAN_POINT('',(-1.40625,-1.25,1.936588E-016));
#626=DIRECTION('',(1.0,8.040714E-017,-8.040714E-017));
#627=DIRECTION('',(1.137129E-016,-0.707106781186548,0.707106781186547));
#628=AXIS2_PLACEMENT_3D('',#625,#626,#627);
#629=CIRCLE('',#628,0.25);
#630=EDGE_CURVE('',#587,#395,#629,.T.);
#631=ORIENTED_EDGE('',*,*,#630,.T.);
#632=ORIENTED_EDGE('',*,*,#424,.F.);
#633=CARTESIAN_POINT('',(1.40625,-1.25,-6.528862E-016));
#634=DIRECTION('',(-1.0,-8.040714E-017,8.040714E-017));
#635=DIRECTION('',(1.137129E-016,-0.707106781186548,0.707106781186547));
#636=AXIS2_PLACEMENT_3D('',#633,#634,#635);
#637=CIRCLE('',#636,0.25);
#638=EDGE_CURVE('',#413,#595,#637,.T.);
#639=ORIENTED_EDGE('',*,*,#638,.T.);
#640=ORIENTED_EDGE('',*,*,#600,.T.);
#641=EDGE_LOOP('',(#631,#632,#639,#640));
#642=FACE_OUTER_BOUND('',#641,.T.);
#643=ADVANCED_FACE('',(#642),#624,.T.);
#644=CARTESIAN_POINT('',(1.40625,-0.575693607486308,0.575693607486306));
#645=DIRECTION('',(-1.0,0.0,0.0));
#646=DIRECTION('',(0.0,1.0,0.0));
#647=AXIS2_PLACEMENT_3D('',#644,#645,#646);
#648=PLANE('',#647);
#649=ORIENTED_EDGE('',*,*,#638,.F.);
#650=ORIENTED_EDGE('',*,*,#418,.F.);
#651=ORIENTED_EDGE('',*,*,#462,.F.);
#652=ORIENTED_EDGE('',*,*,#503,.F.);
#653=ORIENTED_EDGE('',*,*,#534,.F.);
#654=ORIENTED_EDGE('',*,*,#575,.F.);
#655=ORIENTED_EDGE('',*,*,#606,.F.);
#656=EDGE_LOOP('',(#649,#650,#651,#652,#653,#654,#655));
#657=FACE_OUTER_BOUND('',#656,.T.);
#658=ADVANCED_FACE('',(#657),#648,.F.);
#659=CARTESIAN_POINT('',(-1.40625,-1.5,1.477361E-016));
#660=DIRECTION('',(-1.0,0.0,0.0));
#661=DIRECTION('',(0.0,1.0,0.0));
#662=AXIS2_PLACEMENT_3D('',#659,#660,#661);
#663=PLANE('',#662);
#664=ORIENTED_EDGE('',*,*,#402,.F.);
#665=ORIENTED_EDGE('',*,*,#630,.F.);
#666=ORIENTED_EDGE('',*,*,#592,.F.);
#667=ORIENTED_EDGE('',*,*,#560,.F.);
#668=ORIENTED_EDGE('',*,*,#520,.F.);
#669=ORIENTED_EDGE('',*,*,#488,.F.);
#670=ORIENTED_EDGE('',*,*,#448,.F.);
#671=EDGE_LOOP('',(#664,#665,#666,#667,#668,#669,#670));
#672=FACE_OUTER_BOUND('',#671,.T.);
#673=ADVANCED_FACE('',(#672),#663,.T.);
#674=CLOSED_SHELL('',(#166,#208,#250,#292,#316,#340,#364,#388,#436,#475,#508,#547,#580,#619,#643,#658,#673));
#675=MANIFOLD_SOLID_BREP('2C',#674);
#676=ADVANCED_BREP_SHAPE_REPRESENTATION('ABSR1',(#675),#28);
#677=SHAPE_REPRESENTATION_RELATIONSHIP('SRRPL1','',#676,#122);
ENDSEC;
END-ISO-10303-21;
