ISO-10303-21;
HEADER;
/****************************************************************
 * Generated by software with PDElib inside                    *
 * PDElib Version v51a, created Fri 09/10/2010                  *
 * ITI Transcendata (http://www.transcendata.com/)              *
 ****************************************************************/
FILE_DESCRIPTION((''),'2;1');
FILE_NAME('15CB4802.stp','2015-07-20T13:28:27',(''),(''),'Mechanical Desktop 2011','Mechanical Desktop 2011',', , ');
FILE_SCHEMA(('AUTOMOTIVE_DESIGN { 1 2 10303 214 1 1 1 1 }'));
ENDSEC;
DATA;
#10=(NAMED_UNIT(*)PLANE_ANGLE_UNIT()SI_UNIT($,.RADIAN.));
#11=DIMENSIONAL_EXPONENTS(0.0,0.0,0.0,0.0,0.0,0.0,0.0);
#12=PLANE_ANGLE_MEASURE_WITH_UNIT(PLANE_ANGLE_MEASURE(0.0174532925),#10);
#16=(CONVERSION_BASED_UNIT('DEGREE',#12)NAMED_UNIT(#11)PLANE_ANGLE_UNIT());
#20=(NAMED_UNIT(*)SI_UNIT($,.STERADIAN.)SOLID_ANGLE_UNIT());
#24=(LENGTH_UNIT()NAMED_UNIT(*)SI_UNIT(.CENTI.,.METRE.));
#25=DIMENSIONAL_EXPONENTS(1.0,0.0,0.0,0.0,0.0,0.0,0.0);
#26=LENGTH_MEASURE_WITH_UNIT(LENGTH_MEASURE(2.54),#24);
#30=(CONVERSION_BASED_UNIT('INCH',#26)LENGTH_UNIT()NAMED_UNIT(#25));
#32=UNCERTAINTY_MEASURE_WITH_UNIT(LENGTH_MEASURE(0.000001),#30,'DISTANCE_ACCURACY_VALUE','');
#34=(GEOMETRIC_REPRESENTATION_CONTEXT(3)GLOBAL_UNCERTAINTY_ASSIGNED_CONTEXT((#32))GLOBAL_UNIT_ASSIGNED_CONTEXT((#16,#20,#30))REPRESENTATION_CONTEXT('','3D'));
#35=APPLICATION_CONTEXT('automotive design');
#36=APPLICATION_PROTOCOL_DEFINITION('INTERNATIONAL_STANDARD','automotive_design',1998,#35);
#37=PRODUCT_CONTEXT('3D Mechanical Parts',#35,'mechanical');
#38=PRODUCT('Product','Product','',(#37));
#39=PRODUCT_RELATED_PRODUCT_CATEGORY('part',$,(#38));
#40=PRODUCT_CATEGORY('part',$);
#41=PERSON('1','Design','Joe',$,$,$);
#42=ORGANIZATION($,'None','None');
#43=PERSON_AND_ORGANIZATION(#41,#42);
#44=PERSON_AND_ORGANIZATION_ROLE('design_owner');
#45=APPLIED_PERSON_AND_ORGANIZATION_ASSIGNMENT(#43,#44,(#38));
#46=PRODUCT_DEFINITION_FORMATION_WITH_SPECIFIED_SOURCE('None','',#38,.BOUGHT.);
#47=PERSON('2','Creator','Joe',$,$,$);
#48=ORGANIZATION($,'None','None');
#49=PERSON_AND_ORGANIZATION(#47,#48);
#50=PERSON_AND_ORGANIZATION_ROLE('creator');
#51=APPLIED_PERSON_AND_ORGANIZATION_ASSIGNMENT(#49,#50,(#46));
#52=PERSON('3','Supplier','Joe',$,$,$);
#53=ORGANIZATION($,'None','None');
#54=PERSON_AND_ORGANIZATION(#52,#53);
#55=PERSON_AND_ORGANIZATION_ROLE('design_supplier');
#56=APPLIED_PERSON_AND_ORGANIZATION_ASSIGNMENT(#54,#55,(#46));
#57=PRODUCT_DEFINITION_CONTEXT('part definition',#35,'design');
#58=PRODUCT_DEFINITION('None','',#46,#57);
#59=PERSON('4','Creator','Joe',$,$,$);
#60=ORGANIZATION($,'None','None');
#61=PERSON_AND_ORGANIZATION(#59,#60);
#62=PERSON_AND_ORGANIZATION_ROLE('creator');
#63=APPLIED_PERSON_AND_ORGANIZATION_ASSIGNMENT(#61,#62,(#58));
#64=CARTESIAN_POINT('NONE',(0.0,0.0,0.0));
#65=DIRECTION('NONE',(0.0,0.0,1.0));
#66=DIRECTION('NONE',(1.0,0.0,0.0));
#67=AXIS2_PLACEMENT_3D('NONE',#64,#65,#66);
#68=SHAPE_REPRESENTATION('SR1',(#67),#34);
#69=PRODUCT_DEFINITION_SHAPE('PDS1','Test Part',#58);
#70=SHAPE_DEFINITION_REPRESENTATION(#69,#68);
#71=CARTESIAN_POINT('',(2.220446E-016,0.0,0.75));
#72=DIRECTION('',(-3.445052E-016,-1.0,-1.836910E-016));
#73=DIRECTION('',(0.0,0.0,-1.0));
#74=AXIS2_PLACEMENT_3D('',#71,#72,#73);
#75=CYLINDRICAL_SURFACE('',#74,0.171875);
#76=CARTESIAN_POINT('',(0.0,0.0,0.578125));
#77=VERTEX_POINT('',#76);
#78=CARTESIAN_POINT('',(8.723042E-017,-0.25,0.578125));
#79=VERTEX_POINT('',#78);
#80=CARTESIAN_POINT('',(1.733567E-016,-6.162976E-032,0.578125));
#81=DIRECTION('',(0.0,-1.0,0.0));
#82=VECTOR('',#81,0.25);
#83=LINE('',#80,#82);
#84=EDGE_CURVE('',#77,#79,#83,.T.);
#85=ORIENTED_EDGE('',*,*,#84,.F.);
#86=CARTESIAN_POINT('',(2.496839E-016,-3.157188E-017,0.921875));
#87=VERTEX_POINT('',#86);
#88=CARTESIAN_POINT('',(2.220446E-016,0.0,0.75));
#89=DIRECTION('',(0.0,-1.0,0.0));
#90=DIRECTION('',(0.0,0.0,-1.0));
#91=AXIS2_PLACEMENT_3D('',#88,#89,#90);
#92=CIRCLE('',#91,0.171875);
#93=EDGE_CURVE('',#87,#77,#92,.T.);
#94=ORIENTED_EDGE('',*,*,#93,.F.);
#95=CARTESIAN_POINT('',(-1.332268E-015,-0.25,0.921875));
#96=VERTEX_POINT('',#95);
#97=CARTESIAN_POINT('',(2.496839E-016,-3.157188E-017,0.921875));
#98=DIRECTION('',(0.0,-1.0,0.0));
#99=VECTOR('',#98,0.25);
#100=LINE('',#97,#99);
#101=EDGE_CURVE('',#87,#96,#100,.T.);
#102=ORIENTED_EDGE('',*,*,#101,.T.);
#103=CARTESIAN_POINT('',(0.0,-0.25,0.75));
#104=DIRECTION('',(0.0,1.0,0.0));
#105=DIRECTION('',(0.0,0.0,-1.0));
#106=AXIS2_PLACEMENT_3D('',#103,#104,#105);
#107=CIRCLE('',#106,0.171875);
#108=EDGE_CURVE('',#79,#96,#107,.T.);
#109=ORIENTED_EDGE('',*,*,#108,.F.);
#110=EDGE_LOOP('',(#85,#94,#102,#109));
#111=FACE_OUTER_BOUND('',#110,.T.);
#112=ADVANCED_FACE('',(#111),#75,.F.);
#113=CARTESIAN_POINT('',(-4.440892E-016,-0.75,0.5));
#114=DIRECTION('',(-2.832749E-016,1.836910E-016,-1.0));
#115=DIRECTION('',(1.0,0.0,0.0));
#116=AXIS2_PLACEMENT_3D('',#113,#114,#115);
#117=CYLINDRICAL_SURFACE('',#116,0.171875);
#118=CARTESIAN_POINT('',(0.171874999999999,-0.75,0.25));
#119=VERTEX_POINT('',#118);
#120=CARTESIAN_POINT('',(0.171875,-0.75,-1.759321E-016));
#121=VERTEX_POINT('',#120);
#122=CARTESIAN_POINT('',(0.171874999999999,-0.75,0.25));
#123=DIRECTION('',(0.0,0.0,-1.0));
#124=VECTOR('',#123,0.25);
#125=LINE('',#122,#124);
#126=EDGE_CURVE('',#119,#121,#125,.T.);
#127=ORIENTED_EDGE('',*,*,#126,.F.);
#128=CARTESIAN_POINT('',(-0.171875,-0.750000000000001,0.25));
#129=VERTEX_POINT('',#128);
#130=CARTESIAN_POINT('',(-4.440892E-016,-0.75,0.25));
#131=DIRECTION('',(0.0,0.0,-1.0));
#132=DIRECTION('',(1.0,0.0,0.0));
#133=AXIS2_PLACEMENT_3D('',#130,#131,#132);
#134=CIRCLE('',#133,0.171875);
#135=EDGE_CURVE('',#129,#119,#134,.T.);
#136=ORIENTED_EDGE('',*,*,#135,.F.);
#137=CARTESIAN_POINT('',(-0.171875000000001,-0.75,-5.551115E-017));
#138=VERTEX_POINT('',#137);
#139=CARTESIAN_POINT('',(-0.171875000000001,-0.75,0.25));
#140=DIRECTION('',(0.0,0.0,-1.0));
#141=VECTOR('',#140,0.25);
#142=LINE('',#139,#141);
#143=EDGE_CURVE('',#129,#138,#142,.T.);
#144=ORIENTED_EDGE('',*,*,#143,.T.);
#145=CARTESIAN_POINT('',(-4.440892E-016,-0.75,-1.377682E-016));
#146=DIRECTION('',(0.0,0.0,1.0));
#147=DIRECTION('',(1.0,0.0,0.0));
#148=AXIS2_PLACEMENT_3D('',#145,#146,#147);
#149=CIRCLE('',#148,0.171875);
#150=EDGE_CURVE('',#121,#138,#149,.T.);
#151=ORIENTED_EDGE('',*,*,#150,.F.);
#152=EDGE_LOOP('',(#127,#136,#144,#151));
#153=FACE_OUTER_BOUND('',#152,.T.);
#154=ADVANCED_FACE('',(#153),#117,.F.);
#155=CARTESIAN_POINT('',(-4.440892E-016,-2.25,-4.133046E-016));
#156=DIRECTION('',(2.832749E-016,-1.836910E-016,1.0));
#157=DIRECTION('',(-1.0,0.0,0.0));
#158=AXIS2_PLACEMENT_3D('',#155,#156,#157);
#159=CYLINDRICAL_SURFACE('',#158,0.171875);
#160=CARTESIAN_POINT('',(-0.171875,-2.25,-3.751407E-016));
#161=VERTEX_POINT('',#160);
#162=CARTESIAN_POINT('',(-0.171875,-2.25,0.249999999999999));
#163=VERTEX_POINT('',#162);
#164=CARTESIAN_POINT('',(-0.171875,-2.25,-3.646168E-016));
#165=DIRECTION('',(0.0,0.0,1.0));
#166=VECTOR('',#165,0.25);
#167=LINE('',#164,#166);
#168=EDGE_CURVE('',#161,#163,#167,.T.);
#169=ORIENTED_EDGE('',*,*,#168,.F.);
#170=CARTESIAN_POINT('',(0.171875,-2.25,-4.619925E-016));
#171=VERTEX_POINT('',#170);
#172=CARTESIAN_POINT('',(-4.440892E-016,-2.25,-4.133046E-016));
#173=DIRECTION('',(0.0,0.0,1.0));
#174=DIRECTION('',(-1.0,0.0,0.0));
#175=AXIS2_PLACEMENT_3D('',#172,#173,#174);
#176=CIRCLE('',#175,0.171875);
#177=EDGE_CURVE('',#171,#161,#176,.T.);
#178=ORIENTED_EDGE('',*,*,#177,.F.);
#179=CARTESIAN_POINT('',(0.171875,-2.249999999999999,0.249999999999999));
#180=VERTEX_POINT('',#179);
#181=CARTESIAN_POINT('',(0.171875,-2.25,-4.619925E-016));
#182=DIRECTION('',(0.0,0.0,1.0));
#183=VECTOR('',#182,0.25);
#184=LINE('',#181,#183);
#185=EDGE_CURVE('',#171,#180,#184,.T.);
#186=ORIENTED_EDGE('',*,*,#185,.T.);
#187=CARTESIAN_POINT('',(-4.440892E-016,-2.25,0.249999999999999));
#188=DIRECTION('',(0.0,0.0,-1.0));
#189=DIRECTION('',(-1.0,0.0,0.0));
#190=AXIS2_PLACEMENT_3D('',#187,#188,#189);
#191=CIRCLE('',#190,0.171875);
#192=EDGE_CURVE('',#163,#180,#191,.T.);
#193=ORIENTED_EDGE('',*,*,#192,.F.);
#194=EDGE_LOOP('',(#169,#178,#186,#193));
#195=FACE_OUTER_BOUND('',#194,.T.);
#196=ADVANCED_FACE('',(#195),#159,.F.);
#197=CARTESIAN_POINT('',(-4.440892E-016,-2.25,-4.133046E-016));
#198=DIRECTION('',(2.832749E-016,-1.836910E-016,1.0));
#199=DIRECTION('',(-1.0,0.0,0.0));
#200=AXIS2_PLACEMENT_3D('',#197,#198,#199);
#201=CYLINDRICAL_SURFACE('',#200,0.171875);
#202=ORIENTED_EDGE('',*,*,#168,.T.);
#203=CARTESIAN_POINT('',(-4.440892E-016,-2.25,0.249999999999999));
#204=DIRECTION('',(0.0,0.0,-1.0));
#205=DIRECTION('',(-1.0,0.0,0.0));
#206=AXIS2_PLACEMENT_3D('',#203,#204,#205);
#207=CIRCLE('',#206,0.171875);
#208=EDGE_CURVE('',#180,#163,#207,.T.);
#209=ORIENTED_EDGE('',*,*,#208,.F.);
#210=ORIENTED_EDGE('',*,*,#185,.F.);
#211=CARTESIAN_POINT('',(-4.440892E-016,-2.25,-4.133046E-016));
#212=DIRECTION('',(0.0,0.0,1.0));
#213=DIRECTION('',(-1.0,0.0,0.0));
#214=AXIS2_PLACEMENT_3D('',#211,#212,#213);
#215=CIRCLE('',#214,0.171875);
#216=EDGE_CURVE('',#161,#171,#215,.T.);
#217=ORIENTED_EDGE('',*,*,#216,.F.);
#218=EDGE_LOOP('',(#202,#209,#210,#217));
#219=FACE_OUTER_BOUND('',#218,.T.);
#220=ADVANCED_FACE('',(#219),#201,.F.);
#221=CARTESIAN_POINT('',(0.65625,-2.75,-2.067777E-016));
#222=DIRECTION('',(-1.0,1.076577E-016,2.832749E-016));
#223=DIRECTION('',(-4.329637E-017,-0.707106781186548,0.707106781186547));
#224=AXIS2_PLACEMENT_3D('',#221,#222,#223);
#225=CYLINDRICAL_SURFACE('',#224,0.25);
#226=CARTESIAN_POINT('',(-0.656250000000001,-2.750000000000001,0.25));
#227=VERTEX_POINT('',#226);
#228=CARTESIAN_POINT('',(-0.656250000000001,-3.0,-4.053561E-016));
#229=VERTEX_POINT('',#228);
#230=CARTESIAN_POINT('',(-0.65625,-2.75,8.465586E-017));
#231=DIRECTION('',(1.0,-3.061516E-017,3.061516E-017));
#232=DIRECTION('',(-4.329637E-017,-0.707106781186548,0.707106781186547));
#233=AXIS2_PLACEMENT_3D('',#230,#231,#232);
#234=CIRCLE('',#233,0.25);
#235=EDGE_CURVE('',#227,#229,#234,.T.);
#236=ORIENTED_EDGE('',*,*,#235,.T.);
#237=CARTESIAN_POINT('',(0.656249999999999,-3.0,-6.967896E-016));
#238=VERTEX_POINT('',#237);
#239=CARTESIAN_POINT('',(0.656249999999999,-3.0,-6.967896E-016));
#240=DIRECTION('',(-1.0,0.0,0.0));
#241=VECTOR('',#240,1.3125);
#242=LINE('',#239,#241);
#243=EDGE_CURVE('',#238,#229,#242,.T.);
#244=ORIENTED_EDGE('',*,*,#243,.F.);
#245=CARTESIAN_POINT('',(0.656249999999999,-2.75,0.249999999999999));
#246=VERTEX_POINT('',#245);
#247=CARTESIAN_POINT('',(0.65625,-2.75,-2.067777E-016));
#248=DIRECTION('',(-1.0,3.061516E-017,-3.061516E-017));
#249=DIRECTION('',(-4.329637E-017,-0.707106781186548,0.707106781186547));
#250=AXIS2_PLACEMENT_3D('',#247,#248,#249);
#251=CIRCLE('',#250,0.25);
#252=EDGE_CURVE('',#238,#246,#251,.T.);
#253=ORIENTED_EDGE('',*,*,#252,.T.);
#254=CARTESIAN_POINT('',(0.656249999999999,-2.75,0.25));
#255=DIRECTION('',(-1.0,0.0,0.0));
#256=VECTOR('',#255,1.3125);
#257=LINE('',#254,#256);
#258=EDGE_CURVE('',#246,#227,#257,.T.);
#259=ORIENTED_EDGE('',*,*,#258,.T.);
#260=EDGE_LOOP('',(#236,#244,#253,#259));
#261=FACE_OUTER_BOUND('',#260,.T.);
#262=ADVANCED_FACE('',(#261),#225,.T.);
#263=CARTESIAN_POINT('',(0.65625,-0.562,0.25));
#264=DIRECTION('',(0.0,0.0,1.0));
#265=DIRECTION('',(0.0,-1.0,0.0));
#266=AXIS2_PLACEMENT_3D('',#263,#264,#265);
#267=PLANE('',#266);
#268=ORIENTED_EDGE('',*,*,#258,.F.);
#269=CARTESIAN_POINT('',(0.65625,-0.562,0.25));
#270=VERTEX_POINT('',#269);
#271=CARTESIAN_POINT('',(0.656249999999999,-2.75,0.249999999999999));
#272=DIRECTION('',(0.0,1.0,0.0));
#273=VECTOR('',#272,2.188);
#274=LINE('',#271,#273);
#275=EDGE_CURVE('',#246,#270,#274,.T.);
#276=ORIENTED_EDGE('',*,*,#275,.T.);
#277=CARTESIAN_POINT('',(-0.65625,-0.562,0.25));
#278=VERTEX_POINT('',#277);
#279=CARTESIAN_POINT('',(0.65625,-0.562,0.25));
#280=DIRECTION('',(-1.0,0.0,0.0));
#281=VECTOR('',#280,1.3125);
#282=LINE('',#279,#281);
#283=EDGE_CURVE('',#270,#278,#282,.T.);
#284=ORIENTED_EDGE('',*,*,#283,.T.);
#285=CARTESIAN_POINT('',(-0.65625,-0.562,0.25));
#286=DIRECTION('',(0.0,-1.0,0.0));
#287=VECTOR('',#286,2.188000000000001);
#288=LINE('',#285,#287);
#289=EDGE_CURVE('',#278,#227,#288,.T.);
#290=ORIENTED_EDGE('',*,*,#289,.T.);
#291=EDGE_LOOP('',(#268,#276,#284,#290));
#292=FACE_OUTER_BOUND('',#291,.T.);
#293=ORIENTED_EDGE('',*,*,#208,.T.);
#294=ORIENTED_EDGE('',*,*,#192,.T.);
#295=EDGE_LOOP('',(#293,#294));
#296=FACE_BOUND('',#295,.T.);
#297=ORIENTED_EDGE('',*,*,#135,.T.);
#298=CARTESIAN_POINT('',(-4.440892E-016,-0.75,0.25));
#299=DIRECTION('',(0.0,0.0,-1.0));
#300=DIRECTION('',(1.0,0.0,0.0));
#301=AXIS2_PLACEMENT_3D('',#298,#299,#300);
#302=CIRCLE('',#301,0.171875);
#303=EDGE_CURVE('',#119,#129,#302,.T.);
#304=ORIENTED_EDGE('',*,*,#303,.T.);
#305=EDGE_LOOP('',(#297,#304));
#306=FACE_BOUND('',#305,.T.);
#307=ADVANCED_FACE('',(#292,#296,#306),#267,.T.);
#308=CARTESIAN_POINT('',(0.65625,-0.575693607486307,0.575693607486307));
#309=DIRECTION('',(-1.0,0.0,0.0));
#310=DIRECTION('',(0.0,1.0,0.0));
#311=AXIS2_PLACEMENT_3D('',#308,#309,#310);
#312=PLANE('',#311);
#313=ORIENTED_EDGE('',*,*,#252,.F.);
#314=CARTESIAN_POINT('',(0.65625,0.0,-1.457168E-016));
#315=VERTEX_POINT('',#314);
#316=CARTESIAN_POINT('',(0.65625,0.0,-1.457168E-016));
#317=DIRECTION('',(0.0,-1.0,0.0));
#318=VECTOR('',#317,3.0);
#319=LINE('',#316,#318);
#320=EDGE_CURVE('',#315,#238,#319,.T.);
#321=ORIENTED_EDGE('',*,*,#320,.F.);
#322=CARTESIAN_POINT('',(0.65625,0.0,1.5));
#323=VERTEX_POINT('',#322);
#324=CARTESIAN_POINT('',(0.65625,0.0,1.5));
#325=DIRECTION('',(0.0,0.0,-1.0));
#326=VECTOR('',#325,1.5);
#327=LINE('',#324,#326);
#328=EDGE_CURVE('',#323,#315,#327,.T.);
#329=ORIENTED_EDGE('',*,*,#328,.F.);
#330=CARTESIAN_POINT('',(0.65625,-0.25,1.25));
#331=VERTEX_POINT('',#330);
#332=CARTESIAN_POINT('',(0.65625,0.0,1.25));
#333=DIRECTION('',(-1.0,-8.040714E-017,8.040714E-017));
#334=DIRECTION('',(1.137129E-016,-0.707106781186548,0.707106781186547));
#335=AXIS2_PLACEMENT_3D('',#332,#333,#334);
#336=CIRCLE('',#335,0.25);
#337=EDGE_CURVE('',#331,#323,#336,.T.);
#338=ORIENTED_EDGE('',*,*,#337,.F.);
#339=CARTESIAN_POINT('',(0.65625,-0.25,0.562));
#340=VERTEX_POINT('',#339);
#341=CARTESIAN_POINT('',(0.65625,-0.25,0.562));
#342=DIRECTION('',(0.0,0.0,1.0));
#343=VECTOR('',#342,0.688);
#344=LINE('',#341,#343);
#345=EDGE_CURVE('',#340,#331,#344,.T.);
#346=ORIENTED_EDGE('',*,*,#345,.F.);
#347=CARTESIAN_POINT('',(0.65625,-0.562,0.562));
#348=DIRECTION('',(1.0,8.040714E-017,-8.040714E-017));
#349=DIRECTION('',(-1.137129E-016,0.707106781186548,-0.707106781186547));
#350=AXIS2_PLACEMENT_3D('',#347,#348,#349);
#351=CIRCLE('',#350,0.312);
#352=EDGE_CURVE('',#270,#340,#351,.T.);
#353=ORIENTED_EDGE('',*,*,#352,.F.);
#354=ORIENTED_EDGE('',*,*,#275,.F.);
#355=EDGE_LOOP('',(#313,#321,#329,#338,#346,#353,#354));
#356=FACE_OUTER_BOUND('',#355,.T.);
#357=ADVANCED_FACE('',(#356),#312,.F.);
#358=CARTESIAN_POINT('',(-4.440892E-016,-0.75,0.5));
#359=DIRECTION('',(-2.832749E-016,1.836910E-016,-1.0));
#360=DIRECTION('',(1.0,0.0,0.0));
#361=AXIS2_PLACEMENT_3D('',#358,#359,#360);
#362=CYLINDRICAL_SURFACE('',#361,0.171875);
#363=ORIENTED_EDGE('',*,*,#126,.T.);
#364=CARTESIAN_POINT('',(-4.440892E-016,-0.75,-1.377682E-016));
#365=DIRECTION('',(0.0,0.0,1.0));
#366=DIRECTION('',(1.0,0.0,0.0));
#367=AXIS2_PLACEMENT_3D('',#364,#365,#366);
#368=CIRCLE('',#367,0.171875);
#369=EDGE_CURVE('',#138,#121,#368,.T.);
#370=ORIENTED_EDGE('',*,*,#369,.F.);
#371=ORIENTED_EDGE('',*,*,#143,.F.);
#372=ORIENTED_EDGE('',*,*,#303,.F.);
#373=EDGE_LOOP('',(#363,#370,#371,#372));
#374=FACE_OUTER_BOUND('',#373,.T.);
#375=ADVANCED_FACE('',(#374),#362,.F.);
#376=CARTESIAN_POINT('',(2.220446E-016,0.0,0.75));
#377=DIRECTION('',(-3.445052E-016,-1.0,-1.836910E-016));
#378=DIRECTION('',(0.0,0.0,-1.0));
#379=AXIS2_PLACEMENT_3D('',#376,#377,#378);
#380=CYLINDRICAL_SURFACE('',#379,0.171875);
#381=ORIENTED_EDGE('',*,*,#84,.T.);
#382=CARTESIAN_POINT('',(0.0,-0.25,0.75));
#383=DIRECTION('',(0.0,1.0,0.0));
#384=DIRECTION('',(0.0,0.0,-1.0));
#385=AXIS2_PLACEMENT_3D('',#382,#383,#384);
#386=CIRCLE('',#385,0.171875);
#387=EDGE_CURVE('',#96,#79,#386,.T.);
#388=ORIENTED_EDGE('',*,*,#387,.F.);
#389=ORIENTED_EDGE('',*,*,#101,.F.);
#390=CARTESIAN_POINT('',(2.220446E-016,0.0,0.75));
#391=DIRECTION('',(0.0,-1.0,0.0));
#392=DIRECTION('',(0.0,0.0,-1.0));
#393=AXIS2_PLACEMENT_3D('',#390,#391,#392);
#394=CIRCLE('',#393,0.171875);
#395=EDGE_CURVE('',#77,#87,#394,.T.);
#396=ORIENTED_EDGE('',*,*,#395,.F.);
#397=EDGE_LOOP('',(#381,#388,#389,#396));
#398=FACE_OUTER_BOUND('',#397,.T.);
#399=ADVANCED_FACE('',(#398),#380,.F.);
#400=CARTESIAN_POINT('',(0.65625,-1.5,-4.212532E-016));
#401=DIRECTION('',(0.0,0.0,-1.0));
#402=DIRECTION('',(0.0,1.0,0.0));
#403=AXIS2_PLACEMENT_3D('',#400,#401,#402);
#404=PLANE('',#403);
#405=CARTESIAN_POINT('',(-0.65625,0.0,1.457168E-016));
#406=VERTEX_POINT('',#405);
#407=CARTESIAN_POINT('',(-0.656250000000001,-3.0,-4.053561E-016));
#408=DIRECTION('',(0.0,1.0,0.0));
#409=VECTOR('',#408,3.0);
#410=LINE('',#407,#409);
#411=EDGE_CURVE('',#229,#406,#410,.T.);
#412=ORIENTED_EDGE('',*,*,#411,.T.);
#413=CARTESIAN_POINT('',(0.65625,0.0,-1.457168E-016));
#414=DIRECTION('',(-1.0,0.0,0.0));
#415=VECTOR('',#414,1.3125);
#416=LINE('',#413,#415);
#417=EDGE_CURVE('',#315,#406,#416,.T.);
#418=ORIENTED_EDGE('',*,*,#417,.F.);
#419=ORIENTED_EDGE('',*,*,#320,.T.);
#420=ORIENTED_EDGE('',*,*,#243,.T.);
#421=EDGE_LOOP('',(#412,#418,#419,#420));
#422=FACE_OUTER_BOUND('',#421,.T.);
#423=ORIENTED_EDGE('',*,*,#216,.T.);
#424=ORIENTED_EDGE('',*,*,#177,.T.);
#425=EDGE_LOOP('',(#423,#424));
#426=FACE_BOUND('',#425,.T.);
#427=ORIENTED_EDGE('',*,*,#150,.T.);
#428=ORIENTED_EDGE('',*,*,#369,.T.);
#429=EDGE_LOOP('',(#427,#428));
#430=FACE_BOUND('',#429,.T.);
#431=ADVANCED_FACE('',(#422,#426,#430),#404,.T.);
#432=CARTESIAN_POINT('',(0.65625,0.0,-1.457168E-016));
#433=DIRECTION('',(0.0,1.0,0.0));
#434=DIRECTION('',(0.0,0.0,1.0));
#435=AXIS2_PLACEMENT_3D('',#432,#433,#434);
#436=PLANE('',#435);
#437=CARTESIAN_POINT('',(-0.65625,0.0,1.5));
#438=VERTEX_POINT('',#437);
#439=CARTESIAN_POINT('',(-0.65625,2.755364E-016,2.220446E-016));
#440=DIRECTION('',(0.0,0.0,1.0));
#441=VECTOR('',#440,1.5);
#442=LINE('',#439,#441);
#443=EDGE_CURVE('',#406,#438,#442,.T.);
#444=ORIENTED_EDGE('',*,*,#443,.T.);
#445=CARTESIAN_POINT('',(0.65625,0.0,1.5));
#446=DIRECTION('',(-1.0,0.0,0.0));
#447=VECTOR('',#446,1.3125);
#448=LINE('',#445,#447);
#449=EDGE_CURVE('',#323,#438,#448,.T.);
#450=ORIENTED_EDGE('',*,*,#449,.F.);
#451=ORIENTED_EDGE('',*,*,#328,.T.);
#452=ORIENTED_EDGE('',*,*,#417,.T.);
#453=EDGE_LOOP('',(#444,#450,#451,#452));
#454=FACE_OUTER_BOUND('',#453,.T.);
#455=ORIENTED_EDGE('',*,*,#395,.T.);
#456=ORIENTED_EDGE('',*,*,#93,.T.);
#457=EDGE_LOOP('',(#455,#456));
#458=FACE_BOUND('',#457,.T.);
#459=ADVANCED_FACE('',(#454,#458),#436,.T.);
#460=CARTESIAN_POINT('',(0.65625,0.0,1.25));
#461=DIRECTION('',(-1.0,1.753284E-016,2.832749E-016));
#462=DIRECTION('',(7.632972E-017,-0.707106781186548,0.707106781186547));
#463=AXIS2_PLACEMENT_3D('',#460,#461,#462);
#464=CYLINDRICAL_SURFACE('',#463,0.25);
#465=CARTESIAN_POINT('',(-0.65625,-0.25,1.25));
#466=VERTEX_POINT('',#465);
#467=CARTESIAN_POINT('',(-0.65625,0.0,1.25));
#468=DIRECTION('',(1.0,8.040714E-017,-8.040714E-017));
#469=DIRECTION('',(1.137129E-016,-0.707106781186548,0.707106781186547));
#470=AXIS2_PLACEMENT_3D('',#467,#468,#469);
#471=CIRCLE('',#470,0.25);
#472=EDGE_CURVE('',#438,#466,#471,.T.);
#473=ORIENTED_EDGE('',*,*,#472,.T.);
#474=CARTESIAN_POINT('',(0.65625,-0.25,1.25));
#475=DIRECTION('',(-1.0,0.0,0.0));
#476=VECTOR('',#475,1.3125);
#477=LINE('',#474,#476);
#478=EDGE_CURVE('',#331,#466,#477,.T.);
#479=ORIENTED_EDGE('',*,*,#478,.F.);
#480=ORIENTED_EDGE('',*,*,#337,.T.);
#481=ORIENTED_EDGE('',*,*,#449,.T.);
#482=EDGE_LOOP('',(#473,#479,#480,#481));
#483=FACE_OUTER_BOUND('',#482,.T.);
#484=ADVANCED_FACE('',(#483),#464,.T.);
#485=CARTESIAN_POINT('',(0.65625,-0.25,1.25));
#486=DIRECTION('',(0.0,-1.0,0.0));
#487=DIRECTION('',(0.0,0.0,-1.0));
#488=AXIS2_PLACEMENT_3D('',#485,#486,#487);
#489=PLANE('',#488);
#490=CARTESIAN_POINT('',(-0.65625,-0.25,0.562));
#491=VERTEX_POINT('',#490);
#492=CARTESIAN_POINT('',(-0.65625,-0.25,1.25));
#493=DIRECTION('',(0.0,0.0,-1.0));
#494=VECTOR('',#493,0.688);
#495=LINE('',#492,#494);
#496=EDGE_CURVE('',#466,#491,#495,.T.);
#497=ORIENTED_EDGE('',*,*,#496,.T.);
#498=CARTESIAN_POINT('',(0.65625,-0.25,0.562));
#499=DIRECTION('',(-1.0,0.0,0.0));
#500=VECTOR('',#499,1.3125);
#501=LINE('',#498,#500);
#502=EDGE_CURVE('',#340,#491,#501,.T.);
#503=ORIENTED_EDGE('',*,*,#502,.F.);
#504=ORIENTED_EDGE('',*,*,#345,.T.);
#505=ORIENTED_EDGE('',*,*,#478,.T.);
#506=EDGE_LOOP('',(#497,#503,#504,#505));
#507=FACE_OUTER_BOUND('',#506,.T.);
#508=ORIENTED_EDGE('',*,*,#387,.T.);
#509=ORIENTED_EDGE('',*,*,#108,.T.);
#510=EDGE_LOOP('',(#508,#509));
#511=FACE_BOUND('',#510,.T.);
#512=ADVANCED_FACE('',(#507,#511),#489,.T.);
#513=CARTESIAN_POINT('',(0.65625,-0.562,0.562));
#514=DIRECTION('',(-1.0,1.753284E-016,2.832749E-016));
#515=DIRECTION('',(-7.632972E-017,0.707106781186548,-0.707106781186547));
#516=AXIS2_PLACEMENT_3D('',#513,#514,#515);
#517=CYLINDRICAL_SURFACE('',#516,0.312);
#518=CARTESIAN_POINT('',(-0.65625,-0.562,0.562));
#519=DIRECTION('',(-1.0,-8.040714E-017,8.040714E-017));
#520=DIRECTION('',(-1.137129E-016,0.707106781186548,-0.707106781186547));
#521=AXIS2_PLACEMENT_3D('',#518,#519,#520);
#522=CIRCLE('',#521,0.312);
#523=EDGE_CURVE('',#491,#278,#522,.T.);
#524=ORIENTED_EDGE('',*,*,#523,.T.);
#525=ORIENTED_EDGE('',*,*,#283,.F.);
#526=ORIENTED_EDGE('',*,*,#352,.T.);
#527=ORIENTED_EDGE('',*,*,#502,.T.);
#528=EDGE_LOOP('',(#524,#525,#526,#527));
#529=FACE_OUTER_BOUND('',#528,.T.);
#530=ADVANCED_FACE('',(#529),#517,.F.);
#531=CARTESIAN_POINT('',(-0.65625,-1.5,-1.298197E-016));
#532=DIRECTION('',(-1.0,0.0,0.0));
#533=DIRECTION('',(0.0,1.0,0.0));
#534=AXIS2_PLACEMENT_3D('',#531,#532,#533);
#535=PLANE('',#534);
#536=ORIENTED_EDGE('',*,*,#235,.F.);
#537=ORIENTED_EDGE('',*,*,#289,.F.);
#538=ORIENTED_EDGE('',*,*,#523,.F.);
#539=ORIENTED_EDGE('',*,*,#496,.F.);
#540=ORIENTED_EDGE('',*,*,#472,.F.);
#541=ORIENTED_EDGE('',*,*,#443,.F.);
#542=ORIENTED_EDGE('',*,*,#411,.F.);
#543=EDGE_LOOP('',(#536,#537,#538,#539,#540,#541,#542));
#544=FACE_OUTER_BOUND('',#543,.T.);
#545=ADVANCED_FACE('',(#544),#535,.T.);
#546=CLOSED_SHELL('',(#112,#154,#196,#220,#262,#307,#357,#375,#399,#431,#459,#484,#512,#530,#545));
#547=MANIFOLD_SOLID_BREP('2F',#546);
#548=DRAUGHTING_PRE_DEFINED_COLOUR('white');
#549=SURFACE_STYLE_USAGE(.BOTH.,#550);
#550=SURFACE_SIDE_STYLE('NONE',(#551));
#551=SURFACE_STYLE_FILL_AREA(#552);
#552=FILL_AREA_STYLE('NONE',(#553));
#553=FILL_AREA_STYLE_COLOUR('NONE',#548);
#554=PRESENTATION_STYLE_ASSIGNMENT((#549));
#555=STYLED_ITEM('NONE',(#554),#547);
#556=MECHANICAL_DESIGN_GEOMETRIC_PRESENTATION_REPRESENTATION('NONE',(#555),#34);
#557=PRESENTATION_LAYER_ASSIGNMENT('15cb4802','None',(#547));
#558=ADVANCED_BREP_SHAPE_REPRESENTATION('ABSR1',(#547),#34);
#559=SHAPE_REPRESENTATION_RELATIONSHIP('SRRPL1','',#558,#68);
ENDSEC;
END-ISO-10303-21;
