ISO-10303-21;
HEADER;
/****************************************************************
 * Generated by software with PDElib inside                    *
 * PDElib Version v51a, created Fri 09/10/2010                  *
 * ITI Transcendata (http://www.transcendata.com/)              *
 ****************************************************************/
FILE_DESCRIPTION((''),'2;1');
FILE_NAME('15CB4005.stp','2015-07-20T13:26:53',(''),(''),'Mechanical Desktop 2011','Mechanical Desktop 2011',', , ');
FILE_SCHEMA(('AUTOMOTIVE_DESIGN { 1 2 10303 214 1 1 1 1 }'));
ENDSEC;
DATA;
#10=(NAMED_UNIT(*)PLANE_ANGLE_UNIT()SI_UNIT($,.RADIAN.));
#11=DIMENSIONAL_EXPONENTS(0.0,0.0,0.0,0.0,0.0,0.0,0.0);
#12=PLANE_ANGLE_MEASURE_WITH_UNIT(PLANE_ANGLE_MEASURE(0.0174532925),#10);
#16=(CONVERSION_BASED_UNIT('DEGREE',#12)NAMED_UNIT(#11)PLANE_ANGLE_UNIT());
#20=(NAMED_UNIT(*)SI_UNIT($,.STERADIAN.)SOLID_ANGLE_UNIT());
#24=(LENGTH_UNIT()NAMED_UNIT(*)SI_UNIT(.CENTI.,.METRE.));
#25=DIMENSIONAL_EXPONENTS(1.0,0.0,0.0,0.0,0.0,0.0,0.0);
#26=LENGTH_MEASURE_WITH_UNIT(LENGTH_MEASURE(2.54),#24);
#30=(CONVERSION_BASED_UNIT('INCH',#26)LENGTH_UNIT()NAMED_UNIT(#25));
#32=UNCERTAINTY_MEASURE_WITH_UNIT(LENGTH_MEASURE(0.000001),#30,'DISTANCE_ACCURACY_VALUE','');
#34=(GEOMETRIC_REPRESENTATION_CONTEXT(3)GLOBAL_UNCERTAINTY_ASSIGNED_CONTEXT((#32))GLOBAL_UNIT_ASSIGNED_CONTEXT((#16,#20,#30))REPRESENTATION_CONTEXT('','3D'));
#35=APPLICATION_CONTEXT('automotive design');
#36=APPLICATION_PROTOCOL_DEFINITION('INTERNATIONAL_STANDARD','automotive_design',1998,#35);
#37=PRODUCT_CONTEXT('3D Mechanical Parts',#35,'mechanical');
#38=PRODUCT('Product','Product','',(#37));
#39=PRODUCT_RELATED_PRODUCT_CATEGORY('part',$,(#38));
#40=PRODUCT_CATEGORY('part',$);
#41=PERSON('1','Design','Joe',$,$,$);
#42=ORGANIZATION($,'None','None');
#43=PERSON_AND_ORGANIZATION(#41,#42);
#44=PERSON_AND_ORGANIZATION_ROLE('design_owner');
#45=APPLIED_PERSON_AND_ORGANIZATION_ASSIGNMENT(#43,#44,(#38));
#46=PRODUCT_DEFINITION_FORMATION_WITH_SPECIFIED_SOURCE('None','',#38,.BOUGHT.);
#47=PERSON('2','Creator','Joe',$,$,$);
#48=ORGANIZATION($,'None','None');
#49=PERSON_AND_ORGANIZATION(#47,#48);
#50=PERSON_AND_ORGANIZATION_ROLE('creator');
#51=APPLIED_PERSON_AND_ORGANIZATION_ASSIGNMENT(#49,#50,(#46));
#52=PERSON('3','Supplier','Joe',$,$,$);
#53=ORGANIZATION($,'None','None');
#54=PERSON_AND_ORGANIZATION(#52,#53);
#55=PERSON_AND_ORGANIZATION_ROLE('design_supplier');
#56=APPLIED_PERSON_AND_ORGANIZATION_ASSIGNMENT(#54,#55,(#46));
#57=PRODUCT_DEFINITION_CONTEXT('part definition',#35,'design');
#58=PRODUCT_DEFINITION('None','',#46,#57);
#59=PERSON('4','Creator','Joe',$,$,$);
#60=ORGANIZATION($,'None','None');
#61=PERSON_AND_ORGANIZATION(#59,#60);
#62=PERSON_AND_ORGANIZATION_ROLE('creator');
#63=APPLIED_PERSON_AND_ORGANIZATION_ASSIGNMENT(#61,#62,(#58));
#64=CARTESIAN_POINT('NONE',(0.0,0.0,0.0));
#65=DIRECTION('NONE',(0.0,0.0,1.0));
#66=DIRECTION('NONE',(1.0,0.0,0.0));
#67=AXIS2_PLACEMENT_3D('NONE',#64,#65,#66);
#68=SHAPE_REPRESENTATION('SR1',(#67),#34);
#69=PRODUCT_DEFINITION_SHAPE('PDS1','Test Part',#58);
#70=SHAPE_DEFINITION_REPRESENTATION(#69,#68);
#71=CARTESIAN_POINT('',(-3.330669E-016,-0.75,-3.330669E-016));
#72=DIRECTION('',(2.832749E-016,-4.765975E-016,1.0));
#73=DIRECTION('',(1.0,0.0,0.0));
#74=AXIS2_PLACEMENT_3D('',#71,#72,#73);
#75=CYLINDRICAL_SURFACE('',#74,0.1715);
#76=CARTESIAN_POINT('',(0.171499999999994,-0.75,-3.330669E-016));
#77=VERTEX_POINT('',#76);
#78=CARTESIAN_POINT('',(0.1715,-0.750000000000001,0.249999999999999));
#79=VERTEX_POINT('',#78);
#80=CARTESIAN_POINT('',(0.1715,-0.750000000000001,-3.330669E-016));
#81=DIRECTION('',(0.0,0.0,1.0));
#82=VECTOR('',#81,0.249999999999999);
#83=LINE('',#80,#82);
#84=EDGE_CURVE('',#77,#79,#83,.T.);
#85=ORIENTED_EDGE('',*,*,#84,.F.);
#86=CARTESIAN_POINT('',(-0.1715,-0.75,-2.844853E-016));
#87=VERTEX_POINT('',#86);
#88=CARTESIAN_POINT('',(-3.330669E-016,-0.75,-3.330669E-016));
#89=DIRECTION('',(0.0,0.0,1.0));
#90=DIRECTION('',(1.0,0.0,0.0));
#91=AXIS2_PLACEMENT_3D('',#88,#89,#90);
#92=CIRCLE('',#91,0.1715);
#93=EDGE_CURVE('',#87,#77,#92,.T.);
#94=ORIENTED_EDGE('',*,*,#93,.F.);
#95=CARTESIAN_POINT('',(-0.171499999999995,-0.750000000000002,0.249999999999999));
#96=VERTEX_POINT('',#95);
#97=CARTESIAN_POINT('',(-0.1715,-0.75,-2.844853E-016));
#98=DIRECTION('',(0.0,0.0,1.0));
#99=VECTOR('',#98,0.249999999999999);
#100=LINE('',#97,#99);
#101=EDGE_CURVE('',#87,#96,#100,.T.);
#102=ORIENTED_EDGE('',*,*,#101,.T.);
#103=CARTESIAN_POINT('',(-3.330669E-016,-0.75,0.249999999999999));
#104=DIRECTION('',(0.0,0.0,-1.0));
#105=DIRECTION('',(1.0,0.0,0.0));
#106=AXIS2_PLACEMENT_3D('',#103,#104,#105);
#107=CIRCLE('',#106,0.1715);
#108=EDGE_CURVE('',#79,#96,#107,.T.);
#109=ORIENTED_EDGE('',*,*,#108,.F.);
#110=EDGE_LOOP('',(#85,#94,#102,#109));
#111=FACE_OUTER_BOUND('',#110,.T.);
#112=ADVANCED_FACE('',(#111),#75,.F.);
#113=CARTESIAN_POINT('',(-7.771561E-016,-2.25,-1.221245E-015));
#114=DIRECTION('',(2.832749E-016,-4.765975E-016,1.0));
#115=DIRECTION('',(1.0,0.0,0.0));
#116=AXIS2_PLACEMENT_3D('',#113,#114,#115);
#117=CYLINDRICAL_SURFACE('',#116,0.1715);
#118=CARTESIAN_POINT('',(0.171499999999994,-2.25,-1.221245E-015));
#119=VERTEX_POINT('',#118);
#120=CARTESIAN_POINT('',(0.171499999999999,-2.25,0.249999999999998));
#121=VERTEX_POINT('',#120);
#122=CARTESIAN_POINT('',(0.171499999999999,-2.25,-1.221245E-015));
#123=DIRECTION('',(0.0,0.0,1.0));
#124=VECTOR('',#123,0.249999999999999);
#125=LINE('',#122,#124);
#126=EDGE_CURVE('',#119,#121,#125,.T.);
#127=ORIENTED_EDGE('',*,*,#126,.F.);
#128=CARTESIAN_POINT('',(-0.171500000000001,-2.25,-1.172664E-015));
#129=VERTEX_POINT('',#128);
#130=CARTESIAN_POINT('',(-7.771561E-016,-2.25,-1.221245E-015));
#131=DIRECTION('',(0.0,0.0,1.0));
#132=DIRECTION('',(1.0,0.0,0.0));
#133=AXIS2_PLACEMENT_3D('',#130,#131,#132);
#134=CIRCLE('',#133,0.1715);
#135=EDGE_CURVE('',#129,#119,#134,.T.);
#136=ORIENTED_EDGE('',*,*,#135,.F.);
#137=CARTESIAN_POINT('',(-0.171499999999995,-2.250000000000001,0.249999999999998));
#138=VERTEX_POINT('',#137);
#139=CARTESIAN_POINT('',(-0.171500000000001,-2.25,-1.172664E-015));
#140=DIRECTION('',(0.0,0.0,1.0));
#141=VECTOR('',#140,0.249999999999999);
#142=LINE('',#139,#141);
#143=EDGE_CURVE('',#129,#138,#142,.T.);
#144=ORIENTED_EDGE('',*,*,#143,.T.);
#145=CARTESIAN_POINT('',(-7.771561E-016,-2.25,0.249999999999998));
#146=DIRECTION('',(0.0,0.0,-1.0));
#147=DIRECTION('',(1.0,0.0,0.0));
#148=AXIS2_PLACEMENT_3D('',#145,#146,#147);
#149=CIRCLE('',#148,0.1715);
#150=EDGE_CURVE('',#121,#138,#149,.T.);
#151=ORIENTED_EDGE('',*,*,#150,.F.);
#152=EDGE_LOOP('',(#127,#136,#144,#151));
#153=FACE_OUTER_BOUND('',#152,.T.);
#154=ADVANCED_FACE('',(#153),#117,.F.);
#155=CARTESIAN_POINT('',(-7.771561E-016,-2.25,-1.221245E-015));
#156=DIRECTION('',(2.832749E-016,-4.765975E-016,1.0));
#157=DIRECTION('',(1.0,0.0,0.0));
#158=AXIS2_PLACEMENT_3D('',#155,#156,#157);
#159=CYLINDRICAL_SURFACE('',#158,0.1715);
#160=ORIENTED_EDGE('',*,*,#126,.T.);
#161=CARTESIAN_POINT('',(-7.771561E-016,-2.25,0.249999999999998));
#162=DIRECTION('',(0.0,0.0,-1.0));
#163=DIRECTION('',(1.0,0.0,0.0));
#164=AXIS2_PLACEMENT_3D('',#161,#162,#163);
#165=CIRCLE('',#164,0.1715);
#166=EDGE_CURVE('',#138,#121,#165,.T.);
#167=ORIENTED_EDGE('',*,*,#166,.F.);
#168=ORIENTED_EDGE('',*,*,#143,.F.);
#169=CARTESIAN_POINT('',(-7.771561E-016,-2.25,-1.221245E-015));
#170=DIRECTION('',(0.0,0.0,1.0));
#171=DIRECTION('',(1.0,0.0,0.0));
#172=AXIS2_PLACEMENT_3D('',#169,#170,#171);
#173=CIRCLE('',#172,0.1715);
#174=EDGE_CURVE('',#119,#129,#173,.T.);
#175=ORIENTED_EDGE('',*,*,#174,.F.);
#176=EDGE_LOOP('',(#160,#167,#168,#175));
#177=FACE_OUTER_BOUND('',#176,.T.);
#178=ADVANCED_FACE('',(#177),#159,.F.);
#179=CARTESIAN_POINT('',(-3.330669E-016,-0.75,-3.330669E-016));
#180=DIRECTION('',(2.832749E-016,-4.765975E-016,1.0));
#181=DIRECTION('',(1.0,0.0,0.0));
#182=AXIS2_PLACEMENT_3D('',#179,#180,#181);
#183=CYLINDRICAL_SURFACE('',#182,0.1715);
#184=ORIENTED_EDGE('',*,*,#84,.T.);
#185=CARTESIAN_POINT('',(-3.330669E-016,-0.75,0.249999999999999));
#186=DIRECTION('',(0.0,0.0,-1.0));
#187=DIRECTION('',(1.0,0.0,0.0));
#188=AXIS2_PLACEMENT_3D('',#185,#186,#187);
#189=CIRCLE('',#188,0.1715);
#190=EDGE_CURVE('',#96,#79,#189,.T.);
#191=ORIENTED_EDGE('',*,*,#190,.F.);
#192=ORIENTED_EDGE('',*,*,#101,.F.);
#193=CARTESIAN_POINT('',(-3.330669E-016,-0.75,-3.330669E-016));
#194=DIRECTION('',(0.0,0.0,1.0));
#195=DIRECTION('',(1.0,0.0,0.0));
#196=AXIS2_PLACEMENT_3D('',#193,#194,#195);
#197=CIRCLE('',#196,0.1715);
#198=EDGE_CURVE('',#77,#87,#197,.T.);
#199=ORIENTED_EDGE('',*,*,#198,.F.);
#200=EDGE_LOOP('',(#184,#191,#192,#199));
#201=FACE_OUTER_BOUND('',#200,.T.);
#202=ADVANCED_FACE('',(#201),#183,.F.);
#203=CARTESIAN_POINT('',(2.220446E-016,0.0,1.0));
#204=DIRECTION('',(-5.350234E-018,-1.0,-4.804516E-016));
#205=DIRECTION('',(0.0,0.0,-1.0));
#206=AXIS2_PLACEMENT_3D('',#203,#204,#205);
#207=CYLINDRICAL_SURFACE('',#206,0.171875);
#208=CARTESIAN_POINT('',(-0.171875,-0.250000000000001,0.999999999999999));
#209=VERTEX_POINT('',#208);
#210=CARTESIAN_POINT('',(0.171875,-0.250000000000001,0.999999999999999));
#211=VERTEX_POINT('',#210);
#212=CARTESIAN_POINT('',(2.220446E-016,-0.250000000000001,0.999999999999999));
#213=DIRECTION('',(0.0,1.0,0.0));
#214=DIRECTION('',(0.0,0.0,-1.0));
#215=AXIS2_PLACEMENT_3D('',#212,#213,#214);
#216=CIRCLE('',#215,0.171875);
#217=EDGE_CURVE('',#209,#211,#216,.T.);
#218=ORIENTED_EDGE('',*,*,#217,.F.);
#219=CARTESIAN_POINT('',(-0.171875,0.0,0.999999999999999));
#220=VERTEX_POINT('',#219);
#221=CARTESIAN_POINT('',(-0.171875,0.0,0.999999999999999));
#222=DIRECTION('',(0.0,-1.0,0.0));
#223=VECTOR('',#222,0.250000000000001);
#224=LINE('',#221,#223);
#225=EDGE_CURVE('',#220,#209,#224,.T.);
#226=ORIENTED_EDGE('',*,*,#225,.F.);
#227=CARTESIAN_POINT('',(0.171875,0.0,0.999999999999999));
#228=VERTEX_POINT('',#227);
#229=CARTESIAN_POINT('',(2.220446E-016,0.0,1.0));
#230=DIRECTION('',(0.0,-1.0,0.0));
#231=DIRECTION('',(0.0,0.0,-1.0));
#232=AXIS2_PLACEMENT_3D('',#229,#230,#231);
#233=CIRCLE('',#232,0.171875);
#234=EDGE_CURVE('',#228,#220,#233,.T.);
#235=ORIENTED_EDGE('',*,*,#234,.F.);
#236=CARTESIAN_POINT('',(0.171875,0.0,0.999999999999999));
#237=DIRECTION('',(0.0,-1.0,0.0));
#238=VECTOR('',#237,0.250000000000001);
#239=LINE('',#236,#238);
#240=EDGE_CURVE('',#228,#211,#239,.T.);
#241=ORIENTED_EDGE('',*,*,#240,.T.);
#242=EDGE_LOOP('',(#218,#226,#235,#241));
#243=FACE_OUTER_BOUND('',#242,.T.);
#244=ADVANCED_FACE('',(#243),#207,.F.);
#245=CARTESIAN_POINT('',(0.171875,0.0,0.999999999999999));
#246=DIRECTION('',(1.0,0.0,0.0));
#247=DIRECTION('',(0.0,-1.0,0.0));
#248=AXIS2_PLACEMENT_3D('',#245,#246,#247);
#249=PLANE('',#248);
#250=CARTESIAN_POINT('',(0.171875,-0.250000000000001,0.561999999999999));
#251=VERTEX_POINT('',#250);
#252=CARTESIAN_POINT('',(0.171875,-0.250000000000001,0.999999999999999));
#253=DIRECTION('',(0.0,0.0,-1.0));
#254=VECTOR('',#253,0.438);
#255=LINE('',#252,#254);
#256=EDGE_CURVE('',#211,#251,#255,.T.);
#257=ORIENTED_EDGE('',*,*,#256,.F.);
#258=ORIENTED_EDGE('',*,*,#240,.F.);
#259=CARTESIAN_POINT('',(0.171875,0.0,0.499999999999999));
#260=VERTEX_POINT('',#259);
#261=CARTESIAN_POINT('',(0.171875,0.0,0.499999999999999));
#262=DIRECTION('',(0.0,0.0,1.0));
#263=VECTOR('',#262,0.499999999999999);
#264=LINE('',#261,#263);
#265=EDGE_CURVE('',#260,#228,#264,.T.);
#266=ORIENTED_EDGE('',*,*,#265,.F.);
#267=CARTESIAN_POINT('',(0.171875,-0.256222302971588,0.499999999999999));
#268=VERTEX_POINT('',#267);
#269=CARTESIAN_POINT('',(0.171875,0.0,0.499999999999999));
#270=DIRECTION('',(0.0,-1.0,0.0));
#271=VECTOR('',#270,0.256222302971588);
#272=LINE('',#269,#271);
#273=EDGE_CURVE('',#260,#268,#272,.T.);
#274=ORIENTED_EDGE('',*,*,#273,.T.);
#275=CARTESIAN_POINT('',(0.171875,-0.562000000000001,0.561999999999998));
#276=DIRECTION('',(-1.0,0.0,0.0));
#277=DIRECTION('',(0.0,0.0,-1.0));
#278=AXIS2_PLACEMENT_3D('',#275,#276,#277);
#279=CIRCLE('',#278,0.312);
#280=EDGE_CURVE('',#251,#268,#279,.T.);
#281=ORIENTED_EDGE('',*,*,#280,.F.);
#282=EDGE_LOOP('',(#257,#258,#266,#274,#281));
#283=FACE_OUTER_BOUND('',#282,.T.);
#284=ADVANCED_FACE('',(#283),#249,.F.);
#285=CARTESIAN_POINT('',(0.0,0.0,0.5));
#286=DIRECTION('',(-5.350234E-018,-1.0,-4.804516E-016));
#287=DIRECTION('',(0.0,0.0,-1.0));
#288=AXIS2_PLACEMENT_3D('',#285,#286,#287);
#289=CYLINDRICAL_SURFACE('',#288,0.171875);
#290=CARTESIAN_POINT('',(-0.171875,-0.256222302971588,0.500000000000001));
#291=VERTEX_POINT('',#290);
#292=CARTESIAN_POINT('',(0.171875,-0.256222302971588,0.499999999999999));
#293=CARTESIAN_POINT('',(0.171875,-0.260965368123397,0.476607684855226));
#294=CARTESIAN_POINT('',(0.166866605745611,-0.268834440817797,0.452679194226191));
#295=CARTESIAN_POINT('',(0.148249718481537,-0.288534492935768,0.409968103923549));
#296=CARTESIAN_POINT('',(0.134685879170561,-0.300301144302615,0.391136419958255));
#297=CARTESIAN_POINT('',(0.10488522716382,-0.321609520456276,0.362346278098079));
#298=CARTESIAN_POINT('',(0.08662872256842,-0.332863623784693,0.349899352406526));
#299=CARTESIAN_POINT('',(0.055863944546331,-0.345688827433411,0.337077743845009));
#300=CARTESIAN_POINT('',(0.045036018636892,-0.349273320827483,0.333741540286411));
#301=CARTESIAN_POINT('',(0.022786206158315,-0.35417754649612,0.329265567842293));
#302=CARTESIAN_POINT('',(0.011362820974668,-0.35548974753054,0.328125));
#303=CARTESIAN_POINT('',(-0.011647929879203,-0.35548974753054,0.328125));
#304=CARTESIAN_POINT('',(-0.023331136309736,-0.354111297600584,0.329322549716893));
#305=CARTESIAN_POINT('',(-0.046046271835849,-0.348992643739416,0.334001287414068));
#306=CARTESIAN_POINT('',(-0.057079885328378,-0.345260846492958,0.337483490832613));
#307=CARTESIAN_POINT('',(-0.088380140104519,-0.331958680985258,0.350852962687152));
#308=CARTESIAN_POINT('',(-0.106885508883195,-0.320347693833275,0.363817552850311));
#309=CARTESIAN_POINT('',(-0.136192153961545,-0.299029435279086,0.393124197928675));
#310=CARTESIAN_POINT('',(-0.149227537485558,-0.287604024995861,0.411723439715864));
#311=CARTESIAN_POINT('',(-0.167090697571624,-0.268485880857943,0.453714913927099));
#312=CARTESIAN_POINT('',(-0.171875,-0.260854676046863,0.477153606923642));
#313=CARTESIAN_POINT('',(-0.171875,-0.256222302971588,0.500000000000001));
#314=B_SPLINE_CURVE_WITH_KNOTS('',3,(#292,#293,#294,#295,#296,#297,#298,#299,#300,#301,#302,#303,#304,#305,#306,#307,#308,#309,#310,#311,#312,#313),.UNSPECIFIED.,.F.,.U.,(4,2,2,2,2,2,2,2,2,2,4),(0.261202388895912,0.332807372478066,0.40441235606022,0.472589281908266,0.506677744832288,0.540766207756311,0.575709997393922,0.610653787031533,0.680541366306755,0.750475256604466,0.820409146902176),.UNSPECIFIED.);
#315=EDGE_CURVE('',#268,#291,#314,.T.);
#316=ORIENTED_EDGE('',*,*,#315,.F.);
#317=ORIENTED_EDGE('',*,*,#273,.F.);
#318=CARTESIAN_POINT('',(-0.171875,0.0,0.500000000000001));
#319=VERTEX_POINT('',#318);
#320=CARTESIAN_POINT('',(0.0,0.0,0.5));
#321=DIRECTION('',(0.0,-1.0,0.0));
#322=DIRECTION('',(0.0,0.0,-1.0));
#323=AXIS2_PLACEMENT_3D('',#320,#321,#322);
#324=CIRCLE('',#323,0.171875);
#325=EDGE_CURVE('',#319,#260,#324,.T.);
#326=ORIENTED_EDGE('',*,*,#325,.F.);
#327=CARTESIAN_POINT('',(-0.171875,0.0,0.500000000000001));
#328=DIRECTION('',(0.0,-1.0,0.0));
#329=VECTOR('',#328,0.256222302971588);
#330=LINE('',#327,#329);
#331=EDGE_CURVE('',#319,#291,#330,.T.);
#332=ORIENTED_EDGE('',*,*,#331,.T.);
#333=EDGE_LOOP('',(#316,#317,#326,#332));
#334=FACE_OUTER_BOUND('',#333,.T.);
#335=ADVANCED_FACE('',(#334),#289,.F.);
#336=CARTESIAN_POINT('',(-0.171875,0.0,0.500000000000001));
#337=DIRECTION('',(-1.0,0.0,0.0));
#338=DIRECTION('',(0.0,1.0,0.0));
#339=AXIS2_PLACEMENT_3D('',#336,#337,#338);
#340=PLANE('',#339);
#341=CARTESIAN_POINT('',(-0.171875,-0.250000000000001,0.561999999999999));
#342=VERTEX_POINT('',#341);
#343=CARTESIAN_POINT('',(-0.171875,-0.250000000000001,0.561999999999999));
#344=DIRECTION('',(0.0,0.0,1.0));
#345=VECTOR('',#344,0.438);
#346=LINE('',#343,#345);
#347=EDGE_CURVE('',#342,#209,#346,.T.);
#348=ORIENTED_EDGE('',*,*,#347,.F.);
#349=CARTESIAN_POINT('',(-0.171875,-0.562000000000001,0.561999999999999));
#350=DIRECTION('',(1.0,0.0,0.0));
#351=DIRECTION('',(0.0,0.0,-1.0));
#352=AXIS2_PLACEMENT_3D('',#349,#350,#351);
#353=CIRCLE('',#352,0.312);
#354=EDGE_CURVE('',#291,#342,#353,.T.);
#355=ORIENTED_EDGE('',*,*,#354,.F.);
#356=ORIENTED_EDGE('',*,*,#331,.F.);
#357=CARTESIAN_POINT('',(-0.171875,-3.598128E-016,0.999999999999999));
#358=DIRECTION('',(0.0,0.0,-1.0));
#359=VECTOR('',#358,0.499999999999999);
#360=LINE('',#357,#359);
#361=EDGE_CURVE('',#220,#319,#360,.T.);
#362=ORIENTED_EDGE('',*,*,#361,.F.);
#363=ORIENTED_EDGE('',*,*,#225,.T.);
#364=EDGE_LOOP('',(#348,#355,#356,#362,#363));
#365=FACE_OUTER_BOUND('',#364,.T.);
#366=ADVANCED_FACE('',(#365),#340,.F.);
#367=CARTESIAN_POINT('',(0.655000000000001,-0.250000000000001,1.249999999999999));
#368=DIRECTION('',(0.0,-1.0,0.0));
#369=DIRECTION('',(0.0,0.0,-1.0));
#370=AXIS2_PLACEMENT_3D('',#367,#368,#369);
#371=PLANE('',#370);
#372=ORIENTED_EDGE('',*,*,#347,.T.);
#373=ORIENTED_EDGE('',*,*,#217,.T.);
#374=ORIENTED_EDGE('',*,*,#256,.T.);
#375=CARTESIAN_POINT('',(0.655000000000001,-0.250000000000001,0.561999999999998));
#376=VERTEX_POINT('',#375);
#377=CARTESIAN_POINT('',(0.655000000000001,-0.250000000000001,0.561999999999998));
#378=DIRECTION('',(-1.0,0.0,0.0));
#379=VECTOR('',#378,0.483125000000001);
#380=LINE('',#377,#379);
#381=EDGE_CURVE('',#376,#251,#380,.T.);
#382=ORIENTED_EDGE('',*,*,#381,.F.);
#383=CARTESIAN_POINT('',(0.655000000000001,-0.250000000000001,1.249999999999999));
#384=VERTEX_POINT('',#383);
#385=CARTESIAN_POINT('',(0.655000000000001,-0.250000000000001,1.249999999999999));
#386=DIRECTION('',(0.0,0.0,-1.0));
#387=VECTOR('',#386,0.688000000000001);
#388=LINE('',#385,#387);
#389=EDGE_CURVE('',#384,#376,#388,.T.);
#390=ORIENTED_EDGE('',*,*,#389,.F.);
#391=CARTESIAN_POINT('',(-0.655000000000001,-0.250000000000001,1.25));
#392=VERTEX_POINT('',#391);
#393=CARTESIAN_POINT('',(0.655000000000001,-0.250000000000001,1.249999999999999));
#394=DIRECTION('',(-1.0,0.0,0.0));
#395=VECTOR('',#394,1.310000000000002);
#396=LINE('',#393,#395);
#397=EDGE_CURVE('',#384,#392,#396,.T.);
#398=ORIENTED_EDGE('',*,*,#397,.T.);
#399=CARTESIAN_POINT('',(-0.655000000000001,-0.250000000000001,0.561999999999999));
#400=VERTEX_POINT('',#399);
#401=CARTESIAN_POINT('',(-0.655000000000001,-0.250000000000001,1.25));
#402=DIRECTION('',(0.0,0.0,-1.0));
#403=VECTOR('',#402,0.688000000000001);
#404=LINE('',#401,#403);
#405=EDGE_CURVE('',#392,#400,#404,.T.);
#406=ORIENTED_EDGE('',*,*,#405,.T.);
#407=CARTESIAN_POINT('',(-0.171875,-0.250000000000001,0.561999999999999));
#408=DIRECTION('',(-1.0,0.0,0.0));
#409=VECTOR('',#408,0.483125000000001);
#410=LINE('',#407,#409);
#411=EDGE_CURVE('',#342,#400,#410,.T.);
#412=ORIENTED_EDGE('',*,*,#411,.F.);
#413=EDGE_LOOP('',(#372,#373,#374,#382,#390,#398,#406,#412));
#414=FACE_OUTER_BOUND('',#413,.T.);
#415=ADVANCED_FACE('',(#414),#371,.T.);
#416=CARTESIAN_POINT('',(0.655000000000001,-0.562000000000001,0.561999999999998));
#417=DIRECTION('',(-1.0,5.505843E-018,2.832749E-016));
#418=DIRECTION('',(0.0,0.0,-1.0));
#419=AXIS2_PLACEMENT_3D('',#416,#417,#418);
#420=CYLINDRICAL_SURFACE('',#419,0.312);
#421=ORIENTED_EDGE('',*,*,#354,.T.);
#422=ORIENTED_EDGE('',*,*,#411,.T.);
#423=CARTESIAN_POINT('',(-0.655000000000001,-0.562,0.249999999999999));
#424=VERTEX_POINT('',#423);
#425=CARTESIAN_POINT('',(-0.655000000000001,-0.562,0.561999999999999));
#426=DIRECTION('',(-1.0,0.0,0.0));
#427=DIRECTION('',(0.0,0.0,-1.0));
#428=AXIS2_PLACEMENT_3D('',#425,#426,#427);
#429=CIRCLE('',#428,0.312);
#430=EDGE_CURVE('',#400,#424,#429,.T.);
#431=ORIENTED_EDGE('',*,*,#430,.T.);
#432=CARTESIAN_POINT('',(0.655000000000001,-0.562000000000001,0.249999999999999));
#433=VERTEX_POINT('',#432);
#434=CARTESIAN_POINT('',(0.655000000000001,-0.562000000000001,0.249999999999999));
#435=DIRECTION('',(-1.0,0.0,0.0));
#436=VECTOR('',#435,1.310000000000002);
#437=LINE('',#434,#436);
#438=EDGE_CURVE('',#433,#424,#437,.T.);
#439=ORIENTED_EDGE('',*,*,#438,.F.);
#440=CARTESIAN_POINT('',(0.655000000000001,-0.562000000000001,0.561999999999998));
#441=DIRECTION('',(-1.0,0.0,0.0));
#442=DIRECTION('',(0.0,0.0,-1.0));
#443=AXIS2_PLACEMENT_3D('',#440,#441,#442);
#444=CIRCLE('',#443,0.312);
#445=EDGE_CURVE('',#376,#433,#444,.T.);
#446=ORIENTED_EDGE('',*,*,#445,.F.);
#447=ORIENTED_EDGE('',*,*,#381,.T.);
#448=ORIENTED_EDGE('',*,*,#280,.T.);
#449=ORIENTED_EDGE('',*,*,#315,.T.);
#450=EDGE_LOOP('',(#421,#422,#431,#439,#446,#447,#448,#449));
#451=FACE_OUTER_BOUND('',#450,.T.);
#452=ADVANCED_FACE('',(#451),#420,.F.);
#453=CARTESIAN_POINT('',(0.655000000000001,-0.562000000000001,0.249999999999999));
#454=DIRECTION('',(0.0,0.0,1.0));
#455=DIRECTION('',(0.0,-1.0,0.0));
#456=AXIS2_PLACEMENT_3D('',#453,#454,#455);
#457=PLANE('',#456);
#458=CARTESIAN_POINT('',(-0.655000000000002,-2.750000000000001,0.249999999999999));
#459=VERTEX_POINT('',#458);
#460=CARTESIAN_POINT('',(-0.655000000000002,-0.562,0.249999999999999));
#461=DIRECTION('',(0.0,-1.0,0.0));
#462=VECTOR('',#461,2.188000000000001);
#463=LINE('',#460,#462);
#464=EDGE_CURVE('',#424,#459,#463,.T.);
#465=ORIENTED_EDGE('',*,*,#464,.T.);
#466=CARTESIAN_POINT('',(0.655,-2.750000000000001,0.249999999999998));
#467=VERTEX_POINT('',#466);
#468=CARTESIAN_POINT('',(0.655,-2.750000000000001,0.249999999999998));
#469=DIRECTION('',(-1.0,0.0,0.0));
#470=VECTOR('',#469,1.310000000000002);
#471=LINE('',#468,#470);
#472=EDGE_CURVE('',#467,#459,#471,.T.);
#473=ORIENTED_EDGE('',*,*,#472,.F.);
#474=CARTESIAN_POINT('',(0.655000000000001,-0.562000000000001,0.249999999999999));
#475=DIRECTION('',(0.0,-1.0,0.0));
#476=VECTOR('',#475,2.188);
#477=LINE('',#474,#476);
#478=EDGE_CURVE('',#433,#467,#477,.T.);
#479=ORIENTED_EDGE('',*,*,#478,.F.);
#480=ORIENTED_EDGE('',*,*,#438,.T.);
#481=EDGE_LOOP('',(#465,#473,#479,#480));
#482=FACE_OUTER_BOUND('',#481,.T.);
#483=ORIENTED_EDGE('',*,*,#166,.T.);
#484=ORIENTED_EDGE('',*,*,#150,.T.);
#485=EDGE_LOOP('',(#483,#484));
#486=FACE_BOUND('',#485,.T.);
#487=ORIENTED_EDGE('',*,*,#190,.T.);
#488=ORIENTED_EDGE('',*,*,#108,.T.);
#489=EDGE_LOOP('',(#487,#488));
#490=FACE_BOUND('',#489,.T.);
#491=ADVANCED_FACE('',(#482,#486,#490),#457,.T.);
#492=CARTESIAN_POINT('',(0.655,-2.750000000000001,-1.887379E-015));
#493=DIRECTION('',(-1.0,5.505843E-018,2.832749E-016));
#494=DIRECTION('',(0.0,0.0,-1.0));
#495=AXIS2_PLACEMENT_3D('',#492,#493,#494);
#496=CYLINDRICAL_SURFACE('',#495,0.25);
#497=CARTESIAN_POINT('',(-0.655000000000002,-3.0,-1.221245E-015));
#498=VERTEX_POINT('',#497);
#499=CARTESIAN_POINT('',(-0.655000000000002,-2.750000000000001,-1.443290E-015));
#500=DIRECTION('',(1.0,0.0,0.0));
#501=DIRECTION('',(0.0,0.0,-1.0));
#502=AXIS2_PLACEMENT_3D('',#499,#500,#501);
#503=CIRCLE('',#502,0.25);
#504=EDGE_CURVE('',#459,#498,#503,.T.);
#505=ORIENTED_EDGE('',*,*,#504,.T.);
#506=CARTESIAN_POINT('',(0.655,-3.000000000000001,-1.665335E-015));
#507=VERTEX_POINT('',#506);
#508=CARTESIAN_POINT('',(0.655,-3.000000000000001,-1.665335E-015));
#509=DIRECTION('',(-1.0,0.0,0.0));
#510=VECTOR('',#509,1.310000000000002);
#511=LINE('',#508,#510);
#512=EDGE_CURVE('',#507,#498,#511,.T.);
#513=ORIENTED_EDGE('',*,*,#512,.F.);
#514=CARTESIAN_POINT('',(0.655,-2.750000000000001,-1.887379E-015));
#515=DIRECTION('',(1.0,0.0,0.0));
#516=DIRECTION('',(0.0,0.0,-1.0));
#517=AXIS2_PLACEMENT_3D('',#514,#515,#516);
#518=CIRCLE('',#517,0.25);
#519=EDGE_CURVE('',#467,#507,#518,.T.);
#520=ORIENTED_EDGE('',*,*,#519,.F.);
#521=ORIENTED_EDGE('',*,*,#472,.T.);
#522=EDGE_LOOP('',(#505,#513,#520,#521));
#523=FACE_OUTER_BOUND('',#522,.T.);
#524=ADVANCED_FACE('',(#523),#496,.T.);
#525=CARTESIAN_POINT('',(0.655,-3.000000000000001,-1.665335E-015));
#526=DIRECTION('',(0.0,0.0,-1.0));
#527=DIRECTION('',(0.0,1.0,0.0));
#528=AXIS2_PLACEMENT_3D('',#525,#526,#527);
#529=PLANE('',#528);
#530=CARTESIAN_POINT('',(-0.655000000000001,0.0,1.110223E-016));
#531=VERTEX_POINT('',#530);
#532=CARTESIAN_POINT('',(-0.655000000000002,-3.0,-1.274737E-015));
#533=DIRECTION('',(0.0,1.0,0.0));
#534=VECTOR('',#533,3.0);
#535=LINE('',#532,#534);
#536=EDGE_CURVE('',#498,#531,#535,.T.);
#537=ORIENTED_EDGE('',*,*,#536,.T.);
#538=CARTESIAN_POINT('',(0.655000000000001,0.0,-1.110223E-016));
#539=VERTEX_POINT('',#538);
#540=CARTESIAN_POINT('',(0.655000000000001,0.0,-1.110223E-016));
#541=DIRECTION('',(-1.0,0.0,0.0));
#542=VECTOR('',#541,1.310000000000002);
#543=LINE('',#540,#542);
#544=EDGE_CURVE('',#539,#531,#543,.T.);
#545=ORIENTED_EDGE('',*,*,#544,.F.);
#546=CARTESIAN_POINT('',(0.655,-3.000000000000001,-1.718826E-015));
#547=DIRECTION('',(0.0,1.0,0.0));
#548=VECTOR('',#547,3.000000000000001);
#549=LINE('',#546,#548);
#550=EDGE_CURVE('',#507,#539,#549,.T.);
#551=ORIENTED_EDGE('',*,*,#550,.F.);
#552=ORIENTED_EDGE('',*,*,#512,.T.);
#553=EDGE_LOOP('',(#537,#545,#551,#552));
#554=FACE_OUTER_BOUND('',#553,.T.);
#555=ORIENTED_EDGE('',*,*,#174,.T.);
#556=ORIENTED_EDGE('',*,*,#135,.T.);
#557=EDGE_LOOP('',(#555,#556));
#558=FACE_BOUND('',#557,.T.);
#559=ORIENTED_EDGE('',*,*,#198,.T.);
#560=ORIENTED_EDGE('',*,*,#93,.T.);
#561=EDGE_LOOP('',(#559,#560));
#562=FACE_BOUND('',#561,.T.);
#563=ADVANCED_FACE('',(#554,#558,#562),#529,.T.);
#564=CARTESIAN_POINT('',(0.655000000000001,0.0,-1.110223E-016));
#565=DIRECTION('',(0.0,1.0,0.0));
#566=DIRECTION('',(0.0,0.0,1.0));
#567=AXIS2_PLACEMENT_3D('',#564,#565,#566);
#568=PLANE('',#567);
#569=CARTESIAN_POINT('',(-0.655000000000001,-8.881784E-016,1.5));
#570=VERTEX_POINT('',#569);
#571=CARTESIAN_POINT('',(-0.655000000000001,-5.283656E-016,1.110223E-016));
#572=DIRECTION('',(0.0,0.0,1.0));
#573=VECTOR('',#572,1.5);
#574=LINE('',#571,#573);
#575=EDGE_CURVE('',#531,#570,#574,.T.);
#576=ORIENTED_EDGE('',*,*,#575,.T.);
#577=CARTESIAN_POINT('',(0.655000000000001,-8.881784E-016,1.499999999999999));
#578=VERTEX_POINT('',#577);
#579=CARTESIAN_POINT('',(0.655000000000001,-8.881784E-016,1.499999999999999));
#580=DIRECTION('',(-1.0,0.0,0.0));
#581=VECTOR('',#580,1.310000000000002);
#582=LINE('',#579,#581);
#583=EDGE_CURVE('',#578,#570,#582,.T.);
#584=ORIENTED_EDGE('',*,*,#583,.F.);
#585=CARTESIAN_POINT('',(0.655000000000001,-5.283656E-016,-1.110223E-016));
#586=DIRECTION('',(0.0,0.0,1.0));
#587=VECTOR('',#586,1.499999999999999);
#588=LINE('',#585,#587);
#589=EDGE_CURVE('',#539,#578,#588,.T.);
#590=ORIENTED_EDGE('',*,*,#589,.F.);
#591=ORIENTED_EDGE('',*,*,#544,.T.);
#592=EDGE_LOOP('',(#576,#584,#590,#591));
#593=FACE_OUTER_BOUND('',#592,.T.);
#594=ORIENTED_EDGE('',*,*,#234,.T.);
#595=ORIENTED_EDGE('',*,*,#361,.T.);
#596=ORIENTED_EDGE('',*,*,#325,.T.);
#597=ORIENTED_EDGE('',*,*,#265,.T.);
#598=EDGE_LOOP('',(#594,#595,#596,#597));
#599=FACE_BOUND('',#598,.T.);
#600=ADVANCED_FACE('',(#593,#599),#568,.T.);
#601=CARTESIAN_POINT('',(0.655000000000001,-8.881784E-016,1.249999999999999));
#602=DIRECTION('',(-1.0,5.505843E-018,2.832749E-016));
#603=DIRECTION('',(0.0,0.0,-1.0));
#604=AXIS2_PLACEMENT_3D('',#601,#602,#603);
#605=CYLINDRICAL_SURFACE('',#604,0.25);
#606=CARTESIAN_POINT('',(-0.655000000000001,-8.881784E-016,1.25));
#607=DIRECTION('',(1.0,0.0,0.0));
#608=DIRECTION('',(0.0,0.0,-1.0));
#609=AXIS2_PLACEMENT_3D('',#606,#607,#608);
#610=CIRCLE('',#609,0.25);
#611=EDGE_CURVE('',#570,#392,#610,.T.);
#612=ORIENTED_EDGE('',*,*,#611,.T.);
#613=ORIENTED_EDGE('',*,*,#397,.F.);
#614=CARTESIAN_POINT('',(0.655000000000001,-8.881784E-016,1.249999999999999));
#615=DIRECTION('',(1.0,0.0,0.0));
#616=DIRECTION('',(0.0,0.0,-1.0));
#617=AXIS2_PLACEMENT_3D('',#614,#615,#616);
#618=CIRCLE('',#617,0.25);
#619=EDGE_CURVE('',#578,#384,#618,.T.);
#620=ORIENTED_EDGE('',*,*,#619,.F.);
#621=ORIENTED_EDGE('',*,*,#583,.T.);
#622=EDGE_LOOP('',(#612,#613,#620,#621));
#623=FACE_OUTER_BOUND('',#622,.T.);
#624=ADVANCED_FACE('',(#623),#605,.T.);
#625=CARTESIAN_POINT('',(-0.655000000000001,-0.250000000000001,0.561999999999999));
#626=DIRECTION('',(1.0,0.0,0.0));
#627=DIRECTION('',(0.0,-1.0,0.0));
#628=AXIS2_PLACEMENT_3D('',#625,#626,#627);
#629=PLANE('',#628);
#630=ORIENTED_EDGE('',*,*,#430,.F.);
#631=ORIENTED_EDGE('',*,*,#405,.F.);
#632=ORIENTED_EDGE('',*,*,#611,.F.);
#633=ORIENTED_EDGE('',*,*,#575,.F.);
#634=ORIENTED_EDGE('',*,*,#536,.F.);
#635=ORIENTED_EDGE('',*,*,#504,.F.);
#636=ORIENTED_EDGE('',*,*,#464,.F.);
#637=EDGE_LOOP('',(#630,#631,#632,#633,#634,#635,#636));
#638=FACE_OUTER_BOUND('',#637,.T.);
#639=ADVANCED_FACE('',(#638),#629,.F.);
#640=CARTESIAN_POINT('',(0.655000000000001,-1.025693607486307,0.575693607486306));
#641=DIRECTION('',(1.0,0.0,0.0));
#642=DIRECTION('',(0.0,-1.0,0.0));
#643=AXIS2_PLACEMENT_3D('',#640,#641,#642);
#644=PLANE('',#643);
#645=ORIENTED_EDGE('',*,*,#389,.T.);
#646=ORIENTED_EDGE('',*,*,#445,.T.);
#647=ORIENTED_EDGE('',*,*,#478,.T.);
#648=ORIENTED_EDGE('',*,*,#519,.T.);
#649=ORIENTED_EDGE('',*,*,#550,.T.);
#650=ORIENTED_EDGE('',*,*,#589,.T.);
#651=ORIENTED_EDGE('',*,*,#619,.T.);
#652=EDGE_LOOP('',(#645,#646,#647,#648,#649,#650,#651));
#653=FACE_OUTER_BOUND('',#652,.T.);
#654=ADVANCED_FACE('',(#653),#644,.T.);
#655=CLOSED_SHELL('',(#112,#154,#178,#202,#244,#284,#335,#366,#415,#452,#491,#524,#563,#600,#624,#639,#654));
#656=MANIFOLD_SOLID_BREP('2C',#655);
#657=DRAUGHTING_PRE_DEFINED_COLOUR('white');
#658=SURFACE_STYLE_USAGE(.BOTH.,#659);
#659=SURFACE_SIDE_STYLE('NONE',(#660));
#660=SURFACE_STYLE_FILL_AREA(#661);
#661=FILL_AREA_STYLE('NONE',(#662));
#662=FILL_AREA_STYLE_COLOUR('NONE',#657);
#663=PRESENTATION_STYLE_ASSIGNMENT((#658));
#664=STYLED_ITEM('NONE',(#663),#656);
#665=MECHANICAL_DESIGN_GEOMETRIC_PRESENTATION_REPRESENTATION('NONE',(#664),#34);
#666=PRESENTATION_LAYER_ASSIGNMENT('0','None',(#656));
#667=ADVANCED_BREP_SHAPE_REPRESENTATION('ABSR1',(#656),#34);
#668=SHAPE_REPRESENTATION_RELATIONSHIP('SRRPL1','',#667,#68);
ENDSEC;
END-ISO-10303-21;
