ISO-10303-21;
HEADER;
/****************************************************************
 * Generated by software with PDElib inside                    *
 * PDElib Version v51a, created Fri 09/10/2010                  *
 * ITI Transcendata (http://www.transcendata.com/)              *
 ****************************************************************/
FILE_DESCRIPTION((''),'2;1');
FILE_NAME('15CB4000.stp','2015-07-20T13:23:20',(''),(''),'Mechanical Desktop 2011','Mechanical Desktop 2011',', , ');
FILE_SCHEMA(('CONFIG_CONTROL_DESIGN'));
ENDSEC;
DATA;
#10=(NAMED_UNIT(*)PLANE_ANGLE_UNIT()SI_UNIT($,.RADIAN.));
#11=DIMENSIONAL_EXPONENTS(0.0,0.0,0.0,0.0,0.0,0.0,0.0);
#12=PLANE_ANGLE_MEASURE_WITH_UNIT(PLANE_ANGLE_MEASURE(0.0174532925),#10);
#16=(CONVERSION_BASED_UNIT('DEGREE',#12)NAMED_UNIT(#11)PLANE_ANGLE_UNIT());
#20=(NAMED_UNIT(*)SI_UNIT($,.STERADIAN.)SOLID_ANGLE_UNIT());
#24=(LENGTH_UNIT()NAMED_UNIT(*)SI_UNIT(.MILLI.,.METRE.));
#26=UNCERTAINTY_MEASURE_WITH_UNIT(LENGTH_MEASURE(0.000001),#24,'DISTANCE_ACCURACY_VALUE','');
#28=(GEOMETRIC_REPRESENTATION_CONTEXT(3)GLOBAL_UNCERTAINTY_ASSIGNED_CONTEXT((#26))GLOBAL_UNIT_ASSIGNED_CONTEXT((#16,#20,#24))REPRESENTATION_CONTEXT('','3D'));
#29=APPLICATION_CONTEXT('CONFIGURATION CONTROLLED 3D DESIGNS OF MECHANICAL PARTS AND ASSEMBLIES');
#30=APPLICATION_PROTOCOL_DEFINITION('INTERNATIONAL STANDARD','config_control_design',1995,#29);
#31=MECHANICAL_CONTEXT('3D Mechanical Parts',#29,'mechanical');
#32=PRODUCT('Product','Product',' ',(#31));
#33=PRODUCT_RELATED_PRODUCT_CATEGORY('detail',$,(#32));
#34=PRODUCT_CATEGORY('part',$);
#35=PRODUCT_CATEGORY_RELATIONSHIP('None','None',#34,#33);
#36=PERSON('1','Design','Joe',$,$,$);
#37=ORGANIZATION($,'None','None');
#38=PERSON_AND_ORGANIZATION(#36,#37);
#39=PERSON_AND_ORGANIZATION_ROLE('design_owner');
#40=CC_DESIGN_PERSON_AND_ORGANIZATION_ASSIGNMENT(#38,#39,(#32));
#41=PRODUCT_DEFINITION_FORMATION_WITH_SPECIFIED_SOURCE('None','None',#32,.BOUGHT.);
#42=PERSON('2','Creator','Joe',$,$,$);
#43=ORGANIZATION($,'None','None');
#44=PERSON_AND_ORGANIZATION(#42,#43);
#45=PERSON_AND_ORGANIZATION_ROLE('creator');
#46=CC_DESIGN_PERSON_AND_ORGANIZATION_ASSIGNMENT(#44,#45,(#41));
#47=PERSON('3','Supplier','Joe',$,$,$);
#48=ORGANIZATION($,'None','None');
#49=PERSON_AND_ORGANIZATION(#47,#48);
#50=PERSON_AND_ORGANIZATION_ROLE('design_supplier');
#51=CC_DESIGN_PERSON_AND_ORGANIZATION_ASSIGNMENT(#49,#50,(#41));
#52=APPROVAL_STATUS('approved');
#53=APPROVAL(#52,'None');
#54=PERSON('4','Approver','Joe',$,$,$);
#55=ORGANIZATION($,'None','None');
#56=PERSON_AND_ORGANIZATION(#54,#55);
#57=APPROVAL_ROLE('approver');
#58=APPROVAL_PERSON_ORGANIZATION(#56,#53,#57);
#59=COORDINATED_UNIVERSAL_TIME_OFFSET(8,$,.EXACT.);
#60=CALENDAR_DATE(1996,29,5);
#61=LOCAL_TIME(12,0,0.0,#59);
#62=DATE_AND_TIME(#60,#61);
#63=APPROVAL_DATE_TIME(#62,#53);
#64=CC_DESIGN_APPROVAL(#53,(#41));
#65=SECURITY_CLASSIFICATION_LEVEL('unclassified');
#66=SECURITY_CLASSIFICATION('security','None',#65);
#67=CC_DESIGN_SECURITY_CLASSIFICATION(#66,(#41));
#68=APPROVAL_STATUS('approved');
#69=APPROVAL(#68,'None');
#70=PERSON('5','Approver','Joe',$,$,$);
#71=ORGANIZATION($,'None','None');
#72=PERSON_AND_ORGANIZATION(#70,#71);
#73=APPROVAL_ROLE('approver');
#74=APPROVAL_PERSON_ORGANIZATION(#72,#69,#73);
#75=COORDINATED_UNIVERSAL_TIME_OFFSET(8,$,.EXACT.);
#76=CALENDAR_DATE(1996,29,5);
#77=LOCAL_TIME(12,0,0.0,#75);
#78=DATE_AND_TIME(#76,#77);
#79=APPROVAL_DATE_TIME(#78,#69);
#80=CC_DESIGN_APPROVAL(#69,(#66));
#81=PERSON('6','Classifier','Joe',$,$,$);
#82=ORGANIZATION($,'None','None');
#83=PERSON_AND_ORGANIZATION(#81,#82);
#84=PERSON_AND_ORGANIZATION_ROLE('classification_officer');
#85=CC_DESIGN_PERSON_AND_ORGANIZATION_ASSIGNMENT(#83,#84,(#66));
#86=COORDINATED_UNIVERSAL_TIME_OFFSET(8,$,.EXACT.);
#87=CALENDAR_DATE(1996,29,5);
#88=LOCAL_TIME(12,0,0.0,#86);
#89=DATE_AND_TIME(#87,#88);
#90=DATE_TIME_ROLE('classification_date');
#91=CC_DESIGN_DATE_AND_TIME_ASSIGNMENT(#89,#90,(#66));
#92=DESIGN_CONTEXT('Design Context',#29,'design');
#93=PRODUCT_DEFINITION('None','None',#41,#92);
#94=PERSON('7','Creator','Joe',$,$,$);
#95=ORGANIZATION($,'None','None');
#96=PERSON_AND_ORGANIZATION(#94,#95);
#97=PERSON_AND_ORGANIZATION_ROLE('creator');
#98=CC_DESIGN_PERSON_AND_ORGANIZATION_ASSIGNMENT(#96,#97,(#93));
#99=COORDINATED_UNIVERSAL_TIME_OFFSET(8,$,.EXACT.);
#100=CALENDAR_DATE(1996,29,5);
#101=LOCAL_TIME(12,0,0.0,#99);
#102=DATE_AND_TIME(#100,#101);
#103=DATE_TIME_ROLE('creation_date');
#104=CC_DESIGN_DATE_AND_TIME_ASSIGNMENT(#102,#103,(#93));
#105=APPROVAL_STATUS('approved');
#106=APPROVAL(#105,'None');
#107=PERSON('8','Approver','Joe',$,$,$);
#108=ORGANIZATION($,'None','None');
#109=PERSON_AND_ORGANIZATION(#107,#108);
#110=APPROVAL_ROLE('approver');
#111=APPROVAL_PERSON_ORGANIZATION(#109,#106,#110);
#112=COORDINATED_UNIVERSAL_TIME_OFFSET(8,$,.EXACT.);
#113=CALENDAR_DATE(1996,29,5);
#114=LOCAL_TIME(12,0,0.0,#112);
#115=DATE_AND_TIME(#113,#114);
#116=APPROVAL_DATE_TIME(#115,#106);
#117=CC_DESIGN_APPROVAL(#106,(#93));
#118=CARTESIAN_POINT('NONE',(0.0,0.0,0.0));
#119=DIRECTION('NONE',(0.0,0.0,1.0));
#120=DIRECTION('NONE',(1.0,0.0,0.0));
#121=AXIS2_PLACEMENT_3D('NONE',#118,#119,#120);
#122=SHAPE_REPRESENTATION('SR1',(#121),#28);
#123=PRODUCT_DEFINITION_SHAPE('PDS1','Test Part',#93);
#124=SHAPE_DEFINITION_REPRESENTATION(#123,#122);
#125=CARTESIAN_POINT('',(3.330669E-016,0.0,0.75));
#126=DIRECTION('',(-3.445052E-016,-1.0,-1.836910E-016));
#127=DIRECTION('',(0.0,0.0,-1.0));
#128=AXIS2_PLACEMENT_3D('',#125,#126,#127);
#129=CYLINDRICAL_SURFACE('',#128,0.171875);
#130=CARTESIAN_POINT('',(1.110223E-016,0.0,0.578125));
#131=VERTEX_POINT('',#130);
#132=CARTESIAN_POINT('',(1.982527E-016,-0.25,0.578125));
#133=VERTEX_POINT('',#132);
#134=CARTESIAN_POINT('',(2.843790E-016,-6.162976E-032,0.578125));
#135=DIRECTION('',(0.0,-1.0,0.0));
#136=VECTOR('',#135,0.25);
#137=LINE('',#134,#136);
#138=EDGE_CURVE('',#131,#133,#137,.T.);
#139=ORIENTED_EDGE('',*,*,#138,.F.);
#140=CARTESIAN_POINT('',(3.607062E-016,-3.157188E-017,0.921875));
#141=VERTEX_POINT('',#140);
#142=CARTESIAN_POINT('',(3.330669E-016,0.0,0.75));
#143=DIRECTION('',(0.0,-1.0,0.0));
#144=DIRECTION('',(0.0,0.0,-1.0));
#145=AXIS2_PLACEMENT_3D('',#142,#143,#144);
#146=CIRCLE('',#145,0.171875);
#147=EDGE_CURVE('',#141,#131,#146,.T.);
#148=ORIENTED_EDGE('',*,*,#147,.F.);
#149=CARTESIAN_POINT('',(-9.992007E-016,-0.25,0.921875));
#150=VERTEX_POINT('',#149);
#151=CARTESIAN_POINT('',(3.607062E-016,-3.157188E-017,0.921875));
#152=DIRECTION('',(0.0,-1.0,0.0));
#153=VECTOR('',#152,0.25);
#154=LINE('',#151,#153);
#155=EDGE_CURVE('',#141,#150,#154,.T.);
#156=ORIENTED_EDGE('',*,*,#155,.T.);
#157=CARTESIAN_POINT('',(2.220446E-016,-0.25,0.75));
#158=DIRECTION('',(0.0,1.0,0.0));
#159=DIRECTION('',(0.0,0.0,-1.0));
#160=AXIS2_PLACEMENT_3D('',#157,#158,#159);
#161=CIRCLE('',#160,0.171875);
#162=EDGE_CURVE('',#133,#150,#161,.T.);
#163=ORIENTED_EDGE('',*,*,#162,.F.);
#164=EDGE_LOOP('',(#139,#148,#156,#163));
#165=FACE_OUTER_BOUND('',#164,.T.);
#166=ADVANCED_FACE('',(#165),#129,.F.);
#167=CARTESIAN_POINT('',(1.110223E-016,-0.5,0.299999999999999));
#168=DIRECTION('',(-2.832749E-016,1.836910E-016,-1.0));
#169=DIRECTION('',(0.0,1.0,0.0));
#170=AXIS2_PLACEMENT_3D('',#167,#168,#169);
#171=CYLINDRICAL_SURFACE('',#170,0.171875);
#172=CARTESIAN_POINT('',(-0.171875,-0.5,0.256222302971587));
#173=VERTEX_POINT('',#172);
#174=CARTESIAN_POINT('',(-0.171875,-0.5,-4.977708E-016));
#175=VERTEX_POINT('',#174);
#176=CARTESIAN_POINT('',(-0.171875,-0.5,0.256222302971587));
#177=DIRECTION('',(0.0,0.0,-1.0));
#178=VECTOR('',#177,0.256222302971587);
#179=LINE('',#176,#178);
#180=EDGE_CURVE('',#173,#175,#179,.T.);
#181=ORIENTED_EDGE('',*,*,#180,.T.);
#182=CARTESIAN_POINT('',(0.171875,-0.5,-5.740986E-016));
#183=VERTEX_POINT('',#182);
#184=CARTESIAN_POINT('',(0.0,-0.5,-9.184548E-017));
#185=DIRECTION('',(0.0,0.0,1.0));
#186=DIRECTION('',(0.0,1.0,0.0));
#187=AXIS2_PLACEMENT_3D('',#184,#185,#186);
#188=CIRCLE('',#187,0.171875);
#189=EDGE_CURVE('',#183,#175,#188,.T.);
#190=ORIENTED_EDGE('',*,*,#189,.F.);
#191=CARTESIAN_POINT('',(0.171875,-0.5,0.256222302971587));
#192=VERTEX_POINT('',#191);
#193=CARTESIAN_POINT('',(0.171875,-0.5,0.256222302971587));
#194=DIRECTION('',(0.0,0.0,-1.0));
#195=VECTOR('',#194,0.256222302971587);
#196=LINE('',#193,#195);
#197=EDGE_CURVE('',#192,#183,#196,.T.);
#198=ORIENTED_EDGE('',*,*,#197,.F.);
#199=CARTESIAN_POINT('',(0.134178790478081,-0.392589256539026,0.299999999999999));
#200=VERTEX_POINT('',#199);
#201=CARTESIAN_POINT('',(0.134178790478081,-0.392589256539026,0.299999999999999));
#202=CARTESIAN_POINT('',(0.14336547970884,-0.404065379036298,0.292579471586595));
#203=CARTESIAN_POINT('',(0.151383098013842,-0.417156741543689,0.285218807600401));
#204=CARTESIAN_POINT('',(0.166866605745612,-0.452679194226192,0.268834440817796));
#205=CARTESIAN_POINT('',(0.171875,-0.476607684855226,0.260965368123396));
#206=CARTESIAN_POINT('',(0.171875,-0.5,0.256222302971587));
#207=B_SPLINE_CURVE_WITH_KNOTS('',3,(#201,#202,#203,#204,#205,#206),.UNSPECIFIED.,.F.,.U.,(4,2,4),(0.701223507766213,0.748725043034557,0.820330026616711),.UNSPECIFIED.);
#208=EDGE_CURVE('',#200,#192,#207,.T.);
#209=ORIENTED_EDGE('',*,*,#208,.F.);
#210=CARTESIAN_POINT('',(-0.134178790478081,-0.392589256539026,0.3));
#211=VERTEX_POINT('',#210);
#212=CARTESIAN_POINT('',(-0.134178790478081,-0.392589256539026,0.3));
#213=CARTESIAN_POINT('',(-0.129517238218818,-0.386765989482639,0.303765358783947));
#214=CARTESIAN_POINT('',(-0.124558841071795,-0.381352779539217,0.307542285774357));
#215=CARTESIAN_POINT('',(-0.104885227163825,-0.36234627809808,0.321609520456276));
#216=CARTESIAN_POINT('',(-0.086628722568415,-0.349899352406526,0.332863623784692));
#217=CARTESIAN_POINT('',(-0.055863944546334,-0.33707774384501,0.34568882743341));
#218=CARTESIAN_POINT('',(-0.045036018636894,-0.333741540286411,0.349273320827483));
#219=CARTESIAN_POINT('',(-0.022786206158319,-0.329265567842294,0.35417754649612));
#220=CARTESIAN_POINT('',(-0.011362820974674,-0.328125,0.35548974753054));
#221=CARTESIAN_POINT('',(0.011362820974675,-0.328125,0.35548974753054));
#222=CARTESIAN_POINT('',(0.022786206158319,-0.329265567842294,0.35417754649612));
#223=CARTESIAN_POINT('',(0.045036018636894,-0.333741540286412,0.349273320827483));
#224=CARTESIAN_POINT('',(0.055863944546334,-0.33707774384501,0.34568882743341));
#225=CARTESIAN_POINT('',(0.086628722568415,-0.349899352406526,0.332863623784692));
#226=CARTESIAN_POINT('',(0.104885227163825,-0.36234627809808,0.321609520456276));
#227=CARTESIAN_POINT('',(0.124558841071796,-0.381352779539217,0.307542285774356));
#228=CARTESIAN_POINT('',(0.129517238218818,-0.386765989482639,0.303765358783947));
#229=CARTESIAN_POINT('',(0.134178790478081,-0.392589256539026,0.299999999999999));
#230=B_SPLINE_CURVE_WITH_KNOTS('',3,(#212,#213,#214,#215,#216,#217,#218,#219,#220,#221,#222,#223,#224,#225,#226,#227,#228,#229),.UNSPECIFIED.,.F.,.U.,(4,2,2,2,2,2,2,2,4),(0.380308907746409,0.40441235606022,0.472589281908265,0.506677744832288,0.540766207756311,0.574854670680334,0.608943133604357,0.677120059452403,0.701223507766213),.UNSPECIFIED.);
#231=EDGE_CURVE('',#211,#200,#230,.T.);
#232=ORIENTED_EDGE('',*,*,#231,.F.);
#233=CARTESIAN_POINT('',(-0.171875,-0.5,0.256222302971587));
#234=CARTESIAN_POINT('',(-0.171875,-0.476607684855226,0.260965368123396));
#235=CARTESIAN_POINT('',(-0.166866605745611,-0.452679194226192,0.268834440817796));
#236=CARTESIAN_POINT('',(-0.151383098013842,-0.417156741543689,0.285218807600401));
#237=CARTESIAN_POINT('',(-0.14336547970884,-0.404065379036298,0.292579471586595));
#238=CARTESIAN_POINT('',(-0.134178790478081,-0.392589256539026,0.3));
#239=B_SPLINE_CURVE_WITH_KNOTS('',3,(#233,#234,#235,#236,#237,#238),.UNSPECIFIED.,.F.,.U.,(4,2,4),(0.261202388895912,0.332807372478066,0.380308907746409),.UNSPECIFIED.);
#240=EDGE_CURVE('',#173,#211,#239,.T.);
#241=ORIENTED_EDGE('',*,*,#240,.F.);
#242=EDGE_LOOP('',(#181,#190,#198,#209,#232,#241));
#243=FACE_OUTER_BOUND('',#242,.T.);
#244=ADVANCED_FACE('',(#243),#171,.F.);
#245=CARTESIAN_POINT('',(-0.171875,-0.5,0.3));
#246=DIRECTION('',(-1.0,0.0,0.0));
#247=DIRECTION('',(0.0,1.0,0.0));
#248=AXIS2_PLACEMENT_3D('',#245,#246,#247);
#249=PLANE('',#248);
#250=CARTESIAN_POINT('',(-0.171875,-1.0,0.25));
#251=VERTEX_POINT('',#250);
#252=CARTESIAN_POINT('',(-0.171875,-1.0,-5.896162E-016));
#253=VERTEX_POINT('',#252);
#254=CARTESIAN_POINT('',(-0.171875,-1.0,0.25));
#255=DIRECTION('',(0.0,0.0,-1.0));
#256=VECTOR('',#255,0.25);
#257=LINE('',#254,#256);
#258=EDGE_CURVE('',#251,#253,#257,.T.);
#259=ORIENTED_EDGE('',*,*,#258,.T.);
#260=CARTESIAN_POINT('',(-0.171875,-0.5,-5.368156E-017));
#261=DIRECTION('',(0.0,-1.0,0.0));
#262=VECTOR('',#261,0.5);
#263=LINE('',#260,#262);
#264=EDGE_CURVE('',#175,#253,#263,.T.);
#265=ORIENTED_EDGE('',*,*,#264,.F.);
#266=ORIENTED_EDGE('',*,*,#180,.F.);
#267=CARTESIAN_POINT('',(-0.171875,-0.562,0.25));
#268=VERTEX_POINT('',#267);
#269=CARTESIAN_POINT('',(-0.171875,-0.562,0.562));
#270=DIRECTION('',(1.0,5.397326E-017,-5.397326E-017));
#271=DIRECTION('',(-7.632972E-017,0.707106781186548,-0.707106781186547));
#272=AXIS2_PLACEMENT_3D('',#269,#270,#271);
#273=CIRCLE('',#272,0.312);
#274=EDGE_CURVE('',#268,#173,#273,.T.);
#275=ORIENTED_EDGE('',*,*,#274,.F.);
#276=CARTESIAN_POINT('',(-0.171875,-1.0,0.25));
#277=DIRECTION('',(0.0,1.0,0.0));
#278=VECTOR('',#277,0.438);
#279=LINE('',#276,#278);
#280=EDGE_CURVE('',#251,#268,#279,.T.);
#281=ORIENTED_EDGE('',*,*,#280,.F.);
#282=EDGE_LOOP('',(#259,#265,#266,#275,#281));
#283=FACE_OUTER_BOUND('',#282,.T.);
#284=ADVANCED_FACE('',(#283),#249,.F.);
#285=CARTESIAN_POINT('',(0.0,-1.0,0.299999999999999));
#286=DIRECTION('',(-2.832749E-016,1.836910E-016,-1.0));
#287=DIRECTION('',(0.0,-1.0,0.0));
#288=AXIS2_PLACEMENT_3D('',#285,#286,#287);
#289=CYLINDRICAL_SURFACE('',#288,0.171875);
#290=CARTESIAN_POINT('',(0.171875,-1.0,0.25));
#291=VERTEX_POINT('',#290);
#292=CARTESIAN_POINT('',(0.171875,-1.0,-6.659441E-016));
#293=VERTEX_POINT('',#292);
#294=CARTESIAN_POINT('',(0.171875,-1.0,0.25));
#295=DIRECTION('',(0.0,0.0,-1.0));
#296=VECTOR('',#295,0.25);
#297=LINE('',#294,#296);
#298=EDGE_CURVE('',#291,#293,#297,.T.);
#299=ORIENTED_EDGE('',*,*,#298,.T.);
#300=CARTESIAN_POINT('',(-1.110223E-016,-1.0,-1.836910E-016));
#301=DIRECTION('',(0.0,0.0,1.0));
#302=DIRECTION('',(0.0,-1.0,0.0));
#303=AXIS2_PLACEMENT_3D('',#300,#301,#302);
#304=CIRCLE('',#303,0.171875);
#305=EDGE_CURVE('',#253,#293,#304,.T.);
#306=ORIENTED_EDGE('',*,*,#305,.F.);
#307=ORIENTED_EDGE('',*,*,#258,.F.);
#308=CARTESIAN_POINT('',(-1.110223E-016,-1.0,0.25));
#309=DIRECTION('',(0.0,0.0,-1.0));
#310=DIRECTION('',(0.0,-1.0,0.0));
#311=AXIS2_PLACEMENT_3D('',#308,#309,#310);
#312=CIRCLE('',#311,0.171875);
#313=EDGE_CURVE('',#291,#251,#312,.T.);
#314=ORIENTED_EDGE('',*,*,#313,.F.);
#315=EDGE_LOOP('',(#299,#306,#307,#314));
#316=FACE_OUTER_BOUND('',#315,.T.);
#317=ADVANCED_FACE('',(#316),#289,.F.);
#318=CARTESIAN_POINT('',(0.171875,-1.0,0.299999999999999));
#319=DIRECTION('',(1.0,0.0,0.0));
#320=DIRECTION('',(0.0,-1.0,0.0));
#321=AXIS2_PLACEMENT_3D('',#318,#319,#320);
#322=PLANE('',#321);
#323=ORIENTED_EDGE('',*,*,#197,.T.);
#324=CARTESIAN_POINT('',(0.171875,-1.0,-2.218549E-016));
#325=DIRECTION('',(0.0,1.0,0.0));
#326=VECTOR('',#325,0.5);
#327=LINE('',#324,#326);
#328=EDGE_CURVE('',#293,#183,#327,.T.);
#329=ORIENTED_EDGE('',*,*,#328,.F.);
#330=ORIENTED_EDGE('',*,*,#298,.F.);
#331=CARTESIAN_POINT('',(0.171875,-0.562,0.25));
#332=VERTEX_POINT('',#331);
#333=CARTESIAN_POINT('',(0.171875,-0.562,0.25));
#334=DIRECTION('',(0.0,-1.0,0.0));
#335=VECTOR('',#334,0.438);
#336=LINE('',#333,#335);
#337=EDGE_CURVE('',#332,#291,#336,.T.);
#338=ORIENTED_EDGE('',*,*,#337,.F.);
#339=CARTESIAN_POINT('',(0.171875,-0.562,0.562));
#340=DIRECTION('',(-1.0,-5.397326E-017,5.397326E-017));
#341=DIRECTION('',(-7.632972E-017,0.707106781186548,-0.707106781186547));
#342=AXIS2_PLACEMENT_3D('',#339,#340,#341);
#343=CIRCLE('',#342,0.312);
#344=EDGE_CURVE('',#192,#332,#343,.T.);
#345=ORIENTED_EDGE('',*,*,#344,.F.);
#346=EDGE_LOOP('',(#323,#329,#330,#338,#345));
#347=FACE_OUTER_BOUND('',#346,.T.);
#348=ADVANCED_FACE('',(#347),#322,.F.);
#349=CARTESIAN_POINT('',(0.65625,-0.562,0.25));
#350=DIRECTION('',(0.0,0.0,1.0));
#351=DIRECTION('',(0.0,-1.0,0.0));
#352=AXIS2_PLACEMENT_3D('',#349,#350,#351);
#353=PLANE('',#352);
#354=ORIENTED_EDGE('',*,*,#337,.T.);
#355=ORIENTED_EDGE('',*,*,#313,.T.);
#356=ORIENTED_EDGE('',*,*,#280,.T.);
#357=CARTESIAN_POINT('',(-0.65625,-0.562,0.25));
#358=VERTEX_POINT('',#357);
#359=CARTESIAN_POINT('',(-0.171875,-0.562,0.25));
#360=DIRECTION('',(-1.0,0.0,0.0));
#361=VECTOR('',#360,0.484375);
#362=LINE('',#359,#361);
#363=EDGE_CURVE('',#268,#358,#362,.T.);
#364=ORIENTED_EDGE('',*,*,#363,.T.);
#365=CARTESIAN_POINT('',(-0.65625,-1.25,0.25));
#366=VERTEX_POINT('',#365);
#367=CARTESIAN_POINT('',(-0.65625,-0.562,0.25));
#368=DIRECTION('',(0.0,-1.0,0.0));
#369=VECTOR('',#368,0.688);
#370=LINE('',#367,#369);
#371=EDGE_CURVE('',#358,#366,#370,.T.);
#372=ORIENTED_EDGE('',*,*,#371,.T.);
#373=CARTESIAN_POINT('',(0.65625,-1.25,0.25));
#374=VERTEX_POINT('',#373);
#375=CARTESIAN_POINT('',(0.65625,-1.25,0.25));
#376=DIRECTION('',(-1.0,0.0,0.0));
#377=VECTOR('',#376,1.3125);
#378=LINE('',#375,#377);
#379=EDGE_CURVE('',#374,#366,#378,.T.);
#380=ORIENTED_EDGE('',*,*,#379,.F.);
#381=CARTESIAN_POINT('',(0.65625,-0.562,0.25));
#382=VERTEX_POINT('',#381);
#383=CARTESIAN_POINT('',(0.65625,-1.25,0.25));
#384=DIRECTION('',(0.0,1.0,0.0));
#385=VECTOR('',#384,0.688);
#386=LINE('',#383,#385);
#387=EDGE_CURVE('',#374,#382,#386,.T.);
#388=ORIENTED_EDGE('',*,*,#387,.T.);
#389=CARTESIAN_POINT('',(0.65625,-0.562,0.25));
#390=DIRECTION('',(-1.0,0.0,0.0));
#391=VECTOR('',#390,0.484375);
#392=LINE('',#389,#391);
#393=EDGE_CURVE('',#382,#332,#392,.T.);
#394=ORIENTED_EDGE('',*,*,#393,.T.);
#395=EDGE_LOOP('',(#354,#355,#356,#364,#372,#380,#388,#394));
#396=FACE_OUTER_BOUND('',#395,.T.);
#397=ADVANCED_FACE('',(#396),#353,.T.);
#398=CARTESIAN_POINT('',(3.330669E-016,0.0,0.75));
#399=DIRECTION('',(-3.445052E-016,-1.0,-1.836910E-016));
#400=DIRECTION('',(0.0,0.0,-1.0));
#401=AXIS2_PLACEMENT_3D('',#398,#399,#400);
#402=CYLINDRICAL_SURFACE('',#401,0.171875);
#403=ORIENTED_EDGE('',*,*,#138,.T.);
#404=CARTESIAN_POINT('',(2.220446E-016,-0.25,0.75));
#405=DIRECTION('',(0.0,1.0,0.0));
#406=DIRECTION('',(0.0,0.0,-1.0));
#407=AXIS2_PLACEMENT_3D('',#404,#405,#406);
#408=CIRCLE('',#407,0.171875);
#409=EDGE_CURVE('',#150,#133,#408,.T.);
#410=ORIENTED_EDGE('',*,*,#409,.F.);
#411=ORIENTED_EDGE('',*,*,#155,.F.);
#412=CARTESIAN_POINT('',(3.330669E-016,0.0,0.75));
#413=DIRECTION('',(0.0,-1.0,0.0));
#414=DIRECTION('',(0.0,0.0,-1.0));
#415=AXIS2_PLACEMENT_3D('',#412,#413,#414);
#416=CIRCLE('',#415,0.171875);
#417=EDGE_CURVE('',#131,#141,#416,.T.);
#418=ORIENTED_EDGE('',*,*,#417,.F.);
#419=EDGE_LOOP('',(#403,#410,#411,#418));
#420=FACE_OUTER_BOUND('',#419,.T.);
#421=ADVANCED_FACE('',(#420),#402,.F.);
#422=CARTESIAN_POINT('',(0.65625,-1.5,-4.212532E-016));
#423=DIRECTION('',(0.0,0.0,-1.0));
#424=DIRECTION('',(0.0,1.0,0.0));
#425=AXIS2_PLACEMENT_3D('',#422,#423,#424);
#426=PLANE('',#425);
#427=CARTESIAN_POINT('',(-0.65625,-1.5,-1.298197E-016));
#428=VERTEX_POINT('',#427);
#429=CARTESIAN_POINT('',(-0.65625,0.0,1.457168E-016));
#430=VERTEX_POINT('',#429);
#431=CARTESIAN_POINT('',(-0.65625,-1.5,-1.298197E-016));
#432=DIRECTION('',(0.0,1.0,0.0));
#433=VECTOR('',#432,1.5);
#434=LINE('',#431,#433);
#435=EDGE_CURVE('',#428,#430,#434,.T.);
#436=ORIENTED_EDGE('',*,*,#435,.T.);
#437=CARTESIAN_POINT('',(0.65625,0.0,-1.457168E-016));
#438=VERTEX_POINT('',#437);
#439=CARTESIAN_POINT('',(0.65625,0.0,-1.457168E-016));
#440=DIRECTION('',(-1.0,0.0,0.0));
#441=VECTOR('',#440,1.3125);
#442=LINE('',#439,#441);
#443=EDGE_CURVE('',#438,#430,#442,.T.);
#444=ORIENTED_EDGE('',*,*,#443,.F.);
#445=CARTESIAN_POINT('',(0.65625,-1.5,-4.212532E-016));
#446=VERTEX_POINT('',#445);
#447=CARTESIAN_POINT('',(0.65625,0.0,-1.457168E-016));
#448=DIRECTION('',(0.0,-1.0,0.0));
#449=VECTOR('',#448,1.5);
#450=LINE('',#447,#449);
#451=EDGE_CURVE('',#438,#446,#450,.T.);
#452=ORIENTED_EDGE('',*,*,#451,.T.);
#453=CARTESIAN_POINT('',(0.65625,-1.5,-4.212532E-016));
#454=DIRECTION('',(-1.0,0.0,0.0));
#455=VECTOR('',#454,1.3125);
#456=LINE('',#453,#455);
#457=EDGE_CURVE('',#446,#428,#456,.T.);
#458=ORIENTED_EDGE('',*,*,#457,.T.);
#459=EDGE_LOOP('',(#436,#444,#452,#458));
#460=FACE_OUTER_BOUND('',#459,.T.);
#461=ORIENTED_EDGE('',*,*,#328,.T.);
#462=ORIENTED_EDGE('',*,*,#189,.T.);
#463=ORIENTED_EDGE('',*,*,#264,.T.);
#464=ORIENTED_EDGE('',*,*,#305,.T.);
#465=EDGE_LOOP('',(#461,#462,#463,#464));
#466=FACE_BOUND('',#465,.T.);
#467=ADVANCED_FACE('',(#460,#466),#426,.T.);
#468=CARTESIAN_POINT('',(0.65625,0.0,-1.457168E-016));
#469=DIRECTION('',(0.0,1.0,0.0));
#470=DIRECTION('',(0.0,0.0,1.0));
#471=AXIS2_PLACEMENT_3D('',#468,#469,#470);
#472=PLANE('',#471);
#473=CARTESIAN_POINT('',(-0.65625,0.0,1.5));
#474=VERTEX_POINT('',#473);
#475=CARTESIAN_POINT('',(-0.65625,2.755364E-016,2.220446E-016));
#476=DIRECTION('',(0.0,0.0,1.0));
#477=VECTOR('',#476,1.5);
#478=LINE('',#475,#477);
#479=EDGE_CURVE('',#430,#474,#478,.T.);
#480=ORIENTED_EDGE('',*,*,#479,.T.);
#481=CARTESIAN_POINT('',(0.65625,-4.440892E-016,1.5));
#482=VERTEX_POINT('',#481);
#483=CARTESIAN_POINT('',(0.65625,-4.440892E-016,1.5));
#484=DIRECTION('',(-1.0,0.0,0.0));
#485=VECTOR('',#484,1.3125);
#486=LINE('',#483,#485);
#487=EDGE_CURVE('',#482,#474,#486,.T.);
#488=ORIENTED_EDGE('',*,*,#487,.F.);
#489=CARTESIAN_POINT('',(0.65625,-4.440892E-016,1.5));
#490=DIRECTION('',(0.0,0.0,-1.0));
#491=VECTOR('',#490,1.5);
#492=LINE('',#489,#491);
#493=EDGE_CURVE('',#482,#438,#492,.T.);
#494=ORIENTED_EDGE('',*,*,#493,.T.);
#495=ORIENTED_EDGE('',*,*,#443,.T.);
#496=EDGE_LOOP('',(#480,#488,#494,#495));
#497=FACE_OUTER_BOUND('',#496,.T.);
#498=ORIENTED_EDGE('',*,*,#417,.T.);
#499=ORIENTED_EDGE('',*,*,#147,.T.);
#500=EDGE_LOOP('',(#498,#499));
#501=FACE_BOUND('',#500,.T.);
#502=ADVANCED_FACE('',(#497,#501),#472,.T.);
#503=CARTESIAN_POINT('',(0.65625,-4.440892E-016,1.25));
#504=DIRECTION('',(-1.0,1.753284E-016,2.832749E-016));
#505=DIRECTION('',(7.632972E-017,-0.707106781186548,0.707106781186547));
#506=AXIS2_PLACEMENT_3D('',#503,#504,#505);
#507=CYLINDRICAL_SURFACE('',#506,0.25);
#508=CARTESIAN_POINT('',(-0.65625,-0.25,1.25));
#509=VERTEX_POINT('',#508);
#510=CARTESIAN_POINT('',(-0.65625,0.0,1.25));
#511=DIRECTION('',(1.0,8.040714E-017,-8.040714E-017));
#512=DIRECTION('',(1.137129E-016,-0.707106781186548,0.707106781186547));
#513=AXIS2_PLACEMENT_3D('',#510,#511,#512);
#514=CIRCLE('',#513,0.25);
#515=EDGE_CURVE('',#474,#509,#514,.T.);
#516=ORIENTED_EDGE('',*,*,#515,.T.);
#517=CARTESIAN_POINT('',(0.65625,-0.25,1.25));
#518=VERTEX_POINT('',#517);
#519=CARTESIAN_POINT('',(0.65625,-0.25,1.25));
#520=DIRECTION('',(-1.0,0.0,0.0));
#521=VECTOR('',#520,1.3125);
#522=LINE('',#519,#521);
#523=EDGE_CURVE('',#518,#509,#522,.T.);
#524=ORIENTED_EDGE('',*,*,#523,.F.);
#525=CARTESIAN_POINT('',(0.65625,-4.440892E-016,1.25));
#526=DIRECTION('',(-1.0,-8.040714E-017,8.040714E-017));
#527=DIRECTION('',(1.137129E-016,-0.707106781186548,0.707106781186547));
#528=AXIS2_PLACEMENT_3D('',#525,#526,#527);
#529=CIRCLE('',#528,0.25);
#530=EDGE_CURVE('',#518,#482,#529,.T.);
#531=ORIENTED_EDGE('',*,*,#530,.T.);
#532=ORIENTED_EDGE('',*,*,#487,.T.);
#533=EDGE_LOOP('',(#516,#524,#531,#532));
#534=FACE_OUTER_BOUND('',#533,.T.);
#535=ADVANCED_FACE('',(#534),#507,.T.);
#536=CARTESIAN_POINT('',(0.65625,-0.25,1.25));
#537=DIRECTION('',(0.0,-1.0,0.0));
#538=DIRECTION('',(0.0,0.0,-1.0));
#539=AXIS2_PLACEMENT_3D('',#536,#537,#538);
#540=PLANE('',#539);
#541=CARTESIAN_POINT('',(-0.65625,-0.25,0.562));
#542=VERTEX_POINT('',#541);
#543=CARTESIAN_POINT('',(-0.65625,-0.25,1.25));
#544=DIRECTION('',(0.0,0.0,-1.0));
#545=VECTOR('',#544,0.688);
#546=LINE('',#543,#545);
#547=EDGE_CURVE('',#509,#542,#546,.T.);
#548=ORIENTED_EDGE('',*,*,#547,.T.);
#549=CARTESIAN_POINT('',(0.65625,-0.25,0.562));
#550=VERTEX_POINT('',#549);
#551=CARTESIAN_POINT('',(0.65625,-0.25,0.562));
#552=DIRECTION('',(-1.0,0.0,0.0));
#553=VECTOR('',#552,1.3125);
#554=LINE('',#551,#553);
#555=EDGE_CURVE('',#550,#542,#554,.T.);
#556=ORIENTED_EDGE('',*,*,#555,.F.);
#557=CARTESIAN_POINT('',(0.65625,-0.25,0.562));
#558=DIRECTION('',(0.0,0.0,1.0));
#559=VECTOR('',#558,0.688);
#560=LINE('',#557,#559);
#561=EDGE_CURVE('',#550,#518,#560,.T.);
#562=ORIENTED_EDGE('',*,*,#561,.T.);
#563=ORIENTED_EDGE('',*,*,#523,.T.);
#564=EDGE_LOOP('',(#548,#556,#562,#563));
#565=FACE_OUTER_BOUND('',#564,.T.);
#566=ORIENTED_EDGE('',*,*,#409,.T.);
#567=ORIENTED_EDGE('',*,*,#162,.T.);
#568=EDGE_LOOP('',(#566,#567));
#569=FACE_BOUND('',#568,.T.);
#570=ADVANCED_FACE('',(#565,#569),#540,.T.);
#571=CARTESIAN_POINT('',(0.65625,-0.562,0.561999999999999));
#572=DIRECTION('',(-1.0,1.753284E-016,2.832749E-016));
#573=DIRECTION('',(-7.632972E-017,0.707106781186548,-0.707106781186547));
#574=AXIS2_PLACEMENT_3D('',#571,#572,#573);
#575=CYLINDRICAL_SURFACE('',#574,0.312);
#576=ORIENTED_EDGE('',*,*,#231,.T.);
#577=ORIENTED_EDGE('',*,*,#208,.T.);
#578=ORIENTED_EDGE('',*,*,#344,.T.);
#579=ORIENTED_EDGE('',*,*,#393,.F.);
#580=CARTESIAN_POINT('',(0.65625,-0.562,0.561999999999999));
#581=DIRECTION('',(1.0,8.040714E-017,-8.040714E-017));
#582=DIRECTION('',(-1.137129E-016,0.707106781186548,-0.707106781186547));
#583=AXIS2_PLACEMENT_3D('',#580,#581,#582);
#584=CIRCLE('',#583,0.312);
#585=EDGE_CURVE('',#382,#550,#584,.T.);
#586=ORIENTED_EDGE('',*,*,#585,.T.);
#587=ORIENTED_EDGE('',*,*,#555,.T.);
#588=CARTESIAN_POINT('',(-0.65625,-0.562,0.562));
#589=DIRECTION('',(-1.0,-8.040714E-017,8.040714E-017));
#590=DIRECTION('',(-1.137129E-016,0.707106781186548,-0.707106781186547));
#591=AXIS2_PLACEMENT_3D('',#588,#589,#590);
#592=CIRCLE('',#591,0.312);
#593=EDGE_CURVE('',#542,#358,#592,.T.);
#594=ORIENTED_EDGE('',*,*,#593,.T.);
#595=ORIENTED_EDGE('',*,*,#363,.F.);
#596=ORIENTED_EDGE('',*,*,#274,.T.);
#597=ORIENTED_EDGE('',*,*,#240,.T.);
#598=EDGE_LOOP('',(#576,#577,#578,#579,#586,#587,#594,#595,#596,#597));
#599=FACE_OUTER_BOUND('',#598,.T.);
#600=ADVANCED_FACE('',(#599),#575,.F.);
#601=CARTESIAN_POINT('',(0.65625,-1.25,-3.753305E-016));
#602=DIRECTION('',(-1.0,1.753284E-016,2.832749E-016));
#603=DIRECTION('',(7.632972E-017,-0.707106781186548,0.707106781186547));
#604=AXIS2_PLACEMENT_3D('',#601,#602,#603);
#605=CYLINDRICAL_SURFACE('',#604,0.25);
#606=CARTESIAN_POINT('',(-0.65625,-1.25,-8.389692E-017));
#607=DIRECTION('',(1.0,8.040714E-017,-8.040714E-017));
#608=DIRECTION('',(1.137129E-016,-0.707106781186548,0.707106781186547));
#609=AXIS2_PLACEMENT_3D('',#606,#607,#608);
#610=CIRCLE('',#609,0.25);
#611=EDGE_CURVE('',#366,#428,#610,.T.);
#612=ORIENTED_EDGE('',*,*,#611,.T.);
#613=ORIENTED_EDGE('',*,*,#457,.F.);
#614=CARTESIAN_POINT('',(0.65625,-1.25,-3.753305E-016));
#615=DIRECTION('',(-1.0,-8.040714E-017,8.040714E-017));
#616=DIRECTION('',(1.137129E-016,-0.707106781186548,0.707106781186547));
#617=AXIS2_PLACEMENT_3D('',#614,#615,#616);
#618=CIRCLE('',#617,0.25);
#619=EDGE_CURVE('',#446,#374,#618,.T.);
#620=ORIENTED_EDGE('',*,*,#619,.T.);
#621=ORIENTED_EDGE('',*,*,#379,.T.);
#622=EDGE_LOOP('',(#612,#613,#620,#621));
#623=FACE_OUTER_BOUND('',#622,.T.);
#624=ADVANCED_FACE('',(#623),#605,.T.);
#625=CARTESIAN_POINT('',(0.65625,-0.575693607486307,0.575693607486307));
#626=DIRECTION('',(-1.0,0.0,0.0));
#627=DIRECTION('',(0.0,1.0,0.0));
#628=AXIS2_PLACEMENT_3D('',#625,#626,#627);
#629=PLANE('',#628);
#630=ORIENTED_EDGE('',*,*,#619,.F.);
#631=ORIENTED_EDGE('',*,*,#451,.F.);
#632=ORIENTED_EDGE('',*,*,#493,.F.);
#633=ORIENTED_EDGE('',*,*,#530,.F.);
#634=ORIENTED_EDGE('',*,*,#561,.F.);
#635=ORIENTED_EDGE('',*,*,#585,.F.);
#636=ORIENTED_EDGE('',*,*,#387,.F.);
#637=EDGE_LOOP('',(#630,#631,#632,#633,#634,#635,#636));
#638=FACE_OUTER_BOUND('',#637,.T.);
#639=ADVANCED_FACE('',(#638),#629,.F.);
#640=CARTESIAN_POINT('',(-0.65625,-1.5,-1.298197E-016));
#641=DIRECTION('',(-1.0,0.0,0.0));
#642=DIRECTION('',(0.0,1.0,0.0));
#643=AXIS2_PLACEMENT_3D('',#640,#641,#642);
#644=PLANE('',#643);
#645=ORIENTED_EDGE('',*,*,#435,.F.);
#646=ORIENTED_EDGE('',*,*,#611,.F.);
#647=ORIENTED_EDGE('',*,*,#371,.F.);
#648=ORIENTED_EDGE('',*,*,#593,.F.);
#649=ORIENTED_EDGE('',*,*,#547,.F.);
#650=ORIENTED_EDGE('',*,*,#515,.F.);
#651=ORIENTED_EDGE('',*,*,#479,.F.);
#652=EDGE_LOOP('',(#645,#646,#647,#648,#649,#650,#651));
#653=FACE_OUTER_BOUND('',#652,.T.);
#654=ADVANCED_FACE('',(#653),#644,.T.);
#655=CLOSED_SHELL('',(#166,#244,#284,#317,#348,#397,#421,#467,#502,#535,#570,#600,#624,#639,#654));
#656=MANIFOLD_SOLID_BREP('2F',#655);
#657=ADVANCED_BREP_SHAPE_REPRESENTATION('ABSR1',(#656),#28);
#658=SHAPE_REPRESENTATION_RELATIONSHIP('SRRPL1','',#657,#122);
ENDSEC;
END-ISO-10303-21;
