ISO-10303-21;
HEADER;
/****************************************************************
 * Generated by software with PDElib inside                    *
 * PDElib Version v51a, created Fri 09/10/2010                  *
 * ITI Transcendata (http://www.transcendata.com/)              *
 ****************************************************************/
FILE_DESCRIPTION((''),'2;1');
FILE_NAME('15AC8705.stp','2015-07-16T10:49:37',(''),(''),'Mechanical Desktop 2011','Mechanical Desktop 2011',', , ');
FILE_SCHEMA(('CONFIG_CONTROL_DESIGN'));
ENDSEC;
DATA;
#10=(NAMED_UNIT(*)PLANE_ANGLE_UNIT()SI_UNIT($,.RADIAN.));
#11=DIMENSIONAL_EXPONENTS(0.0,0.0,0.0,0.0,0.0,0.0,0.0);
#12=PLANE_ANGLE_MEASURE_WITH_UNIT(PLANE_ANGLE_MEASURE(0.0174532925),#10);
#16=(CONVERSION_BASED_UNIT('DEGREE',#12)NAMED_UNIT(#11)PLANE_ANGLE_UNIT());
#20=(NAMED_UNIT(*)SI_UNIT($,.STERADIAN.)SOLID_ANGLE_UNIT());
#24=(LENGTH_UNIT()NAMED_UNIT(*)SI_UNIT(.MILLI.,.METRE.));
#26=UNCERTAINTY_MEASURE_WITH_UNIT(LENGTH_MEASURE(0.000001),#24,'DISTANCE_ACCURACY_VALUE','');
#28=(GEOMETRIC_REPRESENTATION_CONTEXT(3)GLOBAL_UNCERTAINTY_ASSIGNED_CONTEXT((#26))GLOBAL_UNIT_ASSIGNED_CONTEXT((#16,#20,#24))REPRESENTATION_CONTEXT('','3D'));
#29=APPLICATION_CONTEXT('CONFIGURATION CONTROLLED 3D DESIGNS OF MECHANICAL PARTS AND ASSEMBLIES');
#30=APPLICATION_PROTOCOL_DEFINITION('INTERNATIONAL STANDARD','config_control_design',1995,#29);
#31=MECHANICAL_CONTEXT('3D Mechanical Parts',#29,'mechanical');
#32=PRODUCT('Product','Product',' ',(#31));
#33=PRODUCT_RELATED_PRODUCT_CATEGORY('detail',$,(#32));
#34=PRODUCT_CATEGORY('part',$);
#35=PRODUCT_CATEGORY_RELATIONSHIP('None','None',#34,#33);
#36=PERSON('1','Design','Joe',$,$,$);
#37=ORGANIZATION($,'None','None');
#38=PERSON_AND_ORGANIZATION(#36,#37);
#39=PERSON_AND_ORGANIZATION_ROLE('design_owner');
#40=CC_DESIGN_PERSON_AND_ORGANIZATION_ASSIGNMENT(#38,#39,(#32));
#41=PRODUCT_DEFINITION_FORMATION_WITH_SPECIFIED_SOURCE('None','None',#32,.BOUGHT.);
#42=PERSON('2','Creator','Joe',$,$,$);
#43=ORGANIZATION($,'None','None');
#44=PERSON_AND_ORGANIZATION(#42,#43);
#45=PERSON_AND_ORGANIZATION_ROLE('creator');
#46=CC_DESIGN_PERSON_AND_ORGANIZATION_ASSIGNMENT(#44,#45,(#41));
#47=PERSON('3','Supplier','Joe',$,$,$);
#48=ORGANIZATION($,'None','None');
#49=PERSON_AND_ORGANIZATION(#47,#48);
#50=PERSON_AND_ORGANIZATION_ROLE('design_supplier');
#51=CC_DESIGN_PERSON_AND_ORGANIZATION_ASSIGNMENT(#49,#50,(#41));
#52=APPROVAL_STATUS('approved');
#53=APPROVAL(#52,'None');
#54=PERSON('4','Approver','Joe',$,$,$);
#55=ORGANIZATION($,'None','None');
#56=PERSON_AND_ORGANIZATION(#54,#55);
#57=APPROVAL_ROLE('approver');
#58=APPROVAL_PERSON_ORGANIZATION(#56,#53,#57);
#59=COORDINATED_UNIVERSAL_TIME_OFFSET(8,$,.EXACT.);
#60=CALENDAR_DATE(1996,29,5);
#61=LOCAL_TIME(12,0,0.0,#59);
#62=DATE_AND_TIME(#60,#61);
#63=APPROVAL_DATE_TIME(#62,#53);
#64=CC_DESIGN_APPROVAL(#53,(#41));
#65=SECURITY_CLASSIFICATION_LEVEL('unclassified');
#66=SECURITY_CLASSIFICATION('security','None',#65);
#67=CC_DESIGN_SECURITY_CLASSIFICATION(#66,(#41));
#68=APPROVAL_STATUS('approved');
#69=APPROVAL(#68,'None');
#70=PERSON('5','Approver','Joe',$,$,$);
#71=ORGANIZATION($,'None','None');
#72=PERSON_AND_ORGANIZATION(#70,#71);
#73=APPROVAL_ROLE('approver');
#74=APPROVAL_PERSON_ORGANIZATION(#72,#69,#73);
#75=COORDINATED_UNIVERSAL_TIME_OFFSET(8,$,.EXACT.);
#76=CALENDAR_DATE(1996,29,5);
#77=LOCAL_TIME(12,0,0.0,#75);
#78=DATE_AND_TIME(#76,#77);
#79=APPROVAL_DATE_TIME(#78,#69);
#80=CC_DESIGN_APPROVAL(#69,(#66));
#81=PERSON('6','Classifier','Joe',$,$,$);
#82=ORGANIZATION($,'None','None');
#83=PERSON_AND_ORGANIZATION(#81,#82);
#84=PERSON_AND_ORGANIZATION_ROLE('classification_officer');
#85=CC_DESIGN_PERSON_AND_ORGANIZATION_ASSIGNMENT(#83,#84,(#66));
#86=COORDINATED_UNIVERSAL_TIME_OFFSET(8,$,.EXACT.);
#87=CALENDAR_DATE(1996,29,5);
#88=LOCAL_TIME(12,0,0.0,#86);
#89=DATE_AND_TIME(#87,#88);
#90=DATE_TIME_ROLE('classification_date');
#91=CC_DESIGN_DATE_AND_TIME_ASSIGNMENT(#89,#90,(#66));
#92=DESIGN_CONTEXT('Design Context',#29,'design');
#93=PRODUCT_DEFINITION('None','None',#41,#92);
#94=PERSON('7','Creator','Joe',$,$,$);
#95=ORGANIZATION($,'None','None');
#96=PERSON_AND_ORGANIZATION(#94,#95);
#97=PERSON_AND_ORGANIZATION_ROLE('creator');
#98=CC_DESIGN_PERSON_AND_ORGANIZATION_ASSIGNMENT(#96,#97,(#93));
#99=COORDINATED_UNIVERSAL_TIME_OFFSET(8,$,.EXACT.);
#100=CALENDAR_DATE(1996,29,5);
#101=LOCAL_TIME(12,0,0.0,#99);
#102=DATE_AND_TIME(#100,#101);
#103=DATE_TIME_ROLE('creation_date');
#104=CC_DESIGN_DATE_AND_TIME_ASSIGNMENT(#102,#103,(#93));
#105=APPROVAL_STATUS('approved');
#106=APPROVAL(#105,'None');
#107=PERSON('8','Approver','Joe',$,$,$);
#108=ORGANIZATION($,'None','None');
#109=PERSON_AND_ORGANIZATION(#107,#108);
#110=APPROVAL_ROLE('approver');
#111=APPROVAL_PERSON_ORGANIZATION(#109,#106,#110);
#112=COORDINATED_UNIVERSAL_TIME_OFFSET(8,$,.EXACT.);
#113=CALENDAR_DATE(1996,29,5);
#114=LOCAL_TIME(12,0,0.0,#112);
#115=DATE_AND_TIME(#113,#114);
#116=APPROVAL_DATE_TIME(#115,#106);
#117=CC_DESIGN_APPROVAL(#106,(#93));
#118=CARTESIAN_POINT('NONE',(0.0,0.0,0.0));
#119=DIRECTION('NONE',(0.0,0.0,1.0));
#120=DIRECTION('NONE',(1.0,0.0,0.0));
#121=AXIS2_PLACEMENT_3D('NONE',#118,#119,#120);
#122=SHAPE_REPRESENTATION('SR1',(#121),#28);
#123=PRODUCT_DEFINITION_SHAPE('PDS1','Test Part',#93);
#124=SHAPE_DEFINITION_REPRESENTATION(#123,#122);
#125=CARTESIAN_POINT('',(-0.11,0.905,0.44));
#126=DIRECTION('',(-1.224606E-016,-1.0,-2.220446E-016));
#127=DIRECTION('',(-1.0,0.0,0.0));
#128=AXIS2_PLACEMENT_3D('',#125,#126,#127);
#129=CYLINDRICAL_SURFACE('',#128,0.128);
#130=CARTESIAN_POINT('',(-0.238,0.905,0.44));
#131=VERTEX_POINT('',#130);
#132=CARTESIAN_POINT('',(-0.238,-0.345,0.44));
#133=VERTEX_POINT('',#132);
#134=CARTESIAN_POINT('',(-0.238,0.905,0.44));
#135=DIRECTION('',(0.0,-1.0,0.0));
#136=VECTOR('',#135,1.25);
#137=LINE('',#134,#136);
#138=EDGE_CURVE('',#131,#133,#137,.T.);
#139=ORIENTED_EDGE('',*,*,#138,.F.);
#140=CARTESIAN_POINT('',(0.018,0.905,0.44));
#141=VERTEX_POINT('',#140);
#142=CARTESIAN_POINT('',(-0.11,0.905,0.44));
#143=DIRECTION('',(0.0,-1.0,0.0));
#144=DIRECTION('',(-1.0,0.0,0.0));
#145=AXIS2_PLACEMENT_3D('',#142,#143,#144);
#146=CIRCLE('',#145,0.128);
#147=EDGE_CURVE('',#141,#131,#146,.T.);
#148=ORIENTED_EDGE('',*,*,#147,.F.);
#149=CARTESIAN_POINT('',(0.018,-0.345,0.44));
#150=VERTEX_POINT('',#149);
#151=CARTESIAN_POINT('',(0.018,0.905,0.44));
#152=DIRECTION('',(0.0,-1.0,0.0));
#153=VECTOR('',#152,1.25);
#154=LINE('',#151,#153);
#155=EDGE_CURVE('',#141,#150,#154,.T.);
#156=ORIENTED_EDGE('',*,*,#155,.T.);
#157=CARTESIAN_POINT('',(-0.11,-0.345,0.44));
#158=DIRECTION('',(0.0,1.0,0.0));
#159=DIRECTION('',(-1.0,0.0,0.0));
#160=AXIS2_PLACEMENT_3D('',#157,#158,#159);
#161=CIRCLE('',#160,0.128);
#162=EDGE_CURVE('',#133,#150,#161,.T.);
#163=ORIENTED_EDGE('',*,*,#162,.F.);
#164=EDGE_LOOP('',(#139,#148,#156,#163));
#165=FACE_OUTER_BOUND('',#164,.T.);
#166=ADVANCED_FACE('',(#165),#129,.F.);
#167=CARTESIAN_POINT('',(0.188,0.155,0.62));
#168=DIRECTION('',(0.0,0.0,-1.0));
#169=DIRECTION('',(-1.0,0.0,0.0));
#170=AXIS2_PLACEMENT_3D('',#167,#168,#169);
#171=CYLINDRICAL_SURFACE('',#170,0.128);
#172=CARTESIAN_POINT('',(0.06,0.155,0.62));
#173=VERTEX_POINT('',#172);
#174=CARTESIAN_POINT('',(0.06,0.155,-0.12));
#175=VERTEX_POINT('',#174);
#176=CARTESIAN_POINT('',(0.06,0.155,0.62));
#177=DIRECTION('',(0.0,0.0,-1.0));
#178=VECTOR('',#177,0.74);
#179=LINE('',#176,#178);
#180=EDGE_CURVE('',#173,#175,#179,.T.);
#181=ORIENTED_EDGE('',*,*,#180,.F.);
#182=CARTESIAN_POINT('',(0.316,0.155,0.62));
#183=VERTEX_POINT('',#182);
#184=CARTESIAN_POINT('',(0.188,0.155,0.62));
#185=DIRECTION('',(0.0,0.0,1.0));
#186=DIRECTION('',(-1.0,0.0,0.0));
#187=AXIS2_PLACEMENT_3D('',#184,#185,#186);
#188=CIRCLE('',#187,0.128);
#189=EDGE_CURVE('',#173,#183,#188,.T.);
#190=ORIENTED_EDGE('',*,*,#189,.T.);
#191=CARTESIAN_POINT('',(0.316,0.155,-0.12));
#192=VERTEX_POINT('',#191);
#193=CARTESIAN_POINT('',(0.316,0.155,0.62));
#194=DIRECTION('',(0.0,0.0,-1.0));
#195=VECTOR('',#194,0.74);
#196=LINE('',#193,#195);
#197=EDGE_CURVE('',#183,#192,#196,.T.);
#198=ORIENTED_EDGE('',*,*,#197,.T.);
#199=CARTESIAN_POINT('',(0.188,0.155,-0.12));
#200=DIRECTION('',(0.0,0.0,1.0));
#201=DIRECTION('',(-1.0,0.0,0.0));
#202=AXIS2_PLACEMENT_3D('',#199,#200,#201);
#203=CIRCLE('',#202,0.128);
#204=EDGE_CURVE('',#175,#192,#203,.T.);
#205=ORIENTED_EDGE('',*,*,#204,.F.);
#206=EDGE_LOOP('',(#181,#190,#198,#205));
#207=FACE_OUTER_BOUND('',#206,.T.);
#208=ADVANCED_FACE('',(#207),#171,.F.);
#209=CARTESIAN_POINT('',(0.188,0.155,0.88));
#210=DIRECTION('',(0.0,0.0,-1.0));
#211=DIRECTION('',(-1.0,0.0,0.0));
#212=AXIS2_PLACEMENT_3D('',#209,#210,#211);
#213=CYLINDRICAL_SURFACE('',#212,0.205);
#214=CARTESIAN_POINT('',(-0.017,0.155,0.88));
#215=VERTEX_POINT('',#214);
#216=CARTESIAN_POINT('',(-0.017,0.155,0.62));
#217=VERTEX_POINT('',#216);
#218=CARTESIAN_POINT('',(-0.017,0.155,0.88));
#219=DIRECTION('',(0.0,0.0,-1.0));
#220=VECTOR('',#219,0.26);
#221=LINE('',#218,#220);
#222=EDGE_CURVE('',#215,#217,#221,.T.);
#223=ORIENTED_EDGE('',*,*,#222,.F.);
#224=CARTESIAN_POINT('',(0.393,0.155,0.88));
#225=VERTEX_POINT('',#224);
#226=CARTESIAN_POINT('',(0.188,0.155,0.88));
#227=DIRECTION('',(0.0,0.0,-1.0));
#228=DIRECTION('',(-1.0,0.0,0.0));
#229=AXIS2_PLACEMENT_3D('',#226,#227,#228);
#230=CIRCLE('',#229,0.205);
#231=EDGE_CURVE('',#225,#215,#230,.T.);
#232=ORIENTED_EDGE('',*,*,#231,.F.);
#233=CARTESIAN_POINT('',(0.393,0.155,0.62));
#234=VERTEX_POINT('',#233);
#235=CARTESIAN_POINT('',(0.393,0.155,0.88));
#236=DIRECTION('',(0.0,0.0,-1.0));
#237=VECTOR('',#236,0.26);
#238=LINE('',#235,#237);
#239=EDGE_CURVE('',#225,#234,#238,.T.);
#240=ORIENTED_EDGE('',*,*,#239,.T.);
#241=CARTESIAN_POINT('',(0.188,0.155,0.62));
#242=DIRECTION('',(0.0,0.0,1.0));
#243=DIRECTION('',(-1.0,0.0,0.0));
#244=AXIS2_PLACEMENT_3D('',#241,#242,#243);
#245=CIRCLE('',#244,0.205);
#246=EDGE_CURVE('',#217,#234,#245,.T.);
#247=ORIENTED_EDGE('',*,*,#246,.F.);
#248=EDGE_LOOP('',(#223,#232,#240,#247));
#249=FACE_OUTER_BOUND('',#248,.T.);
#250=ADVANCED_FACE('',(#249),#213,.F.);
#251=CARTESIAN_POINT('',(-0.017,0.155,0.62));
#252=DIRECTION('',(0.0,0.0,1.0));
#253=DIRECTION('',(-1.0,0.0,0.0));
#254=AXIS2_PLACEMENT_3D('',#251,#252,#253);
#255=PLANE('',#254);
#256=ORIENTED_EDGE('',*,*,#246,.T.);
#257=CARTESIAN_POINT('',(0.188,0.155,0.62));
#258=DIRECTION('',(0.0,0.0,1.0));
#259=DIRECTION('',(-1.0,0.0,0.0));
#260=AXIS2_PLACEMENT_3D('',#257,#258,#259);
#261=CIRCLE('',#260,0.205);
#262=EDGE_CURVE('',#234,#217,#261,.T.);
#263=ORIENTED_EDGE('',*,*,#262,.T.);
#264=EDGE_LOOP('',(#256,#263));
#265=FACE_OUTER_BOUND('',#264,.T.);
#266=ORIENTED_EDGE('',*,*,#189,.F.);
#267=CARTESIAN_POINT('',(0.188,0.155,0.62));
#268=DIRECTION('',(0.0,0.0,1.0));
#269=DIRECTION('',(-1.0,0.0,0.0));
#270=AXIS2_PLACEMENT_3D('',#267,#268,#269);
#271=CIRCLE('',#270,0.128);
#272=EDGE_CURVE('',#183,#173,#271,.T.);
#273=ORIENTED_EDGE('',*,*,#272,.F.);
#274=EDGE_LOOP('',(#266,#273));
#275=FACE_BOUND('',#274,.T.);
#276=ADVANCED_FACE('',(#265,#275),#255,.T.);
#277=CARTESIAN_POINT('',(0.188,0.155,0.88));
#278=DIRECTION('',(0.0,0.0,-1.0));
#279=DIRECTION('',(-1.0,0.0,0.0));
#280=AXIS2_PLACEMENT_3D('',#277,#278,#279);
#281=CYLINDRICAL_SURFACE('',#280,0.205);
#282=ORIENTED_EDGE('',*,*,#222,.T.);
#283=ORIENTED_EDGE('',*,*,#262,.F.);
#284=ORIENTED_EDGE('',*,*,#239,.F.);
#285=CARTESIAN_POINT('',(0.188,0.155,0.88));
#286=DIRECTION('',(0.0,0.0,-1.0));
#287=DIRECTION('',(-1.0,0.0,0.0));
#288=AXIS2_PLACEMENT_3D('',#285,#286,#287);
#289=CIRCLE('',#288,0.205);
#290=EDGE_CURVE('',#215,#225,#289,.T.);
#291=ORIENTED_EDGE('',*,*,#290,.F.);
#292=EDGE_LOOP('',(#282,#283,#284,#291));
#293=FACE_OUTER_BOUND('',#292,.T.);
#294=ADVANCED_FACE('',(#293),#281,.F.);
#295=CARTESIAN_POINT('',(0.188,0.155,0.62));
#296=DIRECTION('',(0.0,0.0,-1.0));
#297=DIRECTION('',(-1.0,0.0,0.0));
#298=AXIS2_PLACEMENT_3D('',#295,#296,#297);
#299=CYLINDRICAL_SURFACE('',#298,0.128);
#300=ORIENTED_EDGE('',*,*,#180,.T.);
#301=CARTESIAN_POINT('',(0.188,0.155,-0.12));
#302=DIRECTION('',(0.0,0.0,1.0));
#303=DIRECTION('',(-1.0,0.0,0.0));
#304=AXIS2_PLACEMENT_3D('',#301,#302,#303);
#305=CIRCLE('',#304,0.128);
#306=EDGE_CURVE('',#192,#175,#305,.T.);
#307=ORIENTED_EDGE('',*,*,#306,.F.);
#308=ORIENTED_EDGE('',*,*,#197,.F.);
#309=ORIENTED_EDGE('',*,*,#272,.T.);
#310=EDGE_LOOP('',(#300,#307,#308,#309));
#311=FACE_OUTER_BOUND('',#310,.T.);
#312=ADVANCED_FACE('',(#311),#299,.F.);
#313=CARTESIAN_POINT('',(-0.11,0.905,0.44));
#314=DIRECTION('',(-1.224606E-016,-1.0,-2.220446E-016));
#315=DIRECTION('',(-1.0,0.0,0.0));
#316=AXIS2_PLACEMENT_3D('',#313,#314,#315);
#317=CYLINDRICAL_SURFACE('',#316,0.128);
#318=ORIENTED_EDGE('',*,*,#138,.T.);
#319=CARTESIAN_POINT('',(-0.11,-0.345,0.44));
#320=DIRECTION('',(0.0,1.0,0.0));
#321=DIRECTION('',(-1.0,0.0,0.0));
#322=AXIS2_PLACEMENT_3D('',#319,#320,#321);
#323=CIRCLE('',#322,0.128);
#324=EDGE_CURVE('',#150,#133,#323,.T.);
#325=ORIENTED_EDGE('',*,*,#324,.F.);
#326=ORIENTED_EDGE('',*,*,#155,.F.);
#327=CARTESIAN_POINT('',(-0.11,0.905,0.44));
#328=DIRECTION('',(0.0,-1.0,0.0));
#329=DIRECTION('',(-1.0,0.0,0.0));
#330=AXIS2_PLACEMENT_3D('',#327,#328,#329);
#331=CIRCLE('',#330,0.128);
#332=EDGE_CURVE('',#131,#141,#331,.T.);
#333=ORIENTED_EDGE('',*,*,#332,.F.);
#334=EDGE_LOOP('',(#318,#325,#326,#333));
#335=FACE_OUTER_BOUND('',#334,.T.);
#336=ADVANCED_FACE('',(#335),#317,.F.);
#337=CARTESIAN_POINT('',(-0.5,0.31,0.0));
#338=DIRECTION('',(0.0,1.0,0.0));
#339=DIRECTION('',(0.0,0.0,-1.0));
#340=AXIS2_PLACEMENT_3D('',#337,#338,#339);
#341=PLANE('',#340);
#342=CARTESIAN_POINT('',(0.5,0.31,0.0));
#343=VERTEX_POINT('',#342);
#344=CARTESIAN_POINT('',(0.5,0.31,-0.12));
#345=VERTEX_POINT('',#344);
#346=CARTESIAN_POINT('',(0.5,0.31,0.0));
#347=DIRECTION('',(0.0,0.0,-1.0));
#348=VECTOR('',#347,0.12);
#349=LINE('',#346,#348);
#350=EDGE_CURVE('',#343,#345,#349,.T.);
#351=ORIENTED_EDGE('',*,*,#350,.T.);
#352=CARTESIAN_POINT('',(-0.5,0.31,-0.12));
#353=VERTEX_POINT('',#352);
#354=CARTESIAN_POINT('',(-0.5,0.31,-0.12));
#355=DIRECTION('',(1.0,0.0,0.0));
#356=VECTOR('',#355,1.0);
#357=LINE('',#354,#356);
#358=EDGE_CURVE('',#353,#345,#357,.T.);
#359=ORIENTED_EDGE('',*,*,#358,.F.);
#360=CARTESIAN_POINT('',(-0.5,0.31,0.0));
#361=VERTEX_POINT('',#360);
#362=CARTESIAN_POINT('',(-0.5,0.31,0.0));
#363=DIRECTION('',(0.0,0.0,-1.0));
#364=VECTOR('',#363,0.12);
#365=LINE('',#362,#364);
#366=EDGE_CURVE('',#361,#353,#365,.T.);
#367=ORIENTED_EDGE('',*,*,#366,.F.);
#368=CARTESIAN_POINT('',(-0.5,0.31,0.0));
#369=DIRECTION('',(1.0,0.0,0.0));
#370=VECTOR('',#369,1.0);
#371=LINE('',#368,#370);
#372=EDGE_CURVE('',#361,#343,#371,.T.);
#373=ORIENTED_EDGE('',*,*,#372,.T.);
#374=EDGE_LOOP('',(#351,#359,#367,#373));
#375=FACE_OUTER_BOUND('',#374,.T.);
#376=ADVANCED_FACE('',(#375),#341,.T.);
#377=CARTESIAN_POINT('',(-0.5,0.31,-0.12));
#378=DIRECTION('',(0.0,0.0,-1.0));
#379=DIRECTION('',(1.0,0.0,0.0));
#380=AXIS2_PLACEMENT_3D('',#377,#378,#379);
#381=PLANE('',#380);
#382=CARTESIAN_POINT('',(0.5,0.0,-0.12));
#383=VERTEX_POINT('',#382);
#384=CARTESIAN_POINT('',(0.5,0.31,-0.12));
#385=DIRECTION('',(0.0,-1.0,0.0));
#386=VECTOR('',#385,0.31);
#387=LINE('',#384,#386);
#388=EDGE_CURVE('',#345,#383,#387,.T.);
#389=ORIENTED_EDGE('',*,*,#388,.T.);
#390=CARTESIAN_POINT('',(-0.5,0.0,-0.12));
#391=VERTEX_POINT('',#390);
#392=CARTESIAN_POINT('',(-0.5,0.0,-0.12));
#393=DIRECTION('',(1.0,0.0,0.0));
#394=VECTOR('',#393,1.0);
#395=LINE('',#392,#394);
#396=EDGE_CURVE('',#391,#383,#395,.T.);
#397=ORIENTED_EDGE('',*,*,#396,.F.);
#398=CARTESIAN_POINT('',(-0.5,0.31,-0.12));
#399=DIRECTION('',(0.0,-1.0,0.0));
#400=VECTOR('',#399,0.31);
#401=LINE('',#398,#400);
#402=EDGE_CURVE('',#353,#391,#401,.T.);
#403=ORIENTED_EDGE('',*,*,#402,.F.);
#404=ORIENTED_EDGE('',*,*,#358,.T.);
#405=EDGE_LOOP('',(#389,#397,#403,#404));
#406=FACE_OUTER_BOUND('',#405,.T.);
#407=ORIENTED_EDGE('',*,*,#204,.T.);
#408=ORIENTED_EDGE('',*,*,#306,.T.);
#409=EDGE_LOOP('',(#407,#408));
#410=FACE_BOUND('',#409,.T.);
#411=ADVANCED_FACE('',(#406,#410),#381,.T.);
#412=CARTESIAN_POINT('',(-0.5,0.0,-0.12));
#413=DIRECTION('',(0.0,-1.0,0.0));
#414=DIRECTION('',(0.0,0.0,1.0));
#415=AXIS2_PLACEMENT_3D('',#412,#413,#414);
#416=PLANE('',#415);
#417=CARTESIAN_POINT('',(0.5,0.0,-1.110223E-016));
#418=VERTEX_POINT('',#417);
#419=CARTESIAN_POINT('',(0.5,0.0,-0.12));
#420=DIRECTION('',(0.0,0.0,1.0));
#421=VECTOR('',#420,0.12);
#422=LINE('',#419,#421);
#423=EDGE_CURVE('',#383,#418,#422,.T.);
#424=ORIENTED_EDGE('',*,*,#423,.T.);
#425=CARTESIAN_POINT('',(-0.5,0.0,-1.110223E-016));
#426=VERTEX_POINT('',#425);
#427=CARTESIAN_POINT('',(-0.5,0.0,-1.110223E-016));
#428=DIRECTION('',(1.0,0.0,0.0));
#429=VECTOR('',#428,1.0);
#430=LINE('',#427,#429);
#431=EDGE_CURVE('',#426,#418,#430,.T.);
#432=ORIENTED_EDGE('',*,*,#431,.F.);
#433=CARTESIAN_POINT('',(-0.5,0.0,-0.12));
#434=DIRECTION('',(0.0,0.0,1.0));
#435=VECTOR('',#434,0.12);
#436=LINE('',#433,#435);
#437=EDGE_CURVE('',#391,#426,#436,.T.);
#438=ORIENTED_EDGE('',*,*,#437,.F.);
#439=ORIENTED_EDGE('',*,*,#396,.T.);
#440=EDGE_LOOP('',(#424,#432,#438,#439));
#441=FACE_OUTER_BOUND('',#440,.T.);
#442=ADVANCED_FACE('',(#441),#416,.T.);
#443=CARTESIAN_POINT('',(-0.5,0.0,-1.110223E-016));
#444=DIRECTION('',(0.0,0.0,-1.0));
#445=DIRECTION('',(1.0,0.0,0.0));
#446=AXIS2_PLACEMENT_3D('',#443,#444,#445);
#447=PLANE('',#446);
#448=CARTESIAN_POINT('',(0.5,-0.345,-1.110223E-016));
#449=VERTEX_POINT('',#448);
#450=CARTESIAN_POINT('',(0.5,0.0,-1.110223E-016));
#451=DIRECTION('',(0.0,-1.0,0.0));
#452=VECTOR('',#451,0.345);
#453=LINE('',#450,#452);
#454=EDGE_CURVE('',#418,#449,#453,.T.);
#455=ORIENTED_EDGE('',*,*,#454,.T.);
#456=CARTESIAN_POINT('',(-0.5,-0.345,-1.110223E-016));
#457=VERTEX_POINT('',#456);
#458=CARTESIAN_POINT('',(-0.5,-0.345,-1.110223E-016));
#459=DIRECTION('',(1.0,0.0,0.0));
#460=VECTOR('',#459,1.0);
#461=LINE('',#458,#460);
#462=EDGE_CURVE('',#457,#449,#461,.T.);
#463=ORIENTED_EDGE('',*,*,#462,.F.);
#464=CARTESIAN_POINT('',(-0.5,0.0,-1.110223E-016));
#465=DIRECTION('',(0.0,-1.0,0.0));
#466=VECTOR('',#465,0.345);
#467=LINE('',#464,#466);
#468=EDGE_CURVE('',#426,#457,#467,.T.);
#469=ORIENTED_EDGE('',*,*,#468,.F.);
#470=ORIENTED_EDGE('',*,*,#431,.T.);
#471=EDGE_LOOP('',(#455,#463,#469,#470));
#472=FACE_OUTER_BOUND('',#471,.T.);
#473=ADVANCED_FACE('',(#472),#447,.T.);
#474=CARTESIAN_POINT('',(-0.5,-0.345,-1.110223E-016));
#475=DIRECTION('',(0.0,-1.0,0.0));
#476=DIRECTION('',(0.0,0.0,1.0));
#477=AXIS2_PLACEMENT_3D('',#474,#475,#476);
#478=PLANE('',#477);
#479=CARTESIAN_POINT('',(0.5,-0.345,0.88));
#480=VERTEX_POINT('',#479);
#481=CARTESIAN_POINT('',(0.5,-0.345,-1.110223E-016));
#482=DIRECTION('',(0.0,0.0,1.0));
#483=VECTOR('',#482,0.88);
#484=LINE('',#481,#483);
#485=EDGE_CURVE('',#449,#480,#484,.T.);
#486=ORIENTED_EDGE('',*,*,#485,.T.);
#487=CARTESIAN_POINT('',(-0.5,-0.345,0.88));
#488=VERTEX_POINT('',#487);
#489=CARTESIAN_POINT('',(-0.5,-0.345,0.88));
#490=DIRECTION('',(1.0,0.0,0.0));
#491=VECTOR('',#490,1.0);
#492=LINE('',#489,#491);
#493=EDGE_CURVE('',#488,#480,#492,.T.);
#494=ORIENTED_EDGE('',*,*,#493,.F.);
#495=CARTESIAN_POINT('',(-0.5,-0.345,0.88));
#496=DIRECTION('',(0.0,0.0,-1.0));
#497=VECTOR('',#496,0.88);
#498=LINE('',#495,#497);
#499=EDGE_CURVE('',#488,#457,#498,.T.);
#500=ORIENTED_EDGE('',*,*,#499,.T.);
#501=ORIENTED_EDGE('',*,*,#462,.T.);
#502=EDGE_LOOP('',(#486,#494,#500,#501));
#503=FACE_OUTER_BOUND('',#502,.T.);
#504=ORIENTED_EDGE('',*,*,#162,.T.);
#505=ORIENTED_EDGE('',*,*,#324,.T.);
#506=EDGE_LOOP('',(#504,#505));
#507=FACE_BOUND('',#506,.T.);
#508=ADVANCED_FACE('',(#503,#507),#478,.T.);
#509=CARTESIAN_POINT('',(-0.5,-0.345,0.88));
#510=DIRECTION('',(0.0,0.0,1.0));
#511=DIRECTION('',(-1.0,0.0,0.0));
#512=AXIS2_PLACEMENT_3D('',#509,#510,#511);
#513=PLANE('',#512);
#514=CARTESIAN_POINT('',(0.5,0.905,0.88));
#515=VERTEX_POINT('',#514);
#516=CARTESIAN_POINT('',(0.5,-0.345,0.88));
#517=DIRECTION('',(0.0,1.0,0.0));
#518=VECTOR('',#517,1.25);
#519=LINE('',#516,#518);
#520=EDGE_CURVE('',#480,#515,#519,.T.);
#521=ORIENTED_EDGE('',*,*,#520,.T.);
#522=CARTESIAN_POINT('',(-0.5,0.905,0.88));
#523=VERTEX_POINT('',#522);
#524=CARTESIAN_POINT('',(-0.5,0.905,0.88));
#525=DIRECTION('',(1.0,0.0,0.0));
#526=VECTOR('',#525,1.0);
#527=LINE('',#524,#526);
#528=EDGE_CURVE('',#523,#515,#527,.T.);
#529=ORIENTED_EDGE('',*,*,#528,.F.);
#530=CARTESIAN_POINT('',(-0.5,0.905,0.88));
#531=DIRECTION('',(0.0,-1.0,0.0));
#532=VECTOR('',#531,1.25);
#533=LINE('',#530,#532);
#534=EDGE_CURVE('',#523,#488,#533,.T.);
#535=ORIENTED_EDGE('',*,*,#534,.T.);
#536=ORIENTED_EDGE('',*,*,#493,.T.);
#537=EDGE_LOOP('',(#521,#529,#535,#536));
#538=FACE_OUTER_BOUND('',#537,.T.);
#539=ORIENTED_EDGE('',*,*,#290,.T.);
#540=ORIENTED_EDGE('',*,*,#231,.T.);
#541=EDGE_LOOP('',(#539,#540));
#542=FACE_BOUND('',#541,.T.);
#543=ADVANCED_FACE('',(#538,#542),#513,.T.);
#544=CARTESIAN_POINT('',(-0.5,0.905,0.88));
#545=DIRECTION('',(0.0,1.0,0.0));
#546=DIRECTION('',(0.0,0.0,-1.0));
#547=AXIS2_PLACEMENT_3D('',#544,#545,#546);
#548=PLANE('',#547);
#549=CARTESIAN_POINT('',(0.5,0.905,-1.110223E-016));
#550=VERTEX_POINT('',#549);
#551=CARTESIAN_POINT('',(0.5,0.905,0.88));
#552=DIRECTION('',(0.0,0.0,-1.0));
#553=VECTOR('',#552,0.88);
#554=LINE('',#551,#553);
#555=EDGE_CURVE('',#515,#550,#554,.T.);
#556=ORIENTED_EDGE('',*,*,#555,.T.);
#557=CARTESIAN_POINT('',(-0.5,0.905,-1.110223E-016));
#558=VERTEX_POINT('',#557);
#559=CARTESIAN_POINT('',(-0.5,0.905,-1.110223E-016));
#560=DIRECTION('',(1.0,0.0,0.0));
#561=VECTOR('',#560,1.0);
#562=LINE('',#559,#561);
#563=EDGE_CURVE('',#558,#550,#562,.T.);
#564=ORIENTED_EDGE('',*,*,#563,.F.);
#565=CARTESIAN_POINT('',(-0.5,0.905,0.88));
#566=DIRECTION('',(0.0,0.0,-1.0));
#567=VECTOR('',#566,0.88);
#568=LINE('',#565,#567);
#569=EDGE_CURVE('',#523,#558,#568,.T.);
#570=ORIENTED_EDGE('',*,*,#569,.F.);
#571=ORIENTED_EDGE('',*,*,#528,.T.);
#572=EDGE_LOOP('',(#556,#564,#570,#571));
#573=FACE_OUTER_BOUND('',#572,.T.);
#574=ORIENTED_EDGE('',*,*,#332,.T.);
#575=ORIENTED_EDGE('',*,*,#147,.T.);
#576=EDGE_LOOP('',(#574,#575));
#577=FACE_BOUND('',#576,.T.);
#578=ADVANCED_FACE('',(#573,#577),#548,.T.);
#579=CARTESIAN_POINT('',(-0.5,0.905,-1.110223E-016));
#580=DIRECTION('',(0.0,0.0,-1.0));
#581=DIRECTION('',(1.0,0.0,0.0));
#582=AXIS2_PLACEMENT_3D('',#579,#580,#581);
#583=PLANE('',#582);
#584=CARTESIAN_POINT('',(0.5,0.905,-1.110223E-016));
#585=DIRECTION('',(0.0,-1.0,0.0));
#586=VECTOR('',#585,0.595);
#587=LINE('',#584,#586);
#588=EDGE_CURVE('',#550,#343,#587,.T.);
#589=ORIENTED_EDGE('',*,*,#588,.T.);
#590=ORIENTED_EDGE('',*,*,#372,.F.);
#591=CARTESIAN_POINT('',(-0.5,0.905,-1.110223E-016));
#592=DIRECTION('',(0.0,-1.0,0.0));
#593=VECTOR('',#592,0.595);
#594=LINE('',#591,#593);
#595=EDGE_CURVE('',#558,#361,#594,.T.);
#596=ORIENTED_EDGE('',*,*,#595,.F.);
#597=ORIENTED_EDGE('',*,*,#563,.T.);
#598=EDGE_LOOP('',(#589,#590,#596,#597));
#599=FACE_OUTER_BOUND('',#598,.T.);
#600=ADVANCED_FACE('',(#599),#583,.T.);
#601=CARTESIAN_POINT('',(0.5,0.31,0.0));
#602=DIRECTION('',(-1.0,0.0,0.0));
#603=DIRECTION('',(0.0,0.0,-1.0));
#604=AXIS2_PLACEMENT_3D('',#601,#602,#603);
#605=PLANE('',#604);
#606=ORIENTED_EDGE('',*,*,#350,.F.);
#607=ORIENTED_EDGE('',*,*,#588,.F.);
#608=ORIENTED_EDGE('',*,*,#555,.F.);
#609=ORIENTED_EDGE('',*,*,#520,.F.);
#610=ORIENTED_EDGE('',*,*,#485,.F.);
#611=ORIENTED_EDGE('',*,*,#454,.F.);
#612=ORIENTED_EDGE('',*,*,#423,.F.);
#613=ORIENTED_EDGE('',*,*,#388,.F.);
#614=EDGE_LOOP('',(#606,#607,#608,#609,#610,#611,#612,#613));
#615=FACE_OUTER_BOUND('',#614,.T.);
#616=ADVANCED_FACE('',(#615),#605,.F.);
#617=CARTESIAN_POINT('',(-0.5,0.905,0.88));
#618=DIRECTION('',(-1.0,0.0,0.0));
#619=DIRECTION('',(0.0,0.0,-1.0));
#620=AXIS2_PLACEMENT_3D('',#617,#618,#619);
#621=PLANE('',#620);
#622=ORIENTED_EDGE('',*,*,#595,.T.);
#623=ORIENTED_EDGE('',*,*,#366,.T.);
#624=ORIENTED_EDGE('',*,*,#402,.T.);
#625=ORIENTED_EDGE('',*,*,#437,.T.);
#626=ORIENTED_EDGE('',*,*,#468,.T.);
#627=ORIENTED_EDGE('',*,*,#499,.F.);
#628=ORIENTED_EDGE('',*,*,#534,.F.);
#629=ORIENTED_EDGE('',*,*,#569,.T.);
#630=EDGE_LOOP('',(#622,#623,#624,#625,#626,#627,#628,#629));
#631=FACE_OUTER_BOUND('',#630,.T.);
#632=ADVANCED_FACE('',(#631),#621,.T.);
#633=CLOSED_SHELL('',(#166,#208,#250,#276,#294,#312,#336,#376,#411,#442,#473,#508,#543,#578,#600,#616,#632));
#634=MANIFOLD_SOLID_BREP('2F',#633);
#635=ADVANCED_BREP_SHAPE_REPRESENTATION('ABSR1',(#634),#28);
#636=SHAPE_REPRESENTATION_RELATIONSHIP('SRRPL1','',#635,#122);
ENDSEC;
END-ISO-10303-21;
