ISO-10303-21;
HEADER;
/****************************************************************
 * Generated by software with PDElib inside                    *
 * PDElib Version v51a, created Fri 09/10/2010                  *
 * ITI Transcendata (http://www.transcendata.com/)              *
 ****************************************************************/
FILE_DESCRIPTION((''),'2;1');
FILE_NAME('15AC7110.stp','2015-07-16T10:11:03',(''),(''),'Mechanical Desktop 2011','Mechanical Desktop 2011',', , ');
FILE_SCHEMA(('AUTOMOTIVE_DESIGN { 1 2 10303 214 1 1 1 1 }'));
ENDSEC;
DATA;
#10=(NAMED_UNIT(*)PLANE_ANGLE_UNIT()SI_UNIT($,.RADIAN.));
#11=DIMENSIONAL_EXPONENTS(0.0,0.0,0.0,0.0,0.0,0.0,0.0);
#12=PLANE_ANGLE_MEASURE_WITH_UNIT(PLANE_ANGLE_MEASURE(0.0174532925),#10);
#16=(CONVERSION_BASED_UNIT('DEGREE',#12)NAMED_UNIT(#11)PLANE_ANGLE_UNIT());
#20=(NAMED_UNIT(*)SI_UNIT($,.STERADIAN.)SOLID_ANGLE_UNIT());
#24=(LENGTH_UNIT()NAMED_UNIT(*)SI_UNIT(.CENTI.,.METRE.));
#25=DIMENSIONAL_EXPONENTS(1.0,0.0,0.0,0.0,0.0,0.0,0.0);
#26=LENGTH_MEASURE_WITH_UNIT(LENGTH_MEASURE(2.54),#24);
#30=(CONVERSION_BASED_UNIT('INCH',#26)LENGTH_UNIT()NAMED_UNIT(#25));
#32=UNCERTAINTY_MEASURE_WITH_UNIT(LENGTH_MEASURE(0.000001),#30,'DISTANCE_ACCURACY_VALUE','');
#34=(GEOMETRIC_REPRESENTATION_CONTEXT(3)GLOBAL_UNCERTAINTY_ASSIGNED_CONTEXT((#32))GLOBAL_UNIT_ASSIGNED_CONTEXT((#16,#20,#30))REPRESENTATION_CONTEXT('','3D'));
#35=APPLICATION_CONTEXT('automotive design');
#36=APPLICATION_PROTOCOL_DEFINITION('INTERNATIONAL_STANDARD','automotive_design',1998,#35);
#37=PRODUCT_CONTEXT('3D Mechanical Parts',#35,'mechanical');
#38=PRODUCT('Product','Product','',(#37));
#39=PRODUCT_RELATED_PRODUCT_CATEGORY('part',$,(#38));
#40=PRODUCT_CATEGORY('part',$);
#41=PERSON('1','Design','Joe',$,$,$);
#42=ORGANIZATION($,'None','None');
#43=PERSON_AND_ORGANIZATION(#41,#42);
#44=PERSON_AND_ORGANIZATION_ROLE('design_owner');
#45=APPLIED_PERSON_AND_ORGANIZATION_ASSIGNMENT(#43,#44,(#38));
#46=PRODUCT_DEFINITION_FORMATION_WITH_SPECIFIED_SOURCE('None','',#38,.BOUGHT.);
#47=PERSON('2','Creator','Joe',$,$,$);
#48=ORGANIZATION($,'None','None');
#49=PERSON_AND_ORGANIZATION(#47,#48);
#50=PERSON_AND_ORGANIZATION_ROLE('creator');
#51=APPLIED_PERSON_AND_ORGANIZATION_ASSIGNMENT(#49,#50,(#46));
#52=PERSON('3','Supplier','Joe',$,$,$);
#53=ORGANIZATION($,'None','None');
#54=PERSON_AND_ORGANIZATION(#52,#53);
#55=PERSON_AND_ORGANIZATION_ROLE('design_supplier');
#56=APPLIED_PERSON_AND_ORGANIZATION_ASSIGNMENT(#54,#55,(#46));
#57=PRODUCT_DEFINITION_CONTEXT('part definition',#35,'design');
#58=PRODUCT_DEFINITION('None','',#46,#57);
#59=PERSON('4','Creator','Joe',$,$,$);
#60=ORGANIZATION($,'None','None');
#61=PERSON_AND_ORGANIZATION(#59,#60);
#62=PERSON_AND_ORGANIZATION_ROLE('creator');
#63=APPLIED_PERSON_AND_ORGANIZATION_ASSIGNMENT(#61,#62,(#58));
#64=CARTESIAN_POINT('NONE',(0.0,0.0,0.0));
#65=DIRECTION('NONE',(0.0,0.0,1.0));
#66=DIRECTION('NONE',(1.0,0.0,0.0));
#67=AXIS2_PLACEMENT_3D('NONE',#64,#65,#66);
#68=SHAPE_REPRESENTATION('SR1',(#67),#34);
#69=PRODUCT_DEFINITION_SHAPE('PDS1','Test Part',#58);
#70=SHAPE_DEFINITION_REPRESENTATION(#69,#68);
#71=CARTESIAN_POINT('',(0.63,1.656,-0.59));
#72=DIRECTION('',(0.0,0.0,1.0));
#73=DIRECTION('',(0.0,1.0,0.0));
#74=AXIS2_PLACEMENT_3D('',#71,#72,#73);
#75=CYLINDRICAL_SURFACE('',#74,0.128);
#76=CARTESIAN_POINT('',(0.63,1.784,-0.59));
#77=VERTEX_POINT('',#76);
#78=CARTESIAN_POINT('',(0.63,1.784,-0.34));
#79=VERTEX_POINT('',#78);
#80=CARTESIAN_POINT('',(0.63,1.784,-0.59));
#81=DIRECTION('',(0.0,0.0,1.0));
#82=VECTOR('',#81,0.25);
#83=LINE('',#80,#82);
#84=EDGE_CURVE('',#77,#79,#83,.T.);
#85=ORIENTED_EDGE('',*,*,#84,.F.);
#86=CARTESIAN_POINT('',(0.63,1.528,-0.59));
#87=VERTEX_POINT('',#86);
#88=CARTESIAN_POINT('',(0.63,1.656,-0.59));
#89=DIRECTION('',(0.0,0.0,1.0));
#90=DIRECTION('',(0.0,1.0,0.0));
#91=AXIS2_PLACEMENT_3D('',#88,#89,#90);
#92=CIRCLE('',#91,0.128);
#93=EDGE_CURVE('',#87,#77,#92,.T.);
#94=ORIENTED_EDGE('',*,*,#93,.F.);
#95=CARTESIAN_POINT('',(0.63,1.528,-0.34));
#96=VERTEX_POINT('',#95);
#97=CARTESIAN_POINT('',(0.63,1.528,-0.59));
#98=DIRECTION('',(0.0,0.0,1.0));
#99=VECTOR('',#98,0.25);
#100=LINE('',#97,#99);
#101=EDGE_CURVE('',#87,#96,#100,.T.);
#102=ORIENTED_EDGE('',*,*,#101,.T.);
#103=CARTESIAN_POINT('',(0.63,1.656,-0.34));
#104=DIRECTION('',(0.0,0.0,-1.0));
#105=DIRECTION('',(0.0,1.0,0.0));
#106=AXIS2_PLACEMENT_3D('',#103,#104,#105);
#107=CIRCLE('',#106,0.128);
#108=EDGE_CURVE('',#79,#96,#107,.T.);
#109=ORIENTED_EDGE('',*,*,#108,.F.);
#110=EDGE_LOOP('',(#85,#94,#102,#109));
#111=FACE_OUTER_BOUND('',#110,.T.);
#112=ADVANCED_FACE('',(#111),#75,.F.);
#113=CARTESIAN_POINT('',(0.63,0.0,0.0));
#114=DIRECTION('',(0.0,0.0,1.0));
#115=DIRECTION('',(0.0,1.0,0.0));
#116=AXIS2_PLACEMENT_3D('',#113,#114,#115);
#117=CYLINDRICAL_SURFACE('',#116,0.171);
#118=CARTESIAN_POINT('',(0.63,0.171,0.0));
#119=VERTEX_POINT('',#118);
#120=CARTESIAN_POINT('',(0.63,0.171,0.25));
#121=VERTEX_POINT('',#120);
#122=CARTESIAN_POINT('',(0.63,0.171,0.0));
#123=DIRECTION('',(0.0,0.0,1.0));
#124=VECTOR('',#123,0.25);
#125=LINE('',#122,#124);
#126=EDGE_CURVE('',#119,#121,#125,.T.);
#127=ORIENTED_EDGE('',*,*,#126,.F.);
#128=CARTESIAN_POINT('',(0.63,-0.171,-9.299877E-033));
#129=VERTEX_POINT('',#128);
#130=CARTESIAN_POINT('',(0.63,0.0,0.0));
#131=DIRECTION('',(0.0,0.0,1.0));
#132=DIRECTION('',(0.0,1.0,0.0));
#133=AXIS2_PLACEMENT_3D('',#130,#131,#132);
#134=CIRCLE('',#133,0.171);
#135=EDGE_CURVE('',#129,#119,#134,.T.);
#136=ORIENTED_EDGE('',*,*,#135,.F.);
#137=CARTESIAN_POINT('',(0.63,-0.171,0.25));
#138=VERTEX_POINT('',#137);
#139=CARTESIAN_POINT('',(0.63,-0.171,-9.299877E-033));
#140=DIRECTION('',(0.0,0.0,1.0));
#141=VECTOR('',#140,0.25);
#142=LINE('',#139,#141);
#143=EDGE_CURVE('',#129,#138,#142,.T.);
#144=ORIENTED_EDGE('',*,*,#143,.T.);
#145=CARTESIAN_POINT('',(0.63,0.0,0.25));
#146=DIRECTION('',(0.0,0.0,-1.0));
#147=DIRECTION('',(0.0,1.0,0.0));
#148=AXIS2_PLACEMENT_3D('',#145,#146,#147);
#149=CIRCLE('',#148,0.171);
#150=EDGE_CURVE('',#121,#138,#149,.T.);
#151=ORIENTED_EDGE('',*,*,#150,.F.);
#152=EDGE_LOOP('',(#127,#136,#144,#151));
#153=FACE_OUTER_BOUND('',#152,.T.);
#154=ADVANCED_FACE('',(#153),#117,.F.);
#155=CARTESIAN_POINT('',(0.63,0.0,0.0));
#156=DIRECTION('',(0.0,0.0,1.0));
#157=DIRECTION('',(0.0,1.0,0.0));
#158=AXIS2_PLACEMENT_3D('',#155,#156,#157);
#159=CYLINDRICAL_SURFACE('',#158,0.171);
#160=ORIENTED_EDGE('',*,*,#126,.T.);
#161=CARTESIAN_POINT('',(0.63,0.0,0.25));
#162=DIRECTION('',(0.0,0.0,-1.0));
#163=DIRECTION('',(0.0,1.0,0.0));
#164=AXIS2_PLACEMENT_3D('',#161,#162,#163);
#165=CIRCLE('',#164,0.171);
#166=EDGE_CURVE('',#138,#121,#165,.T.);
#167=ORIENTED_EDGE('',*,*,#166,.F.);
#168=ORIENTED_EDGE('',*,*,#143,.F.);
#169=CARTESIAN_POINT('',(0.63,0.0,0.0));
#170=DIRECTION('',(0.0,0.0,1.0));
#171=DIRECTION('',(0.0,1.0,0.0));
#172=AXIS2_PLACEMENT_3D('',#169,#170,#171);
#173=CIRCLE('',#172,0.171);
#174=EDGE_CURVE('',#119,#129,#173,.T.);
#175=ORIENTED_EDGE('',*,*,#174,.F.);
#176=EDGE_LOOP('',(#160,#167,#168,#175));
#177=FACE_OUTER_BOUND('',#176,.T.);
#178=ADVANCED_FACE('',(#177),#159,.F.);
#179=CARTESIAN_POINT('',(0.63,1.656,-0.59));
#180=DIRECTION('',(0.0,0.0,1.0));
#181=DIRECTION('',(0.0,1.0,0.0));
#182=AXIS2_PLACEMENT_3D('',#179,#180,#181);
#183=CYLINDRICAL_SURFACE('',#182,0.128);
#184=ORIENTED_EDGE('',*,*,#84,.T.);
#185=CARTESIAN_POINT('',(0.63,1.656,-0.34));
#186=DIRECTION('',(0.0,0.0,-1.0));
#187=DIRECTION('',(0.0,1.0,0.0));
#188=AXIS2_PLACEMENT_3D('',#185,#186,#187);
#189=CIRCLE('',#188,0.128);
#190=EDGE_CURVE('',#96,#79,#189,.T.);
#191=ORIENTED_EDGE('',*,*,#190,.F.);
#192=ORIENTED_EDGE('',*,*,#101,.F.);
#193=CARTESIAN_POINT('',(0.63,1.656,-0.59));
#194=DIRECTION('',(0.0,0.0,1.0));
#195=DIRECTION('',(0.0,1.0,0.0));
#196=AXIS2_PLACEMENT_3D('',#193,#194,#195);
#197=CIRCLE('',#196,0.128);
#198=EDGE_CURVE('',#77,#87,#197,.T.);
#199=ORIENTED_EDGE('',*,*,#198,.F.);
#200=EDGE_LOOP('',(#184,#191,#192,#199));
#201=FACE_OUTER_BOUND('',#200,.T.);
#202=ADVANCED_FACE('',(#201),#183,.F.);
#203=CARTESIAN_POINT('',(1.38,1.999999999999999,-0.590000000000001));
#204=DIRECTION('',(-1.0,3.061556E-016,2.220446E-016));
#205=DIRECTION('',(3.734940E-016,0.707106781186547,0.707106781186547));
#206=AXIS2_PLACEMENT_3D('',#203,#204,#205);
#207=CYLINDRICAL_SURFACE('',#206,0.250000000000001);
#208=CARTESIAN_POINT('',(-0.119999999999999,2.25,-0.59));
#209=VERTEX_POINT('',#208);
#210=CARTESIAN_POINT('',(-0.119999999999999,2.0,-0.34));
#211=VERTEX_POINT('',#210);
#212=CARTESIAN_POINT('',(-0.119999999999999,1.999999999999999,-0.590000000000001));
#213=DIRECTION('',(1.0,-3.253304E-016,-3.253304E-016));
#214=DIRECTION('',(4.600867E-016,0.707106781186547,0.707106781186547));
#215=AXIS2_PLACEMENT_3D('',#212,#213,#214);
#216=CIRCLE('',#215,0.250000000000001);
#217=EDGE_CURVE('',#209,#211,#216,.T.);
#218=ORIENTED_EDGE('',*,*,#217,.T.);
#219=CARTESIAN_POINT('',(1.38,2.0,-0.34));
#220=VERTEX_POINT('',#219);
#221=CARTESIAN_POINT('',(1.38,2.0,-0.34));
#222=DIRECTION('',(-1.0,0.0,0.0));
#223=VECTOR('',#222,1.5);
#224=LINE('',#221,#223);
#225=EDGE_CURVE('',#220,#211,#224,.T.);
#226=ORIENTED_EDGE('',*,*,#225,.F.);
#227=CARTESIAN_POINT('',(1.380000000000001,2.25,-0.59));
#228=VERTEX_POINT('',#227);
#229=CARTESIAN_POINT('',(1.38,1.999999999999999,-0.590000000000001));
#230=DIRECTION('',(-1.0,3.253304E-016,3.253304E-016));
#231=DIRECTION('',(4.600867E-016,0.707106781186547,0.707106781186547));
#232=AXIS2_PLACEMENT_3D('',#229,#230,#231);
#233=CIRCLE('',#232,0.250000000000001);
#234=EDGE_CURVE('',#220,#228,#233,.T.);
#235=ORIENTED_EDGE('',*,*,#234,.T.);
#236=CARTESIAN_POINT('',(1.380000000000001,2.25,-0.59));
#237=DIRECTION('',(-1.0,0.0,0.0));
#238=VECTOR('',#237,1.5);
#239=LINE('',#236,#238);
#240=EDGE_CURVE('',#228,#209,#239,.T.);
#241=ORIENTED_EDGE('',*,*,#240,.T.);
#242=EDGE_LOOP('',(#218,#226,#235,#241));
#243=FACE_OUTER_BOUND('',#242,.T.);
#244=ADVANCED_FACE('',(#243),#207,.T.);
#245=CARTESIAN_POINT('',(1.38,2.0,-0.34));
#246=DIRECTION('',(0.0,0.0,1.0));
#247=DIRECTION('',(0.0,1.0,0.0));
#248=AXIS2_PLACEMENT_3D('',#245,#246,#247);
#249=PLANE('',#248);
#250=CARTESIAN_POINT('',(-0.119999999999999,1.25,-0.34));
#251=VERTEX_POINT('',#250);
#252=CARTESIAN_POINT('',(-0.119999999999999,2.0,-0.34));
#253=DIRECTION('',(0.0,-1.0,0.0));
#254=VECTOR('',#253,0.75);
#255=LINE('',#252,#254);
#256=EDGE_CURVE('',#211,#251,#255,.T.);
#257=ORIENTED_EDGE('',*,*,#256,.T.);
#258=CARTESIAN_POINT('',(1.38,1.25,-0.34));
#259=VERTEX_POINT('',#258);
#260=CARTESIAN_POINT('',(1.38,1.25,-0.34));
#261=DIRECTION('',(-1.0,0.0,0.0));
#262=VECTOR('',#261,1.5);
#263=LINE('',#260,#262);
#264=EDGE_CURVE('',#259,#251,#263,.T.);
#265=ORIENTED_EDGE('',*,*,#264,.F.);
#266=CARTESIAN_POINT('',(1.38,1.25,-0.34));
#267=DIRECTION('',(0.0,1.0,0.0));
#268=VECTOR('',#267,0.75);
#269=LINE('',#266,#268);
#270=EDGE_CURVE('',#259,#220,#269,.T.);
#271=ORIENTED_EDGE('',*,*,#270,.T.);
#272=ORIENTED_EDGE('',*,*,#225,.T.);
#273=EDGE_LOOP('',(#257,#265,#271,#272));
#274=FACE_OUTER_BOUND('',#273,.T.);
#275=ORIENTED_EDGE('',*,*,#108,.T.);
#276=ORIENTED_EDGE('',*,*,#190,.T.);
#277=EDGE_LOOP('',(#275,#276));
#278=FACE_BOUND('',#277,.T.);
#279=ADVANCED_FACE('',(#274,#278),#249,.T.);
#280=CARTESIAN_POINT('',(1.38,1.25,-0.09));
#281=DIRECTION('',(-1.0,3.061556E-016,2.220446E-016));
#282=DIRECTION('',(-3.734940E-016,-0.707106781186548,-0.707106781186547));
#283=AXIS2_PLACEMENT_3D('',#280,#281,#282);
#284=CYLINDRICAL_SURFACE('',#283,0.25);
#285=CARTESIAN_POINT('',(-0.119999999999999,1.0,-0.09));
#286=VERTEX_POINT('',#285);
#287=CARTESIAN_POINT('',(-0.119999999999999,1.25,-0.09));
#288=DIRECTION('',(-1.0,3.253304E-016,3.253304E-016));
#289=DIRECTION('',(-4.600867E-016,-0.707106781186548,-0.707106781186547));
#290=AXIS2_PLACEMENT_3D('',#287,#288,#289);
#291=CIRCLE('',#290,0.25);
#292=EDGE_CURVE('',#251,#286,#291,.T.);
#293=ORIENTED_EDGE('',*,*,#292,.T.);
#294=CARTESIAN_POINT('',(1.38,1.0,-0.09));
#295=VERTEX_POINT('',#294);
#296=CARTESIAN_POINT('',(1.38,1.0,-0.09));
#297=DIRECTION('',(-1.0,0.0,0.0));
#298=VECTOR('',#297,1.5);
#299=LINE('',#296,#298);
#300=EDGE_CURVE('',#295,#286,#299,.T.);
#301=ORIENTED_EDGE('',*,*,#300,.F.);
#302=CARTESIAN_POINT('',(1.38,1.25,-0.09));
#303=DIRECTION('',(1.0,-3.253304E-016,-3.253304E-016));
#304=DIRECTION('',(-4.600867E-016,-0.707106781186548,-0.707106781186547));
#305=AXIS2_PLACEMENT_3D('',#302,#303,#304);
#306=CIRCLE('',#305,0.25);
#307=EDGE_CURVE('',#295,#259,#306,.T.);
#308=ORIENTED_EDGE('',*,*,#307,.T.);
#309=ORIENTED_EDGE('',*,*,#264,.T.);
#310=EDGE_LOOP('',(#293,#301,#308,#309));
#311=FACE_OUTER_BOUND('',#310,.T.);
#312=ADVANCED_FACE('',(#311),#284,.F.);
#313=CARTESIAN_POINT('',(1.38,1.0,-0.09));
#314=DIRECTION('',(0.0,1.0,0.0));
#315=DIRECTION('',(0.0,0.0,-1.0));
#316=AXIS2_PLACEMENT_3D('',#313,#314,#315);
#317=PLANE('',#316);
#318=CARTESIAN_POINT('',(-0.119999999999999,1.0,3.330669E-016));
#319=VERTEX_POINT('',#318);
#320=CARTESIAN_POINT('',(-0.12,1.0,-0.09));
#321=DIRECTION('',(0.0,0.0,1.0));
#322=VECTOR('',#321,0.09);
#323=LINE('',#320,#322);
#324=EDGE_CURVE('',#286,#319,#323,.T.);
#325=ORIENTED_EDGE('',*,*,#324,.T.);
#326=CARTESIAN_POINT('',(1.38,1.0,0.0));
#327=VERTEX_POINT('',#326);
#328=CARTESIAN_POINT('',(1.38,1.0,0.0));
#329=DIRECTION('',(-1.0,0.0,0.0));
#330=VECTOR('',#329,1.5);
#331=LINE('',#328,#330);
#332=EDGE_CURVE('',#327,#319,#331,.T.);
#333=ORIENTED_EDGE('',*,*,#332,.F.);
#334=CARTESIAN_POINT('',(1.38,1.0,0.0));
#335=DIRECTION('',(0.0,0.0,-1.0));
#336=VECTOR('',#335,0.09);
#337=LINE('',#334,#336);
#338=EDGE_CURVE('',#327,#295,#337,.T.);
#339=ORIENTED_EDGE('',*,*,#338,.T.);
#340=ORIENTED_EDGE('',*,*,#300,.T.);
#341=EDGE_LOOP('',(#325,#333,#339,#340));
#342=FACE_OUTER_BOUND('',#341,.T.);
#343=ADVANCED_FACE('',(#342),#317,.T.);
#344=CARTESIAN_POINT('',(1.38,0.75,1.110223E-016));
#345=DIRECTION('',(-1.0,3.061556E-016,2.220446E-016));
#346=DIRECTION('',(3.734940E-016,0.707106781186548,0.707106781186548));
#347=AXIS2_PLACEMENT_3D('',#344,#345,#346);
#348=CYLINDRICAL_SURFACE('',#347,0.25);
#349=CARTESIAN_POINT('',(-0.12,0.75,0.25));
#350=VERTEX_POINT('',#349);
#351=CARTESIAN_POINT('',(-0.12,0.75,4.440892E-016));
#352=DIRECTION('',(1.0,-3.253304E-016,-3.253304E-016));
#353=DIRECTION('',(4.600867E-016,0.707106781186548,0.707106781186548));
#354=AXIS2_PLACEMENT_3D('',#351,#352,#353);
#355=CIRCLE('',#354,0.25);
#356=EDGE_CURVE('',#319,#350,#355,.T.);
#357=ORIENTED_EDGE('',*,*,#356,.T.);
#358=CARTESIAN_POINT('',(1.38,0.75,0.25));
#359=VERTEX_POINT('',#358);
#360=CARTESIAN_POINT('',(1.38,0.75,0.25));
#361=DIRECTION('',(-1.0,0.0,0.0));
#362=VECTOR('',#361,1.5);
#363=LINE('',#360,#362);
#364=EDGE_CURVE('',#359,#350,#363,.T.);
#365=ORIENTED_EDGE('',*,*,#364,.F.);
#366=CARTESIAN_POINT('',(1.38,0.75,1.110223E-016));
#367=DIRECTION('',(-1.0,3.253304E-016,3.253304E-016));
#368=DIRECTION('',(4.600867E-016,0.707106781186548,0.707106781186548));
#369=AXIS2_PLACEMENT_3D('',#366,#367,#368);
#370=CIRCLE('',#369,0.25);
#371=EDGE_CURVE('',#359,#327,#370,.T.);
#372=ORIENTED_EDGE('',*,*,#371,.T.);
#373=ORIENTED_EDGE('',*,*,#332,.T.);
#374=EDGE_LOOP('',(#357,#365,#372,#373));
#375=FACE_OUTER_BOUND('',#374,.T.);
#376=ADVANCED_FACE('',(#375),#348,.T.);
#377=CARTESIAN_POINT('',(1.38,0.75,0.25));
#378=DIRECTION('',(0.0,0.0,1.0));
#379=DIRECTION('',(0.0,1.0,0.0));
#380=AXIS2_PLACEMENT_3D('',#377,#378,#379);
#381=PLANE('',#380);
#382=CARTESIAN_POINT('',(-0.12,-0.378999999999999,0.25));
#383=VERTEX_POINT('',#382);
#384=CARTESIAN_POINT('',(-0.12,0.75,0.25));
#385=DIRECTION('',(0.0,-1.0,0.0));
#386=VECTOR('',#385,1.128999999999999);
#387=LINE('',#384,#386);
#388=EDGE_CURVE('',#350,#383,#387,.T.);
#389=ORIENTED_EDGE('',*,*,#388,.T.);
#390=CARTESIAN_POINT('',(1.38,-0.378999999999999,0.25));
#391=VERTEX_POINT('',#390);
#392=CARTESIAN_POINT('',(1.38,-0.378999999999999,0.25));
#393=DIRECTION('',(-1.0,0.0,0.0));
#394=VECTOR('',#393,1.5);
#395=LINE('',#392,#394);
#396=EDGE_CURVE('',#391,#383,#395,.T.);
#397=ORIENTED_EDGE('',*,*,#396,.F.);
#398=CARTESIAN_POINT('',(1.38,-0.378999999999999,0.25));
#399=DIRECTION('',(0.0,1.0,0.0));
#400=VECTOR('',#399,1.128999999999999);
#401=LINE('',#398,#400);
#402=EDGE_CURVE('',#391,#359,#401,.T.);
#403=ORIENTED_EDGE('',*,*,#402,.T.);
#404=ORIENTED_EDGE('',*,*,#364,.T.);
#405=EDGE_LOOP('',(#389,#397,#403,#404));
#406=FACE_OUTER_BOUND('',#405,.T.);
#407=ORIENTED_EDGE('',*,*,#150,.T.);
#408=ORIENTED_EDGE('',*,*,#166,.T.);
#409=EDGE_LOOP('',(#407,#408));
#410=FACE_BOUND('',#409,.T.);
#411=ADVANCED_FACE('',(#406,#410),#381,.T.);
#412=CARTESIAN_POINT('',(1.38,-0.378999999999999,-8.881784E-016));
#413=DIRECTION('',(-1.0,3.061556E-016,2.220446E-016));
#414=DIRECTION('',(-5.947548E-017,-0.707106781186546,0.707106781186549));
#415=AXIS2_PLACEMENT_3D('',#412,#413,#414);
#416=CYLINDRICAL_SURFACE('',#415,0.250000000000001);
#417=CARTESIAN_POINT('',(-0.12,-0.629,3.330669E-016));
#418=VERTEX_POINT('',#417);
#419=CARTESIAN_POINT('',(-0.12,-0.378999999999999,-5.551115E-016));
#420=DIRECTION('',(1.0,-1.032858E-016,1.032858E-016));
#421=DIRECTION('',(-1.460682E-016,-0.707106781186546,0.707106781186549));
#422=AXIS2_PLACEMENT_3D('',#419,#420,#421);
#423=CIRCLE('',#422,0.250000000000001);
#424=EDGE_CURVE('',#383,#418,#423,.T.);
#425=ORIENTED_EDGE('',*,*,#424,.T.);
#426=CARTESIAN_POINT('',(1.38,-0.629,0.0));
#427=VERTEX_POINT('',#426);
#428=CARTESIAN_POINT('',(1.38,-0.629,0.0));
#429=DIRECTION('',(-1.0,0.0,0.0));
#430=VECTOR('',#429,1.5);
#431=LINE('',#428,#430);
#432=EDGE_CURVE('',#427,#418,#431,.T.);
#433=ORIENTED_EDGE('',*,*,#432,.F.);
#434=CARTESIAN_POINT('',(1.38,-0.378999999999999,-8.881784E-016));
#435=DIRECTION('',(-1.0,1.032858E-016,-1.032858E-016));
#436=DIRECTION('',(-1.460682E-016,-0.707106781186546,0.707106781186549));
#437=AXIS2_PLACEMENT_3D('',#434,#435,#436);
#438=CIRCLE('',#437,0.250000000000001);
#439=EDGE_CURVE('',#427,#391,#438,.T.);
#440=ORIENTED_EDGE('',*,*,#439,.T.);
#441=ORIENTED_EDGE('',*,*,#396,.T.);
#442=EDGE_LOOP('',(#425,#433,#440,#441));
#443=FACE_OUTER_BOUND('',#442,.T.);
#444=ADVANCED_FACE('',(#443),#416,.T.);
#445=CARTESIAN_POINT('',(1.38,-0.629,0.0));
#446=DIRECTION('',(0.0,0.0,-1.0));
#447=DIRECTION('',(0.0,-1.0,0.0));
#448=AXIS2_PLACEMENT_3D('',#445,#446,#447);
#449=PLANE('',#448);
#450=CARTESIAN_POINT('',(-0.12,0.625,3.330669E-016));
#451=VERTEX_POINT('',#450);
#452=CARTESIAN_POINT('',(-0.12,-0.629,3.330669E-016));
#453=DIRECTION('',(0.0,1.0,0.0));
#454=VECTOR('',#453,1.254);
#455=LINE('',#452,#454);
#456=EDGE_CURVE('',#418,#451,#455,.T.);
#457=ORIENTED_EDGE('',*,*,#456,.T.);
#458=CARTESIAN_POINT('',(1.38,0.625,0.0));
#459=VERTEX_POINT('',#458);
#460=CARTESIAN_POINT('',(1.38,0.625,0.0));
#461=DIRECTION('',(-1.0,0.0,0.0));
#462=VECTOR('',#461,1.5);
#463=LINE('',#460,#462);
#464=EDGE_CURVE('',#459,#451,#463,.T.);
#465=ORIENTED_EDGE('',*,*,#464,.F.);
#466=CARTESIAN_POINT('',(1.38,0.625,0.0));
#467=DIRECTION('',(0.0,-1.0,0.0));
#468=VECTOR('',#467,1.254);
#469=LINE('',#466,#468);
#470=EDGE_CURVE('',#459,#427,#469,.T.);
#471=ORIENTED_EDGE('',*,*,#470,.T.);
#472=ORIENTED_EDGE('',*,*,#432,.T.);
#473=EDGE_LOOP('',(#457,#465,#471,#472));
#474=FACE_OUTER_BOUND('',#473,.T.);
#475=ORIENTED_EDGE('',*,*,#174,.T.);
#476=ORIENTED_EDGE('',*,*,#135,.T.);
#477=EDGE_LOOP('',(#475,#476));
#478=FACE_BOUND('',#477,.T.);
#479=ADVANCED_FACE('',(#474,#478),#449,.T.);
#480=CARTESIAN_POINT('',(1.38,0.625,-0.125));
#481=DIRECTION('',(-1.0,3.061556E-016,2.220446E-016));
#482=DIRECTION('',(3.734940E-016,0.707106781186548,0.707106781186548));
#483=AXIS2_PLACEMENT_3D('',#480,#481,#482);
#484=CYLINDRICAL_SURFACE('',#483,0.125);
#485=CARTESIAN_POINT('',(-0.12,0.75,-0.125));
#486=VERTEX_POINT('',#485);
#487=CARTESIAN_POINT('',(-0.12,0.625,-0.125));
#488=DIRECTION('',(-1.0,3.253304E-016,3.253304E-016));
#489=DIRECTION('',(4.600867E-016,0.707106781186548,0.707106781186548));
#490=AXIS2_PLACEMENT_3D('',#487,#488,#489);
#491=CIRCLE('',#490,0.125);
#492=EDGE_CURVE('',#451,#486,#491,.T.);
#493=ORIENTED_EDGE('',*,*,#492,.T.);
#494=CARTESIAN_POINT('',(1.38,0.75,-0.125));
#495=VERTEX_POINT('',#494);
#496=CARTESIAN_POINT('',(1.38,0.75,-0.125));
#497=DIRECTION('',(-1.0,0.0,0.0));
#498=VECTOR('',#497,1.5);
#499=LINE('',#496,#498);
#500=EDGE_CURVE('',#495,#486,#499,.T.);
#501=ORIENTED_EDGE('',*,*,#500,.F.);
#502=CARTESIAN_POINT('',(1.38,0.625,-0.125));
#503=DIRECTION('',(1.0,-3.253304E-016,-3.253304E-016));
#504=DIRECTION('',(4.600867E-016,0.707106781186548,0.707106781186548));
#505=AXIS2_PLACEMENT_3D('',#502,#503,#504);
#506=CIRCLE('',#505,0.125);
#507=EDGE_CURVE('',#495,#459,#506,.T.);
#508=ORIENTED_EDGE('',*,*,#507,.T.);
#509=ORIENTED_EDGE('',*,*,#464,.T.);
#510=EDGE_LOOP('',(#493,#501,#508,#509));
#511=FACE_OUTER_BOUND('',#510,.T.);
#512=ADVANCED_FACE('',(#511),#484,.F.);
#513=CARTESIAN_POINT('',(1.38,0.75,-0.125));
#514=DIRECTION('',(0.0,-1.0,0.0));
#515=DIRECTION('',(0.0,0.0,1.0));
#516=AXIS2_PLACEMENT_3D('',#513,#514,#515);
#517=PLANE('',#516);
#518=CARTESIAN_POINT('',(-0.12,0.75,-0.59));
#519=VERTEX_POINT('',#518);
#520=CARTESIAN_POINT('',(-0.12,0.75,-0.125));
#521=DIRECTION('',(0.0,0.0,-1.0));
#522=VECTOR('',#521,0.465);
#523=LINE('',#520,#522);
#524=EDGE_CURVE('',#486,#519,#523,.T.);
#525=ORIENTED_EDGE('',*,*,#524,.T.);
#526=CARTESIAN_POINT('',(1.38,0.75,-0.59));
#527=VERTEX_POINT('',#526);
#528=CARTESIAN_POINT('',(1.38,0.75,-0.59));
#529=DIRECTION('',(-1.0,0.0,0.0));
#530=VECTOR('',#529,1.5);
#531=LINE('',#528,#530);
#532=EDGE_CURVE('',#527,#519,#531,.T.);
#533=ORIENTED_EDGE('',*,*,#532,.F.);
#534=CARTESIAN_POINT('',(1.38,0.75,-0.59));
#535=DIRECTION('',(0.0,0.0,1.0));
#536=VECTOR('',#535,0.465);
#537=LINE('',#534,#536);
#538=EDGE_CURVE('',#527,#495,#537,.T.);
#539=ORIENTED_EDGE('',*,*,#538,.T.);
#540=ORIENTED_EDGE('',*,*,#500,.T.);
#541=EDGE_LOOP('',(#525,#533,#539,#540));
#542=FACE_OUTER_BOUND('',#541,.T.);
#543=ADVANCED_FACE('',(#542),#517,.T.);
#544=CARTESIAN_POINT('',(1.38,0.75,-0.59));
#545=DIRECTION('',(0.0,0.0,-1.0));
#546=DIRECTION('',(0.0,-1.0,0.0));
#547=AXIS2_PLACEMENT_3D('',#544,#545,#546);
#548=PLANE('',#547);
#549=CARTESIAN_POINT('',(-0.12,0.75,-0.59));
#550=DIRECTION('',(0.0,1.0,0.0));
#551=VECTOR('',#550,1.5);
#552=LINE('',#549,#551);
#553=EDGE_CURVE('',#519,#209,#552,.T.);
#554=ORIENTED_EDGE('',*,*,#553,.T.);
#555=ORIENTED_EDGE('',*,*,#240,.F.);
#556=CARTESIAN_POINT('',(1.380000000000001,2.25,-0.59));
#557=DIRECTION('',(0.0,-1.0,0.0));
#558=VECTOR('',#557,1.5);
#559=LINE('',#556,#558);
#560=EDGE_CURVE('',#228,#527,#559,.T.);
#561=ORIENTED_EDGE('',*,*,#560,.T.);
#562=ORIENTED_EDGE('',*,*,#532,.T.);
#563=EDGE_LOOP('',(#554,#555,#561,#562));
#564=FACE_OUTER_BOUND('',#563,.T.);
#565=ORIENTED_EDGE('',*,*,#198,.T.);
#566=ORIENTED_EDGE('',*,*,#93,.T.);
#567=EDGE_LOOP('',(#565,#566));
#568=FACE_BOUND('',#567,.T.);
#569=ADVANCED_FACE('',(#564,#568),#548,.T.);
#570=CARTESIAN_POINT('',(-0.119999999999999,2.25,-0.59));
#571=DIRECTION('',(1.0,0.0,0.0));
#572=DIRECTION('',(0.0,0.0,-1.0));
#573=AXIS2_PLACEMENT_3D('',#570,#571,#572);
#574=PLANE('',#573);
#575=ORIENTED_EDGE('',*,*,#217,.F.);
#576=ORIENTED_EDGE('',*,*,#553,.F.);
#577=ORIENTED_EDGE('',*,*,#524,.F.);
#578=ORIENTED_EDGE('',*,*,#492,.F.);
#579=ORIENTED_EDGE('',*,*,#456,.F.);
#580=ORIENTED_EDGE('',*,*,#424,.F.);
#581=ORIENTED_EDGE('',*,*,#388,.F.);
#582=ORIENTED_EDGE('',*,*,#356,.F.);
#583=ORIENTED_EDGE('',*,*,#324,.F.);
#584=ORIENTED_EDGE('',*,*,#292,.F.);
#585=ORIENTED_EDGE('',*,*,#256,.F.);
#586=EDGE_LOOP('',(#575,#576,#577,#578,#579,#580,#581,#582,#583,#584,#585));
#587=FACE_OUTER_BOUND('',#586,.T.);
#588=ADVANCED_FACE('',(#587),#574,.F.);
#589=CARTESIAN_POINT('',(1.38,0.85633677172802,-0.121128641359901));
#590=DIRECTION('',(1.0,0.0,0.0));
#591=DIRECTION('',(0.0,0.0,1.0));
#592=AXIS2_PLACEMENT_3D('',#589,#590,#591);
#593=PLANE('',#592);
#594=ORIENTED_EDGE('',*,*,#560,.F.);
#595=ORIENTED_EDGE('',*,*,#234,.F.);
#596=ORIENTED_EDGE('',*,*,#270,.F.);
#597=ORIENTED_EDGE('',*,*,#307,.F.);
#598=ORIENTED_EDGE('',*,*,#338,.F.);
#599=ORIENTED_EDGE('',*,*,#371,.F.);
#600=ORIENTED_EDGE('',*,*,#402,.F.);
#601=ORIENTED_EDGE('',*,*,#439,.F.);
#602=ORIENTED_EDGE('',*,*,#470,.F.);
#603=ORIENTED_EDGE('',*,*,#507,.F.);
#604=ORIENTED_EDGE('',*,*,#538,.F.);
#605=EDGE_LOOP('',(#594,#595,#596,#597,#598,#599,#600,#601,#602,#603,#604));
#606=FACE_OUTER_BOUND('',#605,.T.);
#607=ADVANCED_FACE('',(#606),#593,.T.);
#608=CLOSED_SHELL('',(#112,#154,#178,#202,#244,#279,#312,#343,#376,#411,#444,#479,#512,#543,#569,#588,#607));
#609=MANIFOLD_SOLID_BREP('2B',#608);
#610=COLOUR_RGB('254',0.866,0.866,0.866);
#611=SURFACE_STYLE_USAGE(.BOTH.,#612);
#612=SURFACE_SIDE_STYLE('NONE',(#613));
#613=SURFACE_STYLE_FILL_AREA(#614);
#614=FILL_AREA_STYLE('NONE',(#615));
#615=FILL_AREA_STYLE_COLOUR('NONE',#610);
#616=PRESENTATION_STYLE_ASSIGNMENT((#611));
#617=STYLED_ITEM('NONE',(#616),#609);
#618=MECHANICAL_DESIGN_GEOMETRIC_PRESENTATION_REPRESENTATION('NONE',(#617),#34);
#619=PRESENTATION_LAYER_ASSIGNMENT('0','None',(#609));
#620=ADVANCED_BREP_SHAPE_REPRESENTATION('ABSR1',(#609),#34);
#621=SHAPE_REPRESENTATION_RELATIONSHIP('SRRPL1','',#620,#68);
ENDSEC;
END-ISO-10303-21;
