ISO-10303-21;
HEADER;
/****************************************************************
 * Generated by software with PDElib inside                    *
 * PDElib Version v51a, created Fri 09/10/2010                  *
 * ITI Transcendata (http://www.transcendata.com/)              *
 ****************************************************************/
FILE_DESCRIPTION((''),'2;1');
FILE_NAME('13AC7800.stp','2015-07-14T14:11:28',(''),(''),'Mechanical Desktop 2011','Mechanical Desktop 2011',', , ');
FILE_SCHEMA(('AUTOMOTIVE_DESIGN { 1 2 10303 214 1 1 1 1 }'));
ENDSEC;
DATA;
#10=(NAMED_UNIT(*)PLANE_ANGLE_UNIT()SI_UNIT($,.RADIAN.));
#11=DIMENSIONAL_EXPONENTS(0.0,0.0,0.0,0.0,0.0,0.0,0.0);
#12=PLANE_ANGLE_MEASURE_WITH_UNIT(PLANE_ANGLE_MEASURE(0.0174532925),#10);
#16=(CONVERSION_BASED_UNIT('DEGREE',#12)NAMED_UNIT(#11)PLANE_ANGLE_UNIT());
#20=(NAMED_UNIT(*)SI_UNIT($,.STERADIAN.)SOLID_ANGLE_UNIT());
#24=(LENGTH_UNIT()NAMED_UNIT(*)SI_UNIT(.CENTI.,.METRE.));
#25=DIMENSIONAL_EXPONENTS(1.0,0.0,0.0,0.0,0.0,0.0,0.0);
#26=LENGTH_MEASURE_WITH_UNIT(LENGTH_MEASURE(2.54),#24);
#30=(CONVERSION_BASED_UNIT('INCH',#26)LENGTH_UNIT()NAMED_UNIT(#25));
#32=UNCERTAINTY_MEASURE_WITH_UNIT(LENGTH_MEASURE(0.000001),#30,'DISTANCE_ACCURACY_VALUE','');
#34=(GEOMETRIC_REPRESENTATION_CONTEXT(3)GLOBAL_UNCERTAINTY_ASSIGNED_CONTEXT((#32))GLOBAL_UNIT_ASSIGNED_CONTEXT((#16,#20,#30))REPRESENTATION_CONTEXT('','3D'));
#35=APPLICATION_CONTEXT('automotive design');
#36=APPLICATION_PROTOCOL_DEFINITION('INTERNATIONAL_STANDARD','automotive_design',1998,#35);
#37=PRODUCT_CONTEXT('3D Mechanical Parts',#35,'mechanical');
#38=PRODUCT('Product','Product','',(#37));
#39=PRODUCT_RELATED_PRODUCT_CATEGORY('part',$,(#38));
#40=PRODUCT_CATEGORY('part',$);
#41=PERSON('1','Design','Joe',$,$,$);
#42=ORGANIZATION($,'None','None');
#43=PERSON_AND_ORGANIZATION(#41,#42);
#44=PERSON_AND_ORGANIZATION_ROLE('design_owner');
#45=APPLIED_PERSON_AND_ORGANIZATION_ASSIGNMENT(#43,#44,(#38));
#46=PRODUCT_DEFINITION_FORMATION_WITH_SPECIFIED_SOURCE('None','',#38,.BOUGHT.);
#47=PERSON('2','Creator','Joe',$,$,$);
#48=ORGANIZATION($,'None','None');
#49=PERSON_AND_ORGANIZATION(#47,#48);
#50=PERSON_AND_ORGANIZATION_ROLE('creator');
#51=APPLIED_PERSON_AND_ORGANIZATION_ASSIGNMENT(#49,#50,(#46));
#52=PERSON('3','Supplier','Joe',$,$,$);
#53=ORGANIZATION($,'None','None');
#54=PERSON_AND_ORGANIZATION(#52,#53);
#55=PERSON_AND_ORGANIZATION_ROLE('design_supplier');
#56=APPLIED_PERSON_AND_ORGANIZATION_ASSIGNMENT(#54,#55,(#46));
#57=PRODUCT_DEFINITION_CONTEXT('part definition',#35,'design');
#58=PRODUCT_DEFINITION('None','',#46,#57);
#59=PERSON('4','Creator','Joe',$,$,$);
#60=ORGANIZATION($,'None','None');
#61=PERSON_AND_ORGANIZATION(#59,#60);
#62=PERSON_AND_ORGANIZATION_ROLE('creator');
#63=APPLIED_PERSON_AND_ORGANIZATION_ASSIGNMENT(#61,#62,(#58));
#64=CARTESIAN_POINT('NONE',(0.0,0.0,0.0));
#65=DIRECTION('NONE',(0.0,0.0,1.0));
#66=DIRECTION('NONE',(1.0,0.0,0.0));
#67=AXIS2_PLACEMENT_3D('NONE',#64,#65,#66);
#68=SHAPE_REPRESENTATION('SR1',(#67),#34);
#69=PRODUCT_DEFINITION_SHAPE('PDS1','Test Part',#58);
#70=SHAPE_DEFINITION_REPRESENTATION(#69,#68);
#71=CARTESIAN_POINT('',(1.75,-0.75,-4.253200E-017));
#72=DIRECTION('',(0.707106781186547,-0.707106781186548,1.731855E-016));
#73=DIRECTION('',(0.0,0.0,-1.0));
#74=AXIS2_PLACEMENT_3D('',#71,#72,#73);
#75=PLANE('',#74);
#76=CARTESIAN_POINT('',(2.0,-0.5,0.188));
#77=VERTEX_POINT('',#76);
#78=CARTESIAN_POINT('',(1.5,-1.0,0.188));
#79=VERTEX_POINT('',#78);
#80=CARTESIAN_POINT('',(2.0,-0.5,0.188));
#81=DIRECTION('',(-0.707106781186548,-0.707106781186547,1.570092E-016));
#82=VECTOR('',#81,0.707106781186548);
#83=LINE('',#80,#82);
#84=EDGE_CURVE('',#77,#79,#83,.T.);
#85=ORIENTED_EDGE('',*,*,#84,.T.);
#86=CARTESIAN_POINT('',(1.5,-1.0,1.699242E-016));
#87=VERTEX_POINT('',#86);
#88=CARTESIAN_POINT('',(1.5,-1.0,0.188));
#89=DIRECTION('',(0.0,0.0,-1.0));
#90=VECTOR('',#89,0.188);
#91=LINE('',#88,#90);
#92=EDGE_CURVE('',#79,#87,#91,.T.);
#93=ORIENTED_EDGE('',*,*,#92,.T.);
#94=CARTESIAN_POINT('',(2.0,-0.5,-3.294359E-017));
#95=VERTEX_POINT('',#94);
#96=CARTESIAN_POINT('',(1.5,-1.0,1.869831E-017));
#97=DIRECTION('',(0.707106781186548,0.707106781186547,-1.731855E-016));
#98=VECTOR('',#97,0.707106781186547);
#99=LINE('',#96,#98);
#100=EDGE_CURVE('',#87,#95,#99,.T.);
#101=ORIENTED_EDGE('',*,*,#100,.T.);
#102=CARTESIAN_POINT('',(2.0,-0.5,-3.294359E-017));
#103=DIRECTION('',(0.0,0.0,1.0));
#104=VECTOR('',#103,0.188);
#105=LINE('',#102,#104);
#106=EDGE_CURVE('',#95,#77,#105,.T.);
#107=ORIENTED_EDGE('',*,*,#106,.T.);
#108=EDGE_LOOP('',(#85,#93,#101,#107));
#109=FACE_OUTER_BOUND('',#108,.T.);
#110=ADVANCED_FACE('',(#109),#75,.T.);
#111=CARTESIAN_POINT('',(2.0,1.0,-3.084800E-016));
#112=DIRECTION('',(1.0,0.0,0.0));
#113=DIRECTION('',(0.0,0.0,1.0));
#114=AXIS2_PLACEMENT_3D('',#111,#112,#113);
#115=PLANE('',#114);
#116=ORIENTED_EDGE('',*,*,#106,.F.);
#117=CARTESIAN_POINT('',(2.0,0.5,-2.166345E-016));
#118=VERTEX_POINT('',#117);
#119=CARTESIAN_POINT('',(2.0,-0.5,-2.328433E-018));
#120=DIRECTION('',(0.0,1.0,0.0));
#121=VECTOR('',#120,1.0);
#122=LINE('',#119,#121);
#123=EDGE_CURVE('',#95,#118,#122,.T.);
#124=ORIENTED_EDGE('',*,*,#123,.T.);
#125=CARTESIAN_POINT('',(2.0,0.5,0.188));
#126=VERTEX_POINT('',#125);
#127=CARTESIAN_POINT('',(2.0,0.5,0.188));
#128=DIRECTION('',(0.0,0.0,-1.0));
#129=VECTOR('',#128,0.188);
#130=LINE('',#127,#129);
#131=EDGE_CURVE('',#126,#118,#130,.T.);
#132=ORIENTED_EDGE('',*,*,#131,.F.);
#133=CARTESIAN_POINT('',(2.0,0.5,0.188));
#134=DIRECTION('',(0.0,-1.0,0.0));
#135=VECTOR('',#134,1.0);
#136=LINE('',#133,#135);
#137=EDGE_CURVE('',#126,#77,#136,.T.);
#138=ORIENTED_EDGE('',*,*,#137,.T.);
#139=EDGE_LOOP('',(#116,#124,#132,#138));
#140=FACE_OUTER_BOUND('',#139,.T.);
#141=ADVANCED_FACE('',(#140),#115,.T.);
#142=CARTESIAN_POINT('',(1.0,-9.725554E-017,-1.247891E-016));
#143=DIRECTION('',(0.0,0.0,1.0));
#144=DIRECTION('',(0.0,-1.0,0.0));
#145=AXIS2_PLACEMENT_3D('',#142,#143,#144);
#146=PLANE('',#145);
#147=ORIENTED_EDGE('',*,*,#100,.F.);
#148=CARTESIAN_POINT('',(-4.440892E-016,-1.0,5.890189E-017));
#149=VERTEX_POINT('',#148);
#150=CARTESIAN_POINT('',(-4.440892E-016,-1.0,5.890189E-017));
#151=DIRECTION('',(1.0,0.0,0.0));
#152=VECTOR('',#151,1.5);
#153=LINE('',#150,#152);
#154=EDGE_CURVE('',#149,#87,#153,.T.);
#155=ORIENTED_EDGE('',*,*,#154,.F.);
#156=CARTESIAN_POINT('',(0.0,1.0,-3.084800E-016));
#157=VERTEX_POINT('',#156);
#158=CARTESIAN_POINT('',(-3.835365E-017,1.0,-3.697103E-016));
#159=DIRECTION('',(0.0,-1.0,0.0));
#160=VECTOR('',#159,2.0);
#161=LINE('',#158,#160);
#162=EDGE_CURVE('',#157,#149,#161,.T.);
#163=ORIENTED_EDGE('',*,*,#162,.F.);
#164=CARTESIAN_POINT('',(1.5,1.0,-4.195023E-016));
#165=VERTEX_POINT('',#164);
#166=CARTESIAN_POINT('',(1.5,1.0,-3.084800E-016));
#167=DIRECTION('',(-1.0,0.0,0.0));
#168=VECTOR('',#167,1.5);
#169=LINE('',#166,#168);
#170=EDGE_CURVE('',#165,#157,#169,.T.);
#171=ORIENTED_EDGE('',*,*,#170,.F.);
#172=CARTESIAN_POINT('',(2.0,0.5,-2.568381E-016));
#173=DIRECTION('',(-0.707106781186547,0.707106781186548,-1.731855E-016));
#174=VECTOR('',#173,0.707106781186547);
#175=LINE('',#172,#174);
#176=EDGE_CURVE('',#118,#165,#175,.T.);
#177=ORIENTED_EDGE('',*,*,#176,.F.);
#178=ORIENTED_EDGE('',*,*,#123,.F.);
#179=EDGE_LOOP('',(#147,#155,#163,#171,#177,#178));
#180=FACE_OUTER_BOUND('',#179,.T.);
#181=CARTESIAN_POINT('',(0.375,-0.3595,2.451456E-017));
#182=VERTEX_POINT('',#181);
#183=CARTESIAN_POINT('',(0.375,-0.6405,7.613171E-017));
#184=VERTEX_POINT('',#183);
#185=CARTESIAN_POINT('',(0.375,-0.5,5.032314E-017));
#186=DIRECTION('',(0.0,0.0,1.0));
#187=DIRECTION('',(0.0,-1.0,0.0));
#188=AXIS2_PLACEMENT_3D('',#185,#186,#187);
#189=CIRCLE('',#188,0.1405);
#190=EDGE_CURVE('',#182,#184,#189,.T.);
#191=ORIENTED_EDGE('',*,*,#190,.T.);
#192=CARTESIAN_POINT('',(0.75,-0.6405,-6.264616E-017));
#193=VERTEX_POINT('',#192);
#194=CARTESIAN_POINT('',(0.375,-0.6405,-3.489059E-017));
#195=DIRECTION('',(1.0,0.0,0.0));
#196=VECTOR('',#195,0.375);
#197=LINE('',#194,#196);
#198=EDGE_CURVE('',#184,#193,#197,.T.);
#199=ORIENTED_EDGE('',*,*,#198,.T.);
#200=CARTESIAN_POINT('',(0.75,-0.3595,-1.142633E-016));
#201=VERTEX_POINT('',#200);
#202=CARTESIAN_POINT('',(0.75,-0.5,-8.845474E-017));
#203=DIRECTION('',(0.0,0.0,1.0));
#204=DIRECTION('',(0.0,-1.0,0.0));
#205=AXIS2_PLACEMENT_3D('',#202,#203,#204);
#206=CIRCLE('',#205,0.1405);
#207=EDGE_CURVE('',#193,#201,#206,.T.);
#208=ORIENTED_EDGE('',*,*,#207,.T.);
#209=CARTESIAN_POINT('',(0.75,-0.3595,-1.281411E-016));
#210=DIRECTION('',(-1.0,0.0,0.0));
#211=VECTOR('',#210,0.375);
#212=LINE('',#209,#211);
#213=EDGE_CURVE('',#201,#182,#212,.T.);
#214=ORIENTED_EDGE('',*,*,#213,.T.);
#215=EDGE_LOOP('',(#191,#199,#208,#214));
#216=FACE_BOUND('',#215,.T.);
#217=CARTESIAN_POINT('',(0.375,0.6405,-3.812210E-016));
#218=VERTEX_POINT('',#217);
#219=CARTESIAN_POINT('',(0.375,0.3595,-1.075592E-016));
#220=VERTEX_POINT('',#219);
#221=CARTESIAN_POINT('',(0.375,0.5,-3.554124E-016));
#222=DIRECTION('',(0.0,0.0,1.0));
#223=DIRECTION('',(0.0,-1.0,0.0));
#224=AXIS2_PLACEMENT_3D('',#221,#222,#223);
#225=CIRCLE('',#224,0.1405);
#226=EDGE_CURVE('',#218,#220,#225,.T.);
#227=ORIENTED_EDGE('',*,*,#226,.T.);
#228=CARTESIAN_POINT('',(0.75,0.3595,-2.463371E-016));
#229=VERTEX_POINT('',#228);
#230=CARTESIAN_POINT('',(0.375,0.3595,-2.185815E-016));
#231=DIRECTION('',(1.0,0.0,0.0));
#232=VECTOR('',#231,0.375);
#233=LINE('',#230,#232);
#234=EDGE_CURVE('',#220,#229,#233,.T.);
#235=ORIENTED_EDGE('',*,*,#234,.T.);
#236=CARTESIAN_POINT('',(0.75,0.6405,-2.979543E-016));
#237=VERTEX_POINT('',#236);
#238=CARTESIAN_POINT('',(0.75,0.5,-2.721457E-016));
#239=DIRECTION('',(0.0,0.0,1.0));
#240=DIRECTION('',(0.0,-1.0,0.0));
#241=AXIS2_PLACEMENT_3D('',#238,#239,#240);
#242=CIRCLE('',#241,0.1405);
#243=EDGE_CURVE('',#229,#237,#242,.T.);
#244=ORIENTED_EDGE('',*,*,#243,.T.);
#245=CARTESIAN_POINT('',(0.75,0.6405,-3.118321E-016));
#246=DIRECTION('',(-1.0,0.0,0.0));
#247=VECTOR('',#246,0.375);
#248=LINE('',#245,#247);
#249=EDGE_CURVE('',#237,#218,#248,.T.);
#250=ORIENTED_EDGE('',*,*,#249,.T.);
#251=EDGE_LOOP('',(#227,#235,#244,#250));
#252=FACE_BOUND('',#251,.T.);
#253=ADVANCED_FACE('',(#180,#216,#252),#146,.F.);
#254=CARTESIAN_POINT('',(1.75,0.75,-3.180684E-016));
#255=DIRECTION('',(0.707106781186548,0.707106781186547,-1.731855E-016));
#256=DIRECTION('',(0.0,0.0,1.0));
#257=AXIS2_PLACEMENT_3D('',#254,#255,#256);
#258=PLANE('',#257);
#259=CARTESIAN_POINT('',(1.5,1.0,0.188));
#260=VERTEX_POINT('',#259);
#261=CARTESIAN_POINT('',(1.5,1.0,0.188));
#262=DIRECTION('',(0.707106781186547,-0.707106781186548,1.962616E-016));
#263=VECTOR('',#262,0.707106781186548);
#264=LINE('',#261,#263);
#265=EDGE_CURVE('',#260,#126,#264,.T.);
#266=ORIENTED_EDGE('',*,*,#265,.T.);
#267=ORIENTED_EDGE('',*,*,#131,.T.);
#268=ORIENTED_EDGE('',*,*,#176,.T.);
#269=CARTESIAN_POINT('',(1.5,1.0,-4.195023E-016));
#270=DIRECTION('',(0.0,0.0,1.0));
#271=VECTOR('',#270,0.188);
#272=LINE('',#269,#271);
#273=EDGE_CURVE('',#165,#260,#272,.T.);
#274=ORIENTED_EDGE('',*,*,#273,.T.);
#275=EDGE_LOOP('',(#266,#267,#268,#274));
#276=FACE_OUTER_BOUND('',#275,.T.);
#277=ADVANCED_FACE('',(#276),#258,.T.);
#278=CARTESIAN_POINT('',(0.75,-0.5,-8.845474E-017));
#279=DIRECTION('',(3.329916E-048,2.449213E-016,1.0));
#280=DIRECTION('',(0.0,-1.0,0.0));
#281=AXIS2_PLACEMENT_3D('',#278,#279,#280);
#282=CYLINDRICAL_SURFACE('',#281,0.1405);
#283=CARTESIAN_POINT('',(0.75,-0.3595,0.188));
#284=VERTEX_POINT('',#283);
#285=CARTESIAN_POINT('',(0.75,-0.6405,0.188));
#286=VERTEX_POINT('',#285);
#287=CARTESIAN_POINT('',(0.75,-0.5,0.188));
#288=DIRECTION('',(0.0,0.0,-1.0));
#289=DIRECTION('',(0.0,-1.0,0.0));
#290=AXIS2_PLACEMENT_3D('',#287,#288,#289);
#291=CIRCLE('',#290,0.1405);
#292=EDGE_CURVE('',#284,#286,#291,.T.);
#293=ORIENTED_EDGE('',*,*,#292,.F.);
#294=CARTESIAN_POINT('',(0.75,-0.3595,-1.142633E-016));
#295=DIRECTION('',(0.0,0.0,1.0));
#296=VECTOR('',#295,0.188);
#297=LINE('',#294,#296);
#298=EDGE_CURVE('',#201,#284,#297,.T.);
#299=ORIENTED_EDGE('',*,*,#298,.F.);
#300=ORIENTED_EDGE('',*,*,#207,.F.);
#301=CARTESIAN_POINT('',(0.75,-0.6405,-6.264616E-017));
#302=DIRECTION('',(0.0,0.0,1.0));
#303=VECTOR('',#302,0.188);
#304=LINE('',#301,#303);
#305=EDGE_CURVE('',#193,#286,#304,.T.);
#306=ORIENTED_EDGE('',*,*,#305,.T.);
#307=EDGE_LOOP('',(#293,#299,#300,#306));
#308=FACE_OUTER_BOUND('',#307,.T.);
#309=ADVANCED_FACE('',(#308),#282,.F.);
#310=CARTESIAN_POINT('',(0.75,-0.6405,-6.264616E-017));
#311=DIRECTION('',(0.0,-1.0,0.0));
#312=DIRECTION('',(0.0,0.0,-1.0));
#313=AXIS2_PLACEMENT_3D('',#310,#311,#312);
#314=PLANE('',#313);
#315=CARTESIAN_POINT('',(0.375,-0.6405,0.188));
#316=VERTEX_POINT('',#315);
#317=CARTESIAN_POINT('',(0.75,-0.6405,0.188));
#318=DIRECTION('',(-1.0,0.0,0.0));
#319=VECTOR('',#318,0.375);
#320=LINE('',#317,#319);
#321=EDGE_CURVE('',#286,#316,#320,.T.);
#322=ORIENTED_EDGE('',*,*,#321,.F.);
#323=ORIENTED_EDGE('',*,*,#305,.F.);
#324=ORIENTED_EDGE('',*,*,#198,.F.);
#325=CARTESIAN_POINT('',(0.375,-0.6405,7.613171E-017));
#326=DIRECTION('',(0.0,0.0,1.0));
#327=VECTOR('',#326,0.188);
#328=LINE('',#325,#327);
#329=EDGE_CURVE('',#184,#316,#328,.T.);
#330=ORIENTED_EDGE('',*,*,#329,.T.);
#331=EDGE_LOOP('',(#322,#323,#324,#330));
#332=FACE_OUTER_BOUND('',#331,.T.);
#333=ADVANCED_FACE('',(#332),#314,.F.);
#334=CARTESIAN_POINT('',(0.375,-0.5,5.032314E-017));
#335=DIRECTION('',(3.329916E-048,2.449213E-016,1.0));
#336=DIRECTION('',(0.0,-1.0,0.0));
#337=AXIS2_PLACEMENT_3D('',#334,#335,#336);
#338=CYLINDRICAL_SURFACE('',#337,0.1405);
#339=CARTESIAN_POINT('',(0.375,-0.3595,0.188));
#340=VERTEX_POINT('',#339);
#341=CARTESIAN_POINT('',(0.375,-0.5,0.188));
#342=DIRECTION('',(0.0,0.0,-1.0));
#343=DIRECTION('',(0.0,-1.0,0.0));
#344=AXIS2_PLACEMENT_3D('',#341,#342,#343);
#345=CIRCLE('',#344,0.1405);
#346=EDGE_CURVE('',#316,#340,#345,.T.);
#347=ORIENTED_EDGE('',*,*,#346,.F.);
#348=ORIENTED_EDGE('',*,*,#329,.F.);
#349=ORIENTED_EDGE('',*,*,#190,.F.);
#350=CARTESIAN_POINT('',(0.375,-0.3595,2.451456E-017));
#351=DIRECTION('',(0.0,0.0,1.0));
#352=VECTOR('',#351,0.188);
#353=LINE('',#350,#352);
#354=EDGE_CURVE('',#182,#340,#353,.T.);
#355=ORIENTED_EDGE('',*,*,#354,.T.);
#356=EDGE_LOOP('',(#347,#348,#349,#355));
#357=FACE_OUTER_BOUND('',#356,.T.);
#358=ADVANCED_FACE('',(#357),#338,.F.);
#359=CARTESIAN_POINT('',(0.375,-0.3595,2.451456E-017));
#360=DIRECTION('',(0.0,1.0,0.0));
#361=DIRECTION('',(0.0,0.0,1.0));
#362=AXIS2_PLACEMENT_3D('',#359,#360,#361);
#363=PLANE('',#362);
#364=CARTESIAN_POINT('',(0.375,-0.3595,0.188));
#365=DIRECTION('',(1.0,0.0,0.0));
#366=VECTOR('',#365,0.375);
#367=LINE('',#364,#366);
#368=EDGE_CURVE('',#340,#284,#367,.T.);
#369=ORIENTED_EDGE('',*,*,#368,.F.);
#370=ORIENTED_EDGE('',*,*,#354,.F.);
#371=ORIENTED_EDGE('',*,*,#213,.F.);
#372=ORIENTED_EDGE('',*,*,#298,.T.);
#373=EDGE_LOOP('',(#369,#370,#371,#372));
#374=FACE_OUTER_BOUND('',#373,.T.);
#375=ADVANCED_FACE('',(#374),#363,.F.);
#376=CARTESIAN_POINT('',(0.75,0.5,-2.721457E-016));
#377=DIRECTION('',(3.329916E-048,2.449213E-016,1.0));
#378=DIRECTION('',(0.0,-1.0,0.0));
#379=AXIS2_PLACEMENT_3D('',#376,#377,#378);
#380=CYLINDRICAL_SURFACE('',#379,0.1405);
#381=CARTESIAN_POINT('',(0.75,0.6405,0.188));
#382=VERTEX_POINT('',#381);
#383=CARTESIAN_POINT('',(0.75,0.3595,0.188));
#384=VERTEX_POINT('',#383);
#385=CARTESIAN_POINT('',(0.75,0.5,0.188));
#386=DIRECTION('',(0.0,0.0,-1.0));
#387=DIRECTION('',(0.0,-1.0,0.0));
#388=AXIS2_PLACEMENT_3D('',#385,#386,#387);
#389=CIRCLE('',#388,0.1405);
#390=EDGE_CURVE('',#382,#384,#389,.T.);
#391=ORIENTED_EDGE('',*,*,#390,.F.);
#392=CARTESIAN_POINT('',(0.75,0.6405,-2.979543E-016));
#393=DIRECTION('',(0.0,0.0,1.0));
#394=VECTOR('',#393,0.188);
#395=LINE('',#392,#394);
#396=EDGE_CURVE('',#237,#382,#395,.T.);
#397=ORIENTED_EDGE('',*,*,#396,.F.);
#398=ORIENTED_EDGE('',*,*,#243,.F.);
#399=CARTESIAN_POINT('',(0.75,0.3595,-2.463371E-016));
#400=DIRECTION('',(0.0,0.0,1.0));
#401=VECTOR('',#400,0.188);
#402=LINE('',#399,#401);
#403=EDGE_CURVE('',#229,#384,#402,.T.);
#404=ORIENTED_EDGE('',*,*,#403,.T.);
#405=EDGE_LOOP('',(#391,#397,#398,#404));
#406=FACE_OUTER_BOUND('',#405,.T.);
#407=ADVANCED_FACE('',(#406),#380,.F.);
#408=CARTESIAN_POINT('',(0.75,0.3595,-2.463371E-016));
#409=DIRECTION('',(0.0,-1.0,0.0));
#410=DIRECTION('',(0.0,0.0,-1.0));
#411=AXIS2_PLACEMENT_3D('',#408,#409,#410);
#412=PLANE('',#411);
#413=CARTESIAN_POINT('',(0.375,0.3595,0.188));
#414=VERTEX_POINT('',#413);
#415=CARTESIAN_POINT('',(0.75,0.3595,0.188));
#416=DIRECTION('',(-1.0,0.0,0.0));
#417=VECTOR('',#416,0.375);
#418=LINE('',#415,#417);
#419=EDGE_CURVE('',#384,#414,#418,.T.);
#420=ORIENTED_EDGE('',*,*,#419,.F.);
#421=ORIENTED_EDGE('',*,*,#403,.F.);
#422=ORIENTED_EDGE('',*,*,#234,.F.);
#423=CARTESIAN_POINT('',(0.375,0.3595,-1.075592E-016));
#424=DIRECTION('',(0.0,0.0,1.0));
#425=VECTOR('',#424,0.188);
#426=LINE('',#423,#425);
#427=EDGE_CURVE('',#220,#414,#426,.T.);
#428=ORIENTED_EDGE('',*,*,#427,.T.);
#429=EDGE_LOOP('',(#420,#421,#422,#428));
#430=FACE_OUTER_BOUND('',#429,.T.);
#431=ADVANCED_FACE('',(#430),#412,.F.);
#432=CARTESIAN_POINT('',(0.375,0.5,-3.554124E-016));
#433=DIRECTION('',(3.329916E-048,2.449213E-016,1.0));
#434=DIRECTION('',(0.0,-1.0,0.0));
#435=AXIS2_PLACEMENT_3D('',#432,#433,#434);
#436=CYLINDRICAL_SURFACE('',#435,0.1405);
#437=CARTESIAN_POINT('',(0.375,0.6405,0.188));
#438=VERTEX_POINT('',#437);
#439=CARTESIAN_POINT('',(0.375,0.5,0.188));
#440=DIRECTION('',(0.0,0.0,-1.0));
#441=DIRECTION('',(0.0,-1.0,0.0));
#442=AXIS2_PLACEMENT_3D('',#439,#440,#441);
#443=CIRCLE('',#442,0.1405);
#444=EDGE_CURVE('',#414,#438,#443,.T.);
#445=ORIENTED_EDGE('',*,*,#444,.F.);
#446=ORIENTED_EDGE('',*,*,#427,.F.);
#447=ORIENTED_EDGE('',*,*,#226,.F.);
#448=CARTESIAN_POINT('',(0.375,0.6405,-3.812210E-016));
#449=DIRECTION('',(0.0,0.0,1.0));
#450=VECTOR('',#449,0.188);
#451=LINE('',#448,#450);
#452=EDGE_CURVE('',#218,#438,#451,.T.);
#453=ORIENTED_EDGE('',*,*,#452,.T.);
#454=EDGE_LOOP('',(#445,#446,#447,#453));
#455=FACE_OUTER_BOUND('',#454,.T.);
#456=ADVANCED_FACE('',(#455),#436,.F.);
#457=CARTESIAN_POINT('',(0.375,0.6405,-3.812210E-016));
#458=DIRECTION('',(0.0,1.0,0.0));
#459=DIRECTION('',(0.0,0.0,1.0));
#460=AXIS2_PLACEMENT_3D('',#457,#458,#459);
#461=PLANE('',#460);
#462=CARTESIAN_POINT('',(0.375,0.6405,0.188));
#463=DIRECTION('',(1.0,0.0,0.0));
#464=VECTOR('',#463,0.375);
#465=LINE('',#462,#464);
#466=EDGE_CURVE('',#438,#382,#465,.T.);
#467=ORIENTED_EDGE('',*,*,#466,.F.);
#468=ORIENTED_EDGE('',*,*,#452,.F.);
#469=ORIENTED_EDGE('',*,*,#249,.F.);
#470=ORIENTED_EDGE('',*,*,#396,.T.);
#471=EDGE_LOOP('',(#467,#468,#469,#470));
#472=FACE_OUTER_BOUND('',#471,.T.);
#473=ADVANCED_FACE('',(#472),#461,.F.);
#474=CARTESIAN_POINT('',(0.0,1.0,-3.084800E-016));
#475=DIRECTION('',(0.0,1.0,0.0));
#476=DIRECTION('',(0.0,0.0,1.0));
#477=AXIS2_PLACEMENT_3D('',#474,#475,#476);
#478=PLANE('',#477);
#479=ORIENTED_EDGE('',*,*,#273,.F.);
#480=ORIENTED_EDGE('',*,*,#170,.T.);
#481=CARTESIAN_POINT('',(-1.110223E-016,1.0,0.188));
#482=VERTEX_POINT('',#481);
#483=CARTESIAN_POINT('',(0.0,1.0,-3.084800E-016));
#484=DIRECTION('',(0.0,0.0,1.0));
#485=VECTOR('',#484,0.188);
#486=LINE('',#483,#485);
#487=EDGE_CURVE('',#157,#482,#486,.T.);
#488=ORIENTED_EDGE('',*,*,#487,.T.);
#489=CARTESIAN_POINT('',(0.0,1.0,0.188));
#490=DIRECTION('',(1.0,0.0,0.0));
#491=VECTOR('',#490,1.5);
#492=LINE('',#489,#491);
#493=EDGE_CURVE('',#482,#260,#492,.T.);
#494=ORIENTED_EDGE('',*,*,#493,.T.);
#495=EDGE_LOOP('',(#479,#480,#488,#494));
#496=FACE_OUTER_BOUND('',#495,.T.);
#497=ADVANCED_FACE('',(#496),#478,.T.);
#498=CARTESIAN_POINT('',(1.999999999999999,-1.0,5.890189E-017));
#499=DIRECTION('',(0.0,-1.0,0.0));
#500=DIRECTION('',(0.0,0.0,-1.0));
#501=AXIS2_PLACEMENT_3D('',#498,#499,#500);
#502=PLANE('',#501);
#503=ORIENTED_EDGE('',*,*,#92,.F.);
#504=CARTESIAN_POINT('',(-4.440892E-016,-1.0,0.188));
#505=VERTEX_POINT('',#504);
#506=CARTESIAN_POINT('',(1.5,-1.0,0.188));
#507=DIRECTION('',(-1.0,0.0,0.0));
#508=VECTOR('',#507,1.5);
#509=LINE('',#506,#508);
#510=EDGE_CURVE('',#79,#505,#509,.T.);
#511=ORIENTED_EDGE('',*,*,#510,.T.);
#512=CARTESIAN_POINT('',(-4.440892E-016,-1.0,5.890189E-017));
#513=DIRECTION('',(0.0,0.0,1.0));
#514=VECTOR('',#513,0.188);
#515=LINE('',#512,#514);
#516=EDGE_CURVE('',#149,#505,#515,.T.);
#517=ORIENTED_EDGE('',*,*,#516,.F.);
#518=ORIENTED_EDGE('',*,*,#154,.T.);
#519=EDGE_LOOP('',(#503,#511,#517,#518));
#520=FACE_OUTER_BOUND('',#519,.T.);
#521=ADVANCED_FACE('',(#520),#502,.T.);
#522=CARTESIAN_POINT('',(-4.440892E-016,-1.0,5.890189E-017));
#523=DIRECTION('',(-1.0,0.0,0.0));
#524=DIRECTION('',(0.0,0.0,-1.0));
#525=AXIS2_PLACEMENT_3D('',#522,#523,#524);
#526=PLANE('',#525);
#527=CARTESIAN_POINT('',(-5.167579E-016,-1.0,0.188));
#528=DIRECTION('',(0.0,1.0,0.0));
#529=VECTOR('',#528,2.0);
#530=LINE('',#527,#529);
#531=EDGE_CURVE('',#505,#482,#530,.T.);
#532=ORIENTED_EDGE('',*,*,#531,.T.);
#533=ORIENTED_EDGE('',*,*,#487,.F.);
#534=ORIENTED_EDGE('',*,*,#162,.T.);
#535=ORIENTED_EDGE('',*,*,#516,.T.);
#536=EDGE_LOOP('',(#532,#533,#534,#535));
#537=FACE_OUTER_BOUND('',#536,.T.);
#538=ADVANCED_FACE('',(#537),#526,.T.);
#539=CARTESIAN_POINT('',(-1.110223E-016,1.0,0.188));
#540=DIRECTION('',(0.0,0.0,-1.0));
#541=DIRECTION('',(0.0,1.0,0.0));
#542=AXIS2_PLACEMENT_3D('',#539,#540,#541);
#543=PLANE('',#542);
#544=ORIENTED_EDGE('',*,*,#84,.F.);
#545=ORIENTED_EDGE('',*,*,#137,.F.);
#546=ORIENTED_EDGE('',*,*,#265,.F.);
#547=ORIENTED_EDGE('',*,*,#493,.F.);
#548=ORIENTED_EDGE('',*,*,#531,.F.);
#549=ORIENTED_EDGE('',*,*,#510,.F.);
#550=EDGE_LOOP('',(#544,#545,#546,#547,#548,#549));
#551=FACE_OUTER_BOUND('',#550,.T.);
#552=ORIENTED_EDGE('',*,*,#346,.T.);
#553=ORIENTED_EDGE('',*,*,#368,.T.);
#554=ORIENTED_EDGE('',*,*,#292,.T.);
#555=ORIENTED_EDGE('',*,*,#321,.T.);
#556=EDGE_LOOP('',(#552,#553,#554,#555));
#557=FACE_BOUND('',#556,.T.);
#558=ORIENTED_EDGE('',*,*,#444,.T.);
#559=ORIENTED_EDGE('',*,*,#466,.T.);
#560=ORIENTED_EDGE('',*,*,#390,.T.);
#561=ORIENTED_EDGE('',*,*,#419,.T.);
#562=EDGE_LOOP('',(#558,#559,#560,#561));
#563=FACE_BOUND('',#562,.T.);
#564=ADVANCED_FACE('',(#551,#557,#563),#543,.F.);
#565=CLOSED_SHELL('',(#110,#141,#253,#277,#309,#333,#358,#375,#407,#431,#456,#473,#497,#521,#538,#564));
#566=MANIFOLD_SOLID_BREP('2E',#565);
#567=COLOUR_RGB('253',0.732,0.732,0.732);
#568=SURFACE_STYLE_USAGE(.BOTH.,#569);
#569=SURFACE_SIDE_STYLE('NONE',(#570));
#570=SURFACE_STYLE_FILL_AREA(#571);
#571=FILL_AREA_STYLE('NONE',(#572));
#572=FILL_AREA_STYLE_COLOUR('NONE',#567);
#573=PRESENTATION_STYLE_ASSIGNMENT((#568));
#574=STYLED_ITEM('NONE',(#573),#566);
#575=MECHANICAL_DESIGN_GEOMETRIC_PRESENTATION_REPRESENTATION('NONE',(#574),#34);
#576=PRESENTATION_LAYER_ASSIGNMENT('0','None',(#566));
#577=ADVANCED_BREP_SHAPE_REPRESENTATION('ABSR1',(#566),#34);
#578=SHAPE_REPRESENTATION_RELATIONSHIP('SRRPL1','',#577,#68);
ENDSEC;
END-ISO-10303-21;
