ISO-10303-21;
HEADER;
/****************************************************************
 * Generated by software with PDElib inside                    *
 * PDElib Version v51a, created Fri 09/10/2010                  *
 * ITI Transcendata (http://www.transcendata.com/)              *
 ****************************************************************/
FILE_DESCRIPTION((''),'2;1');
FILE_NAME('10JP4204.stp','2015-07-14T08:28:59',(''),(''),'Mechanical Desktop 2011','Mechanical Desktop 2011',', , ');
FILE_SCHEMA(('AUTOMOTIVE_DESIGN { 1 2 10303 214 1 1 1 1 }'));
ENDSEC;
DATA;
#10=(NAMED_UNIT(*)PLANE_ANGLE_UNIT()SI_UNIT($,.RADIAN.));
#11=DIMENSIONAL_EXPONENTS(0.0,0.0,0.0,0.0,0.0,0.0,0.0);
#12=PLANE_ANGLE_MEASURE_WITH_UNIT(PLANE_ANGLE_MEASURE(0.0174532925),#10);
#16=(CONVERSION_BASED_UNIT('DEGREE',#12)NAMED_UNIT(#11)PLANE_ANGLE_UNIT());
#20=(NAMED_UNIT(*)SI_UNIT($,.STERADIAN.)SOLID_ANGLE_UNIT());
#24=(LENGTH_UNIT()NAMED_UNIT(*)SI_UNIT(.CENTI.,.METRE.));
#25=DIMENSIONAL_EXPONENTS(1.0,0.0,0.0,0.0,0.0,0.0,0.0);
#26=LENGTH_MEASURE_WITH_UNIT(LENGTH_MEASURE(2.54),#24);
#30=(CONVERSION_BASED_UNIT('INCH',#26)LENGTH_UNIT()NAMED_UNIT(#25));
#32=UNCERTAINTY_MEASURE_WITH_UNIT(LENGTH_MEASURE(0.000001),#30,'DISTANCE_ACCURACY_VALUE','');
#34=(GEOMETRIC_REPRESENTATION_CONTEXT(3)GLOBAL_UNCERTAINTY_ASSIGNED_CONTEXT((#32))GLOBAL_UNIT_ASSIGNED_CONTEXT((#16,#20,#30))REPRESENTATION_CONTEXT('','3D'));
#35=APPLICATION_CONTEXT('automotive design');
#36=APPLICATION_PROTOCOL_DEFINITION('INTERNATIONAL_STANDARD','automotive_design',1998,#35);
#37=PRODUCT_CONTEXT('3D Mechanical Parts',#35,'mechanical');
#38=PRODUCT('Product','Product','',(#37));
#39=PRODUCT_RELATED_PRODUCT_CATEGORY('part',$,(#38));
#40=PRODUCT_CATEGORY('part',$);
#41=PERSON('1','Design','Joe',$,$,$);
#42=ORGANIZATION($,'None','None');
#43=PERSON_AND_ORGANIZATION(#41,#42);
#44=PERSON_AND_ORGANIZATION_ROLE('design_owner');
#45=APPLIED_PERSON_AND_ORGANIZATION_ASSIGNMENT(#43,#44,(#38));
#46=PRODUCT_DEFINITION_FORMATION_WITH_SPECIFIED_SOURCE('None','',#38,.BOUGHT.);
#47=PERSON('2','Creator','Joe',$,$,$);
#48=ORGANIZATION($,'None','None');
#49=PERSON_AND_ORGANIZATION(#47,#48);
#50=PERSON_AND_ORGANIZATION_ROLE('creator');
#51=APPLIED_PERSON_AND_ORGANIZATION_ASSIGNMENT(#49,#50,(#46));
#52=PERSON('3','Supplier','Joe',$,$,$);
#53=ORGANIZATION($,'None','None');
#54=PERSON_AND_ORGANIZATION(#52,#53);
#55=PERSON_AND_ORGANIZATION_ROLE('design_supplier');
#56=APPLIED_PERSON_AND_ORGANIZATION_ASSIGNMENT(#54,#55,(#46));
#57=PRODUCT_DEFINITION_CONTEXT('part definition',#35,'design');
#58=PRODUCT_DEFINITION('None','',#46,#57);
#59=PERSON('4','Creator','Joe',$,$,$);
#60=ORGANIZATION($,'None','None');
#61=PERSON_AND_ORGANIZATION(#59,#60);
#62=PERSON_AND_ORGANIZATION_ROLE('creator');
#63=APPLIED_PERSON_AND_ORGANIZATION_ASSIGNMENT(#61,#62,(#58));
#64=CARTESIAN_POINT('NONE',(0.0,0.0,0.0));
#65=DIRECTION('NONE',(0.0,0.0,1.0));
#66=DIRECTION('NONE',(1.0,0.0,0.0));
#67=AXIS2_PLACEMENT_3D('NONE',#64,#65,#66);
#68=SHAPE_REPRESENTATION('SR1',(#67),#34);
#69=PRODUCT_DEFINITION_SHAPE('PDS1','Test Part',#58);
#70=SHAPE_DEFINITION_REPRESENTATION(#69,#68);
#71=CARTESIAN_POINT('',(0.0,0.0,0.094));
#72=DIRECTION('',(2.832749E-016,-2.449213E-016,-1.0));
#73=DIRECTION('',(0.0,1.0,0.0));
#74=AXIS2_PLACEMENT_3D('',#71,#72,#73);
#75=CYLINDRICAL_SURFACE('',#74,0.140625);
#76=CARTESIAN_POINT('',(0.0,0.140625,0.188));
#77=VERTEX_POINT('',#76);
#78=CARTESIAN_POINT('',(0.0,0.140625,1.962131E-016));
#79=VERTEX_POINT('',#78);
#80=CARTESIAN_POINT('',(-7.963024E-019,0.140625,0.188));
#81=DIRECTION('',(0.0,0.0,-1.0));
#82=VECTOR('',#81,0.188);
#83=LINE('',#80,#82);
#84=EDGE_CURVE('',#77,#79,#83,.T.);
#85=ORIENTED_EDGE('',*,*,#84,.F.);
#86=CARTESIAN_POINT('',(-6.968098E-017,-0.140625,0.188));
#87=VERTEX_POINT('',#86);
#88=CARTESIAN_POINT('',(0.0,0.0,0.188));
#89=DIRECTION('',(0.0,0.0,-1.0));
#90=DIRECTION('',(0.0,1.0,0.0));
#91=AXIS2_PLACEMENT_3D('',#88,#89,#90);
#92=CIRCLE('',#91,0.140625);
#93=EDGE_CURVE('',#87,#77,#92,.T.);
#94=ORIENTED_EDGE('',*,*,#93,.F.);
#95=CARTESIAN_POINT('',(-1.642529E-017,-0.140625,2.775558E-017));
#96=VERTEX_POINT('',#95);
#97=CARTESIAN_POINT('',(-6.968098E-017,-0.140625,0.188));
#98=DIRECTION('',(0.0,0.0,-1.0));
#99=VECTOR('',#98,0.188);
#100=LINE('',#97,#99);
#101=EDGE_CURVE('',#87,#96,#100,.T.);
#102=ORIENTED_EDGE('',*,*,#101,.T.);
#103=CARTESIAN_POINT('',(0.0,0.0,0.0));
#104=DIRECTION('',(0.0,0.0,1.0));
#105=DIRECTION('',(0.0,1.0,0.0));
#106=AXIS2_PLACEMENT_3D('',#103,#104,#105);
#107=CIRCLE('',#106,0.140625);
#108=EDGE_CURVE('',#79,#96,#107,.T.);
#109=ORIENTED_EDGE('',*,*,#108,.F.);
#110=EDGE_LOOP('',(#85,#94,#102,#109));
#111=FACE_OUTER_BOUND('',#110,.T.);
#112=ADVANCED_FACE('',(#111),#75,.F.);
#113=CARTESIAN_POINT('',(1.0,-1.665335E-016,0.094));
#114=DIRECTION('',(2.832749E-016,-2.449213E-016,-1.0));
#115=DIRECTION('',(0.0,1.0,0.0));
#116=AXIS2_PLACEMENT_3D('',#113,#114,#115);
#117=CYLINDRICAL_SURFACE('',#116,0.140625);
#118=CARTESIAN_POINT('',(1.0,0.140625,0.188));
#119=VERTEX_POINT('',#118);
#120=CARTESIAN_POINT('',(1.0,0.140625,4.182577E-016));
#121=VERTEX_POINT('',#120);
#122=CARTESIAN_POINT('',(1.0,0.140625,0.188));
#123=DIRECTION('',(0.0,0.0,-1.0));
#124=VECTOR('',#123,0.188);
#125=LINE('',#122,#124);
#126=EDGE_CURVE('',#119,#121,#125,.T.);
#127=ORIENTED_EDGE('',*,*,#126,.F.);
#128=CARTESIAN_POINT('',(1.0,-0.140625,0.188));
#129=VERTEX_POINT('',#128);
#130=CARTESIAN_POINT('',(1.0,-1.665335E-016,0.188));
#131=DIRECTION('',(0.0,0.0,-1.0));
#132=DIRECTION('',(0.0,1.0,0.0));
#133=AXIS2_PLACEMENT_3D('',#130,#131,#132);
#134=CIRCLE('',#133,0.140625);
#135=EDGE_CURVE('',#129,#119,#134,.T.);
#136=ORIENTED_EDGE('',*,*,#135,.F.);
#137=CARTESIAN_POINT('',(1.0,-0.140625,4.718448E-016));
#138=VERTEX_POINT('',#137);
#139=CARTESIAN_POINT('',(1.0,-0.140625,0.188));
#140=DIRECTION('',(0.0,0.0,-1.0));
#141=VECTOR('',#140,0.188);
#142=LINE('',#139,#141);
#143=EDGE_CURVE('',#129,#138,#142,.T.);
#144=ORIENTED_EDGE('',*,*,#143,.T.);
#145=CARTESIAN_POINT('',(1.0,-1.665335E-016,4.440892E-016));
#146=DIRECTION('',(0.0,0.0,1.0));
#147=DIRECTION('',(0.0,1.0,0.0));
#148=AXIS2_PLACEMENT_3D('',#145,#146,#147);
#149=CIRCLE('',#148,0.140625);
#150=EDGE_CURVE('',#121,#138,#149,.T.);
#151=ORIENTED_EDGE('',*,*,#150,.F.);
#152=EDGE_LOOP('',(#127,#136,#144,#151));
#153=FACE_OUTER_BOUND('',#152,.T.);
#154=ADVANCED_FACE('',(#153),#117,.F.);
#155=CARTESIAN_POINT('',(2.0,-2.775558E-016,0.094));
#156=DIRECTION('',(2.832749E-016,-2.449213E-016,-1.0));
#157=DIRECTION('',(0.0,1.0,0.0));
#158=AXIS2_PLACEMENT_3D('',#155,#156,#157);
#159=CYLINDRICAL_SURFACE('',#158,0.140625);
#160=CARTESIAN_POINT('',(2.0,0.140625,0.188));
#161=VERTEX_POINT('',#160);
#162=CARTESIAN_POINT('',(2.0,0.140625,4.182577E-016));
#163=VERTEX_POINT('',#162);
#164=CARTESIAN_POINT('',(2.0,0.140625,0.188));
#165=DIRECTION('',(0.0,0.0,-1.0));
#166=VECTOR('',#165,0.188);
#167=LINE('',#164,#166);
#168=EDGE_CURVE('',#161,#163,#167,.T.);
#169=ORIENTED_EDGE('',*,*,#168,.F.);
#170=CARTESIAN_POINT('',(2.0,-0.140625,0.188000000000001));
#171=VERTEX_POINT('',#170);
#172=CARTESIAN_POINT('',(2.0,-2.775558E-016,0.188000000000001));
#173=DIRECTION('',(0.0,0.0,-1.0));
#174=DIRECTION('',(0.0,1.0,0.0));
#175=AXIS2_PLACEMENT_3D('',#172,#173,#174);
#176=CIRCLE('',#175,0.140625);
#177=EDGE_CURVE('',#171,#161,#176,.T.);
#178=ORIENTED_EDGE('',*,*,#177,.F.);
#179=CARTESIAN_POINT('',(2.0,-0.140625,6.938894E-016));
#180=VERTEX_POINT('',#179);
#181=CARTESIAN_POINT('',(2.0,-0.140625,0.188000000000001));
#182=DIRECTION('',(0.0,0.0,-1.0));
#183=VECTOR('',#182,0.188);
#184=LINE('',#181,#183);
#185=EDGE_CURVE('',#171,#180,#184,.T.);
#186=ORIENTED_EDGE('',*,*,#185,.T.);
#187=CARTESIAN_POINT('',(2.0,-3.885781E-016,6.661338E-016));
#188=DIRECTION('',(0.0,0.0,1.0));
#189=DIRECTION('',(0.0,1.0,0.0));
#190=AXIS2_PLACEMENT_3D('',#187,#188,#189);
#191=CIRCLE('',#190,0.140625);
#192=EDGE_CURVE('',#163,#180,#191,.T.);
#193=ORIENTED_EDGE('',*,*,#192,.F.);
#194=EDGE_LOOP('',(#169,#178,#186,#193));
#195=FACE_OUTER_BOUND('',#194,.T.);
#196=ADVANCED_FACE('',(#195),#159,.F.);
#197=CARTESIAN_POINT('',(1.0,1.0,0.094));
#198=DIRECTION('',(2.832749E-016,-2.449213E-016,-1.0));
#199=DIRECTION('',(0.0,1.0,0.0));
#200=AXIS2_PLACEMENT_3D('',#197,#198,#199);
#201=CYLINDRICAL_SURFACE('',#200,0.140625);
#202=CARTESIAN_POINT('',(1.0,1.140625,0.188));
#203=VERTEX_POINT('',#202);
#204=CARTESIAN_POINT('',(1.0,1.140625,1.252211E-017));
#205=VERTEX_POINT('',#204);
#206=CARTESIAN_POINT('',(1.0,1.140625,0.188));
#207=DIRECTION('',(0.0,0.0,-1.0));
#208=VECTOR('',#207,0.188);
#209=LINE('',#206,#208);
#210=EDGE_CURVE('',#203,#205,#209,.T.);
#211=ORIENTED_EDGE('',*,*,#210,.F.);
#212=CARTESIAN_POINT('',(1.0,0.859375,0.188));
#213=VERTEX_POINT('',#212);
#214=CARTESIAN_POINT('',(1.0,1.0,0.188));
#215=DIRECTION('',(0.0,0.0,-1.0));
#216=DIRECTION('',(0.0,1.0,0.0));
#217=AXIS2_PLACEMENT_3D('',#214,#215,#216);
#218=CIRCLE('',#217,0.140625);
#219=EDGE_CURVE('',#213,#203,#218,.T.);
#220=ORIENTED_EDGE('',*,*,#219,.F.);
#221=CARTESIAN_POINT('',(1.0,0.859375,5.551115E-017));
#222=VERTEX_POINT('',#221);
#223=CARTESIAN_POINT('',(1.0,0.859375,0.188));
#224=DIRECTION('',(0.0,0.0,-1.0));
#225=VECTOR('',#224,0.188);
#226=LINE('',#223,#225);
#227=EDGE_CURVE('',#213,#222,#226,.T.);
#228=ORIENTED_EDGE('',*,*,#227,.T.);
#229=CARTESIAN_POINT('',(1.0,1.0,3.835365E-017));
#230=DIRECTION('',(0.0,0.0,1.0));
#231=DIRECTION('',(0.0,1.0,0.0));
#232=AXIS2_PLACEMENT_3D('',#229,#230,#231);
#233=CIRCLE('',#232,0.140625);
#234=EDGE_CURVE('',#205,#222,#233,.T.);
#235=ORIENTED_EDGE('',*,*,#234,.F.);
#236=EDGE_LOOP('',(#211,#220,#228,#235));
#237=FACE_OUTER_BOUND('',#236,.T.);
#238=ADVANCED_FACE('',(#237),#201,.F.);
#239=CARTESIAN_POINT('',(1.000000000000001,2.0,0.094));
#240=DIRECTION('',(2.832749E-016,-2.449213E-016,-1.0));
#241=DIRECTION('',(0.0,1.0,0.0));
#242=AXIS2_PLACEMENT_3D('',#239,#240,#241);
#243=CYLINDRICAL_SURFACE('',#242,0.140625);
#244=CARTESIAN_POINT('',(1.000000000000001,2.140625,0.188));
#245=VERTEX_POINT('',#244);
#246=CARTESIAN_POINT('',(1.000000000000001,2.140625,-1.711688E-016));
#247=VERTEX_POINT('',#246);
#248=CARTESIAN_POINT('',(1.000000000000001,2.140625,0.188));
#249=DIRECTION('',(0.0,0.0,-1.0));
#250=VECTOR('',#249,0.188);
#251=LINE('',#248,#250);
#252=EDGE_CURVE('',#245,#247,#251,.T.);
#253=ORIENTED_EDGE('',*,*,#252,.F.);
#254=CARTESIAN_POINT('',(1.000000000000001,1.859375,0.188));
#255=VERTEX_POINT('',#254);
#256=CARTESIAN_POINT('',(1.000000000000001,2.0,0.188));
#257=DIRECTION('',(0.0,0.0,-1.0));
#258=DIRECTION('',(0.0,1.0,0.0));
#259=AXIS2_PLACEMENT_3D('',#256,#257,#258);
#260=CIRCLE('',#259,0.140625);
#261=EDGE_CURVE('',#255,#245,#260,.T.);
#262=ORIENTED_EDGE('',*,*,#261,.F.);
#263=CARTESIAN_POINT('',(1.000000000000001,1.859375,-1.249001E-016));
#264=VERTEX_POINT('',#263);
#265=CARTESIAN_POINT('',(1.000000000000001,1.859375,0.188));
#266=DIRECTION('',(0.0,0.0,-1.0));
#267=VECTOR('',#266,0.188);
#268=LINE('',#265,#267);
#269=EDGE_CURVE('',#255,#264,#268,.T.);
#270=ORIENTED_EDGE('',*,*,#269,.T.);
#271=CARTESIAN_POINT('',(1.000000000000001,2.0,-1.453373E-016));
#272=DIRECTION('',(0.0,0.0,1.0));
#273=DIRECTION('',(0.0,1.0,0.0));
#274=AXIS2_PLACEMENT_3D('',#271,#272,#273);
#275=CIRCLE('',#274,0.140625);
#276=EDGE_CURVE('',#247,#264,#275,.T.);
#277=ORIENTED_EDGE('',*,*,#276,.F.);
#278=EDGE_LOOP('',(#253,#262,#270,#277));
#279=FACE_OUTER_BOUND('',#278,.T.);
#280=ADVANCED_FACE('',(#279),#243,.F.);
#281=CARTESIAN_POINT('',(1.000000000000001,2.0,0.094));
#282=DIRECTION('',(2.832749E-016,-2.449213E-016,-1.0));
#283=DIRECTION('',(0.0,1.0,0.0));
#284=AXIS2_PLACEMENT_3D('',#281,#282,#283);
#285=CYLINDRICAL_SURFACE('',#284,0.140625);
#286=ORIENTED_EDGE('',*,*,#252,.T.);
#287=CARTESIAN_POINT('',(1.000000000000001,2.0,-1.453373E-016));
#288=DIRECTION('',(0.0,0.0,1.0));
#289=DIRECTION('',(0.0,1.0,0.0));
#290=AXIS2_PLACEMENT_3D('',#287,#288,#289);
#291=CIRCLE('',#290,0.140625);
#292=EDGE_CURVE('',#264,#247,#291,.T.);
#293=ORIENTED_EDGE('',*,*,#292,.F.);
#294=ORIENTED_EDGE('',*,*,#269,.F.);
#295=CARTESIAN_POINT('',(1.000000000000001,2.0,0.188));
#296=DIRECTION('',(0.0,0.0,-1.0));
#297=DIRECTION('',(0.0,1.0,0.0));
#298=AXIS2_PLACEMENT_3D('',#295,#296,#297);
#299=CIRCLE('',#298,0.140625);
#300=EDGE_CURVE('',#245,#255,#299,.T.);
#301=ORIENTED_EDGE('',*,*,#300,.F.);
#302=EDGE_LOOP('',(#286,#293,#294,#301));
#303=FACE_OUTER_BOUND('',#302,.T.);
#304=ADVANCED_FACE('',(#303),#285,.F.);
#305=CARTESIAN_POINT('',(1.0,1.0,0.094));
#306=DIRECTION('',(2.832749E-016,-2.449213E-016,-1.0));
#307=DIRECTION('',(0.0,1.0,0.0));
#308=AXIS2_PLACEMENT_3D('',#305,#306,#307);
#309=CYLINDRICAL_SURFACE('',#308,0.140625);
#310=ORIENTED_EDGE('',*,*,#210,.T.);
#311=CARTESIAN_POINT('',(1.0,1.0,3.835365E-017));
#312=DIRECTION('',(0.0,0.0,1.0));
#313=DIRECTION('',(0.0,1.0,0.0));
#314=AXIS2_PLACEMENT_3D('',#311,#312,#313);
#315=CIRCLE('',#314,0.140625);
#316=EDGE_CURVE('',#222,#205,#315,.T.);
#317=ORIENTED_EDGE('',*,*,#316,.F.);
#318=ORIENTED_EDGE('',*,*,#227,.F.);
#319=CARTESIAN_POINT('',(1.0,1.0,0.188));
#320=DIRECTION('',(0.0,0.0,-1.0));
#321=DIRECTION('',(0.0,1.0,0.0));
#322=AXIS2_PLACEMENT_3D('',#319,#320,#321);
#323=CIRCLE('',#322,0.140625);
#324=EDGE_CURVE('',#203,#213,#323,.T.);
#325=ORIENTED_EDGE('',*,*,#324,.F.);
#326=EDGE_LOOP('',(#310,#317,#318,#325));
#327=FACE_OUTER_BOUND('',#326,.T.);
#328=ADVANCED_FACE('',(#327),#309,.F.);
#329=CARTESIAN_POINT('',(2.0,-2.775558E-016,0.094));
#330=DIRECTION('',(2.832749E-016,-2.449213E-016,-1.0));
#331=DIRECTION('',(0.0,1.0,0.0));
#332=AXIS2_PLACEMENT_3D('',#329,#330,#331);
#333=CYLINDRICAL_SURFACE('',#332,0.140625);
#334=ORIENTED_EDGE('',*,*,#168,.T.);
#335=CARTESIAN_POINT('',(2.0,-3.885781E-016,6.661338E-016));
#336=DIRECTION('',(0.0,0.0,1.0));
#337=DIRECTION('',(0.0,1.0,0.0));
#338=AXIS2_PLACEMENT_3D('',#335,#336,#337);
#339=CIRCLE('',#338,0.140625);
#340=EDGE_CURVE('',#180,#163,#339,.T.);
#341=ORIENTED_EDGE('',*,*,#340,.F.);
#342=ORIENTED_EDGE('',*,*,#185,.F.);
#343=CARTESIAN_POINT('',(2.0,-2.775558E-016,0.188000000000001));
#344=DIRECTION('',(0.0,0.0,-1.0));
#345=DIRECTION('',(0.0,1.0,0.0));
#346=AXIS2_PLACEMENT_3D('',#343,#344,#345);
#347=CIRCLE('',#346,0.140625);
#348=EDGE_CURVE('',#161,#171,#347,.T.);
#349=ORIENTED_EDGE('',*,*,#348,.F.);
#350=EDGE_LOOP('',(#334,#341,#342,#349));
#351=FACE_OUTER_BOUND('',#350,.T.);
#352=ADVANCED_FACE('',(#351),#333,.F.);
#353=CARTESIAN_POINT('',(1.0,-1.665335E-016,0.094));
#354=DIRECTION('',(2.832749E-016,-2.449213E-016,-1.0));
#355=DIRECTION('',(0.0,1.0,0.0));
#356=AXIS2_PLACEMENT_3D('',#353,#354,#355);
#357=CYLINDRICAL_SURFACE('',#356,0.140625);
#358=ORIENTED_EDGE('',*,*,#126,.T.);
#359=CARTESIAN_POINT('',(1.0,-1.665335E-016,4.440892E-016));
#360=DIRECTION('',(0.0,0.0,1.0));
#361=DIRECTION('',(0.0,1.0,0.0));
#362=AXIS2_PLACEMENT_3D('',#359,#360,#361);
#363=CIRCLE('',#362,0.140625);
#364=EDGE_CURVE('',#138,#121,#363,.T.);
#365=ORIENTED_EDGE('',*,*,#364,.F.);
#366=ORIENTED_EDGE('',*,*,#143,.F.);
#367=CARTESIAN_POINT('',(1.0,-1.665335E-016,0.188));
#368=DIRECTION('',(0.0,0.0,-1.0));
#369=DIRECTION('',(0.0,1.0,0.0));
#370=AXIS2_PLACEMENT_3D('',#367,#368,#369);
#371=CIRCLE('',#370,0.140625);
#372=EDGE_CURVE('',#119,#129,#371,.T.);
#373=ORIENTED_EDGE('',*,*,#372,.F.);
#374=EDGE_LOOP('',(#358,#365,#366,#373));
#375=FACE_OUTER_BOUND('',#374,.T.);
#376=ADVANCED_FACE('',(#375),#357,.F.);
#377=CARTESIAN_POINT('',(0.0,0.0,0.094));
#378=DIRECTION('',(2.832749E-016,-2.449213E-016,-1.0));
#379=DIRECTION('',(0.0,1.0,0.0));
#380=AXIS2_PLACEMENT_3D('',#377,#378,#379);
#381=CYLINDRICAL_SURFACE('',#380,0.140625);
#382=ORIENTED_EDGE('',*,*,#84,.T.);
#383=CARTESIAN_POINT('',(0.0,0.0,0.0));
#384=DIRECTION('',(0.0,0.0,1.0));
#385=DIRECTION('',(0.0,1.0,0.0));
#386=AXIS2_PLACEMENT_3D('',#383,#384,#385);
#387=CIRCLE('',#386,0.140625);
#388=EDGE_CURVE('',#96,#79,#387,.T.);
#389=ORIENTED_EDGE('',*,*,#388,.F.);
#390=ORIENTED_EDGE('',*,*,#101,.F.);
#391=CARTESIAN_POINT('',(0.0,0.0,0.188));
#392=DIRECTION('',(0.0,0.0,-1.0));
#393=DIRECTION('',(0.0,1.0,0.0));
#394=AXIS2_PLACEMENT_3D('',#391,#392,#393);
#395=CIRCLE('',#394,0.140625);
#396=EDGE_CURVE('',#77,#87,#395,.T.);
#397=ORIENTED_EDGE('',*,*,#396,.F.);
#398=EDGE_LOOP('',(#382,#389,#390,#397));
#399=FACE_OUTER_BOUND('',#398,.T.);
#400=ADVANCED_FACE('',(#399),#381,.F.);
#401=CARTESIAN_POINT('',(1.500000000000001,2.5,-3.482051E-016));
#402=DIRECTION('',(0.894427190999916,0.447213595499958,-5.476606E-017));
#403=DIRECTION('',(0.0,0.0,-1.0));
#404=AXIS2_PLACEMENT_3D('',#401,#402,#403);
#405=PLANE('',#404);
#406=CARTESIAN_POINT('',(1.500000000000001,2.5,0.188));
#407=VERTEX_POINT('',#406);
#408=CARTESIAN_POINT('',(2.5,0.5,0.188));
#409=VERTEX_POINT('',#408);
#410=CARTESIAN_POINT('',(1.5,2.5,0.188));
#411=DIRECTION('',(0.447213595499958,-0.894427190999916,2.482534E-016));
#412=VECTOR('',#411,2.236067977499789);
#413=LINE('',#410,#412);
#414=EDGE_CURVE('',#407,#409,#413,.T.);
#415=ORIENTED_EDGE('',*,*,#414,.T.);
#416=CARTESIAN_POINT('',(2.5,0.5,2.412214E-016));
#417=VERTEX_POINT('',#416);
#418=CARTESIAN_POINT('',(2.5,0.5,2.412214E-016));
#419=DIRECTION('',(0.0,0.0,1.0));
#420=VECTOR('',#419,0.188);
#421=LINE('',#418,#420);
#422=EDGE_CURVE('',#417,#409,#421,.T.);
#423=ORIENTED_EDGE('',*,*,#422,.F.);
#424=CARTESIAN_POINT('',(1.500000000000001,2.5,-3.482051E-016));
#425=VERTEX_POINT('',#424);
#426=CARTESIAN_POINT('',(2.5,0.5,2.412214E-016));
#427=DIRECTION('',(-0.447213595499958,0.894427190999916,-2.464473E-016));
#428=VECTOR('',#427,2.236067977499789);
#429=LINE('',#426,#428);
#430=EDGE_CURVE('',#417,#425,#429,.T.);
#431=ORIENTED_EDGE('',*,*,#430,.T.);
#432=CARTESIAN_POINT('',(1.500000000000001,2.5,-3.482051E-016));
#433=DIRECTION('',(0.0,0.0,1.0));
#434=VECTOR('',#433,0.188);
#435=LINE('',#432,#434);
#436=EDGE_CURVE('',#425,#407,#435,.T.);
#437=ORIENTED_EDGE('',*,*,#436,.T.);
#438=EDGE_LOOP('',(#415,#423,#431,#437));
#439=FACE_OUTER_BOUND('',#438,.T.);
#440=ADVANCED_FACE('',(#439),#405,.T.);
#441=CARTESIAN_POINT('',(2.5,0.5,2.412214E-016));
#442=DIRECTION('',(1.0,0.0,0.0));
#443=DIRECTION('',(0.0,0.0,-1.0));
#444=AXIS2_PLACEMENT_3D('',#441,#442,#443);
#445=PLANE('',#444);
#446=CARTESIAN_POINT('',(2.5,-0.5,0.188000000000001));
#447=VERTEX_POINT('',#446);
#448=CARTESIAN_POINT('',(2.5,0.5,0.188));
#449=DIRECTION('',(0.0,-1.0,0.0));
#450=VECTOR('',#449,1.0);
#451=LINE('',#448,#450);
#452=EDGE_CURVE('',#409,#447,#451,.T.);
#453=ORIENTED_EDGE('',*,*,#452,.T.);
#454=CARTESIAN_POINT('',(2.5,-0.5,6.469570E-016));
#455=VERTEX_POINT('',#454);
#456=CARTESIAN_POINT('',(2.5,-0.5,6.469570E-016));
#457=DIRECTION('',(0.0,0.0,1.0));
#458=VECTOR('',#457,0.188);
#459=LINE('',#456,#458);
#460=EDGE_CURVE('',#455,#447,#459,.T.);
#461=ORIENTED_EDGE('',*,*,#460,.F.);
#462=CARTESIAN_POINT('',(2.5,-0.5,6.469570E-016));
#463=DIRECTION('',(0.0,1.0,0.0));
#464=VECTOR('',#463,1.0);
#465=LINE('',#462,#464);
#466=EDGE_CURVE('',#455,#417,#465,.T.);
#467=ORIENTED_EDGE('',*,*,#466,.T.);
#468=ORIENTED_EDGE('',*,*,#422,.T.);
#469=EDGE_LOOP('',(#453,#461,#467,#468));
#470=FACE_OUTER_BOUND('',#469,.T.);
#471=ADVANCED_FACE('',(#470),#445,.T.);
#472=CARTESIAN_POINT('',(2.5,-0.5,6.469570E-016));
#473=DIRECTION('',(0.0,-1.0,0.0));
#474=DIRECTION('',(0.0,0.0,-1.0));
#475=AXIS2_PLACEMENT_3D('',#472,#473,#474);
#476=PLANE('',#475);
#477=CARTESIAN_POINT('',(-0.5,-0.5,0.188));
#478=VERTEX_POINT('',#477);
#479=CARTESIAN_POINT('',(2.5,-0.5,0.188000000000001));
#480=DIRECTION('',(-1.0,0.0,0.0));
#481=VECTOR('',#480,3.0);
#482=LINE('',#479,#481);
#483=EDGE_CURVE('',#447,#478,#482,.T.);
#484=ORIENTED_EDGE('',*,*,#483,.T.);
#485=CARTESIAN_POINT('',(-0.5,-0.5,4.249124E-016));
#486=VERTEX_POINT('',#485);
#487=CARTESIAN_POINT('',(-0.5,-0.5,4.249124E-016));
#488=DIRECTION('',(0.0,0.0,1.0));
#489=VECTOR('',#488,0.188);
#490=LINE('',#487,#489);
#491=EDGE_CURVE('',#486,#478,#490,.T.);
#492=ORIENTED_EDGE('',*,*,#491,.F.);
#493=CARTESIAN_POINT('',(-0.5,-0.5,4.249124E-016));
#494=DIRECTION('',(1.0,0.0,0.0));
#495=VECTOR('',#494,3.0);
#496=LINE('',#493,#495);
#497=EDGE_CURVE('',#486,#455,#496,.T.);
#498=ORIENTED_EDGE('',*,*,#497,.T.);
#499=ORIENTED_EDGE('',*,*,#460,.T.);
#500=EDGE_LOOP('',(#484,#492,#498,#499));
#501=FACE_OUTER_BOUND('',#500,.T.);
#502=ADVANCED_FACE('',(#501),#476,.T.);
#503=CARTESIAN_POINT('',(-0.5,-0.5,4.249124E-016));
#504=DIRECTION('',(-1.0,0.0,0.0));
#505=DIRECTION('',(0.0,0.0,1.0));
#506=AXIS2_PLACEMENT_3D('',#503,#504,#505);
#507=PLANE('',#506);
#508=CARTESIAN_POINT('',(-0.5,0.5,0.188));
#509=VERTEX_POINT('',#508);
#510=CARTESIAN_POINT('',(-0.5,-0.5,0.188));
#511=DIRECTION('',(0.0,1.0,0.0));
#512=VECTOR('',#511,1.0);
#513=LINE('',#510,#512);
#514=EDGE_CURVE('',#478,#509,#513,.T.);
#515=ORIENTED_EDGE('',*,*,#514,.T.);
#516=CARTESIAN_POINT('',(-0.5,0.5,1.917683E-017));
#517=VERTEX_POINT('',#516);
#518=CARTESIAN_POINT('',(-0.5,0.5,1.917683E-017));
#519=DIRECTION('',(0.0,0.0,1.0));
#520=VECTOR('',#519,0.188);
#521=LINE('',#518,#520);
#522=EDGE_CURVE('',#517,#509,#521,.T.);
#523=ORIENTED_EDGE('',*,*,#522,.F.);
#524=CARTESIAN_POINT('',(-0.5,0.5,1.917683E-017));
#525=DIRECTION('',(0.0,-1.0,0.0));
#526=VECTOR('',#525,1.0);
#527=LINE('',#524,#526);
#528=EDGE_CURVE('',#517,#486,#527,.T.);
#529=ORIENTED_EDGE('',*,*,#528,.T.);
#530=ORIENTED_EDGE('',*,*,#491,.T.);
#531=EDGE_LOOP('',(#515,#523,#529,#530));
#532=FACE_OUTER_BOUND('',#531,.T.);
#533=ADVANCED_FACE('',(#532),#507,.T.);
#534=CARTESIAN_POINT('',(-0.5,0.5,1.917683E-017));
#535=DIRECTION('',(-0.894427190999916,0.447213595499958,-1.642982E-016));
#536=DIRECTION('',(0.0,0.0,1.0));
#537=AXIS2_PLACEMENT_3D('',#534,#535,#536);
#538=PLANE('',#537);
#539=CARTESIAN_POINT('',(0.500000000000001,2.5,0.188));
#540=VERTEX_POINT('',#539);
#541=CARTESIAN_POINT('',(-0.5,0.5,0.188));
#542=DIRECTION('',(0.447213595499958,0.894427190999916,-1.861901E-016));
#543=VECTOR('',#542,2.236067977499791);
#544=LINE('',#541,#543);
#545=EDGE_CURVE('',#509,#540,#544,.T.);
#546=ORIENTED_EDGE('',*,*,#545,.T.);
#547=CARTESIAN_POINT('',(0.500000000000001,2.5,-3.482051E-016));
#548=VERTEX_POINT('',#547);
#549=CARTESIAN_POINT('',(0.500000000000001,2.5,-3.482051E-016));
#550=DIRECTION('',(0.0,0.0,1.0));
#551=VECTOR('',#550,0.188);
#552=LINE('',#549,#551);
#553=EDGE_CURVE('',#548,#540,#552,.T.);
#554=ORIENTED_EDGE('',*,*,#553,.F.);
#555=CARTESIAN_POINT('',(0.500000000000001,2.5,-3.482051E-016));
#556=DIRECTION('',(-0.447213595499958,-0.894427190999916,1.916812E-016));
#557=VECTOR('',#556,2.236067977499791);
#558=LINE('',#555,#557);
#559=EDGE_CURVE('',#548,#517,#558,.T.);
#560=ORIENTED_EDGE('',*,*,#559,.T.);
#561=ORIENTED_EDGE('',*,*,#522,.T.);
#562=EDGE_LOOP('',(#546,#554,#560,#561));
#563=FACE_OUTER_BOUND('',#562,.T.);
#564=ADVANCED_FACE('',(#563),#538,.T.);
#565=CARTESIAN_POINT('',(0.500000000000001,2.5,-3.482051E-016));
#566=DIRECTION('',(0.0,1.0,0.0));
#567=DIRECTION('',(0.0,0.0,1.0));
#568=AXIS2_PLACEMENT_3D('',#565,#566,#567);
#569=PLANE('',#568);
#570=CARTESIAN_POINT('',(0.500000000000001,2.5,0.188));
#571=DIRECTION('',(1.0,0.0,0.0));
#572=VECTOR('',#571,1.0);
#573=LINE('',#570,#572);
#574=EDGE_CURVE('',#540,#407,#573,.T.);
#575=ORIENTED_EDGE('',*,*,#574,.T.);
#576=ORIENTED_EDGE('',*,*,#436,.F.);
#577=CARTESIAN_POINT('',(1.500000000000001,2.5,-3.482051E-016));
#578=DIRECTION('',(-1.0,0.0,0.0));
#579=VECTOR('',#578,1.0);
#580=LINE('',#577,#579);
#581=EDGE_CURVE('',#425,#548,#580,.T.);
#582=ORIENTED_EDGE('',*,*,#581,.T.);
#583=ORIENTED_EDGE('',*,*,#553,.T.);
#584=EDGE_LOOP('',(#575,#576,#582,#583));
#585=FACE_OUTER_BOUND('',#584,.T.);
#586=ADVANCED_FACE('',(#585),#569,.T.);
#587=CARTESIAN_POINT('',(1.0,0.833333333333333,6.896881E-017));
#588=DIRECTION('',(0.0,0.0,-1.0));
#589=DIRECTION('',(-1.0,0.0,0.0));
#590=AXIS2_PLACEMENT_3D('',#587,#588,#589);
#591=PLANE('',#590);
#592=ORIENTED_EDGE('',*,*,#581,.F.);
#593=ORIENTED_EDGE('',*,*,#430,.F.);
#594=ORIENTED_EDGE('',*,*,#466,.F.);
#595=ORIENTED_EDGE('',*,*,#497,.F.);
#596=ORIENTED_EDGE('',*,*,#528,.F.);
#597=ORIENTED_EDGE('',*,*,#559,.F.);
#598=EDGE_LOOP('',(#592,#593,#594,#595,#596,#597));
#599=FACE_OUTER_BOUND('',#598,.T.);
#600=ORIENTED_EDGE('',*,*,#276,.T.);
#601=ORIENTED_EDGE('',*,*,#292,.T.);
#602=EDGE_LOOP('',(#600,#601));
#603=FACE_BOUND('',#602,.T.);
#604=ORIENTED_EDGE('',*,*,#234,.T.);
#605=ORIENTED_EDGE('',*,*,#316,.T.);
#606=EDGE_LOOP('',(#604,#605));
#607=FACE_BOUND('',#606,.T.);
#608=ORIENTED_EDGE('',*,*,#192,.T.);
#609=ORIENTED_EDGE('',*,*,#340,.T.);
#610=EDGE_LOOP('',(#608,#609));
#611=FACE_BOUND('',#610,.T.);
#612=ORIENTED_EDGE('',*,*,#150,.T.);
#613=ORIENTED_EDGE('',*,*,#364,.T.);
#614=EDGE_LOOP('',(#612,#613));
#615=FACE_BOUND('',#614,.T.);
#616=ORIENTED_EDGE('',*,*,#108,.T.);
#617=ORIENTED_EDGE('',*,*,#388,.T.);
#618=EDGE_LOOP('',(#616,#617));
#619=FACE_BOUND('',#618,.T.);
#620=ADVANCED_FACE('',(#599,#603,#607,#611,#615,#619),#591,.T.);
#621=CARTESIAN_POINT('',(1.500000000000001,2.5,0.188));
#622=DIRECTION('',(0.0,0.0,-1.0));
#623=DIRECTION('',(-1.0,0.0,0.0));
#624=AXIS2_PLACEMENT_3D('',#621,#622,#623);
#625=PLANE('',#624);
#626=ORIENTED_EDGE('',*,*,#414,.F.);
#627=ORIENTED_EDGE('',*,*,#574,.F.);
#628=ORIENTED_EDGE('',*,*,#545,.F.);
#629=ORIENTED_EDGE('',*,*,#514,.F.);
#630=ORIENTED_EDGE('',*,*,#483,.F.);
#631=ORIENTED_EDGE('',*,*,#452,.F.);
#632=EDGE_LOOP('',(#626,#627,#628,#629,#630,#631));
#633=FACE_OUTER_BOUND('',#632,.T.);
#634=ORIENTED_EDGE('',*,*,#300,.T.);
#635=ORIENTED_EDGE('',*,*,#261,.T.);
#636=EDGE_LOOP('',(#634,#635));
#637=FACE_BOUND('',#636,.T.);
#638=ORIENTED_EDGE('',*,*,#324,.T.);
#639=ORIENTED_EDGE('',*,*,#219,.T.);
#640=EDGE_LOOP('',(#638,#639));
#641=FACE_BOUND('',#640,.T.);
#642=ORIENTED_EDGE('',*,*,#348,.T.);
#643=ORIENTED_EDGE('',*,*,#177,.T.);
#644=EDGE_LOOP('',(#642,#643));
#645=FACE_BOUND('',#644,.T.);
#646=ORIENTED_EDGE('',*,*,#372,.T.);
#647=ORIENTED_EDGE('',*,*,#135,.T.);
#648=EDGE_LOOP('',(#646,#647));
#649=FACE_BOUND('',#648,.T.);
#650=ORIENTED_EDGE('',*,*,#396,.T.);
#651=ORIENTED_EDGE('',*,*,#93,.T.);
#652=EDGE_LOOP('',(#650,#651));
#653=FACE_BOUND('',#652,.T.);
#654=ADVANCED_FACE('',(#633,#637,#641,#645,#649,#653),#625,.F.);
#655=CLOSED_SHELL('',(#112,#154,#196,#238,#280,#304,#328,#352,#376,#400,#440,#471,#502,#533,#564,#586,#620,#654));
#656=MANIFOLD_SOLID_BREP('34',#655);
#657=DRAUGHTING_PRE_DEFINED_COLOUR('white');
#658=SURFACE_STYLE_USAGE(.BOTH.,#659);
#659=SURFACE_SIDE_STYLE('NONE',(#660));
#660=SURFACE_STYLE_FILL_AREA(#661);
#661=FILL_AREA_STYLE('NONE',(#662));
#662=FILL_AREA_STYLE_COLOUR('NONE',#657);
#663=PRESENTATION_STYLE_ASSIGNMENT((#658));
#664=STYLED_ITEM('NONE',(#663),#656);
#665=MECHANICAL_DESIGN_GEOMETRIC_PRESENTATION_REPRESENTATION('NONE',(#664),#34);
#666=PRESENTATION_LAYER_ASSIGNMENT('10jp4204','None',(#656));
#667=ADVANCED_BREP_SHAPE_REPRESENTATION('ABSR1',(#656),#34);
#668=SHAPE_REPRESENTATION_RELATIONSHIP('SRRPL1','',#667,#68);
ENDSEC;
END-ISO-10303-21;
