ISO-10303-21;
HEADER;
/****************************************************************
 * Generated by software with PDElib inside                    *
 * PDElib Version v51a, created Fri 09/10/2010                  *
 * ITI Transcendata (http://www.transcendata.com/)              *
 ****************************************************************/
FILE_DESCRIPTION((''),'2;1');
FILE_NAME('10HI8338.stp','2015-07-13T15:55:21',(''),(''),'Mechanical Desktop 2011','Mechanical Desktop 2011',', , ');
FILE_SCHEMA(('AUTOMOTIVE_DESIGN { 1 2 10303 214 1 1 1 1 }'));
ENDSEC;
DATA;
#10=(NAMED_UNIT(*)PLANE_ANGLE_UNIT()SI_UNIT($,.RADIAN.));
#11=DIMENSIONAL_EXPONENTS(0.0,0.0,0.0,0.0,0.0,0.0,0.0);
#12=PLANE_ANGLE_MEASURE_WITH_UNIT(PLANE_ANGLE_MEASURE(0.0174532925),#10);
#16=(CONVERSION_BASED_UNIT('DEGREE',#12)NAMED_UNIT(#11)PLANE_ANGLE_UNIT());
#20=(NAMED_UNIT(*)SI_UNIT($,.STERADIAN.)SOLID_ANGLE_UNIT());
#24=(LENGTH_UNIT()NAMED_UNIT(*)SI_UNIT(.CENTI.,.METRE.));
#25=DIMENSIONAL_EXPONENTS(1.0,0.0,0.0,0.0,0.0,0.0,0.0);
#26=LENGTH_MEASURE_WITH_UNIT(LENGTH_MEASURE(2.54),#24);
#30=(CONVERSION_BASED_UNIT('INCH',#26)LENGTH_UNIT()NAMED_UNIT(#25));
#32=UNCERTAINTY_MEASURE_WITH_UNIT(LENGTH_MEASURE(0.000001),#30,'DISTANCE_ACCURACY_VALUE','');
#34=(GEOMETRIC_REPRESENTATION_CONTEXT(3)GLOBAL_UNCERTAINTY_ASSIGNED_CONTEXT((#32))GLOBAL_UNIT_ASSIGNED_CONTEXT((#16,#20,#30))REPRESENTATION_CONTEXT('','3D'));
#35=APPLICATION_CONTEXT('automotive design');
#36=APPLICATION_PROTOCOL_DEFINITION('INTERNATIONAL_STANDARD','automotive_design',1998,#35);
#37=PRODUCT_CONTEXT('3D Mechanical Parts',#35,'mechanical');
#38=PRODUCT('Product','Product','',(#37));
#39=PRODUCT_RELATED_PRODUCT_CATEGORY('part',$,(#38));
#40=PRODUCT_CATEGORY('part',$);
#41=PERSON('1','Design','Joe',$,$,$);
#42=ORGANIZATION($,'None','None');
#43=PERSON_AND_ORGANIZATION(#41,#42);
#44=PERSON_AND_ORGANIZATION_ROLE('design_owner');
#45=APPLIED_PERSON_AND_ORGANIZATION_ASSIGNMENT(#43,#44,(#38));
#46=PRODUCT_DEFINITION_FORMATION_WITH_SPECIFIED_SOURCE('None','',#38,.BOUGHT.);
#47=PERSON('2','Creator','Joe',$,$,$);
#48=ORGANIZATION($,'None','None');
#49=PERSON_AND_ORGANIZATION(#47,#48);
#50=PERSON_AND_ORGANIZATION_ROLE('creator');
#51=APPLIED_PERSON_AND_ORGANIZATION_ASSIGNMENT(#49,#50,(#46));
#52=PERSON('3','Supplier','Joe',$,$,$);
#53=ORGANIZATION($,'None','None');
#54=PERSON_AND_ORGANIZATION(#52,#53);
#55=PERSON_AND_ORGANIZATION_ROLE('design_supplier');
#56=APPLIED_PERSON_AND_ORGANIZATION_ASSIGNMENT(#54,#55,(#46));
#57=PRODUCT_DEFINITION_CONTEXT('part definition',#35,'design');
#58=PRODUCT_DEFINITION('None','',#46,#57);
#59=PERSON('4','Creator','Joe',$,$,$);
#60=ORGANIZATION($,'None','None');
#61=PERSON_AND_ORGANIZATION(#59,#60);
#62=PERSON_AND_ORGANIZATION_ROLE('creator');
#63=APPLIED_PERSON_AND_ORGANIZATION_ASSIGNMENT(#61,#62,(#58));
#64=CARTESIAN_POINT('NONE',(0.0,0.0,0.0));
#65=DIRECTION('NONE',(0.0,0.0,1.0));
#66=DIRECTION('NONE',(1.0,0.0,0.0));
#67=AXIS2_PLACEMENT_3D('NONE',#64,#65,#66);
#68=SHAPE_REPRESENTATION('SR1',(#67),#34);
#69=PRODUCT_DEFINITION_SHAPE('PDS1','Test Part',#58);
#70=SHAPE_DEFINITION_REPRESENTATION(#69,#68);
#71=CARTESIAN_POINT('',(5.551115E-016,3.0,0.0));
#72=DIRECTION('',(0.0,0.0,1.0));
#73=DIRECTION('',(0.0,-1.0,0.0));
#74=AXIS2_PLACEMENT_3D('',#71,#72,#73);
#75=CYLINDRICAL_SURFACE('',#74,0.14);
#76=CARTESIAN_POINT('',(5.551115E-016,2.86,0.0));
#77=VERTEX_POINT('',#76);
#78=CARTESIAN_POINT('',(5.551115E-016,2.86,0.188));
#79=VERTEX_POINT('',#78);
#80=CARTESIAN_POINT('',(5.293948E-016,2.86,0.0));
#81=DIRECTION('',(0.0,0.0,1.0));
#82=VECTOR('',#81,0.188);
#83=LINE('',#80,#82);
#84=EDGE_CURVE('',#77,#79,#83,.T.);
#85=ORIENTED_EDGE('',*,*,#84,.F.);
#86=CARTESIAN_POINT('',(5.636832E-016,3.14,0.0));
#87=VERTEX_POINT('',#86);
#88=CARTESIAN_POINT('',(5.551115E-016,3.0,0.0));
#89=DIRECTION('',(0.0,0.0,1.0));
#90=DIRECTION('',(0.0,-1.0,0.0));
#91=AXIS2_PLACEMENT_3D('',#88,#89,#90);
#92=CIRCLE('',#91,0.14);
#93=EDGE_CURVE('',#87,#77,#92,.T.);
#94=ORIENTED_EDGE('',*,*,#93,.F.);
#95=CARTESIAN_POINT('',(5.636832E-016,3.14,0.188));
#96=VERTEX_POINT('',#95);
#97=CARTESIAN_POINT('',(5.636832E-016,3.14,0.0));
#98=DIRECTION('',(0.0,0.0,1.0));
#99=VECTOR('',#98,0.188);
#100=LINE('',#97,#99);
#101=EDGE_CURVE('',#87,#96,#100,.T.);
#102=ORIENTED_EDGE('',*,*,#101,.T.);
#103=CARTESIAN_POINT('',(5.551115E-016,3.0,0.188));
#104=DIRECTION('',(0.0,0.0,-1.0));
#105=DIRECTION('',(0.0,-1.0,0.0));
#106=AXIS2_PLACEMENT_3D('',#103,#104,#105);
#107=CIRCLE('',#106,0.14);
#108=EDGE_CURVE('',#79,#96,#107,.T.);
#109=ORIENTED_EDGE('',*,*,#108,.F.);
#110=EDGE_LOOP('',(#85,#94,#102,#109));
#111=FACE_OUTER_BOUND('',#110,.T.);
#112=ADVANCED_FACE('',(#111),#75,.F.);
#113=CARTESIAN_POINT('',(3.330669E-016,2.0,0.0));
#114=DIRECTION('',(0.0,0.0,1.0));
#115=DIRECTION('',(0.0,-1.0,0.0));
#116=AXIS2_PLACEMENT_3D('',#113,#114,#115);
#117=CYLINDRICAL_SURFACE('',#116,0.14);
#118=CARTESIAN_POINT('',(3.330669E-016,1.86,0.0));
#119=VERTEX_POINT('',#118);
#120=CARTESIAN_POINT('',(3.330669E-016,1.86,0.188));
#121=VERTEX_POINT('',#120);
#122=CARTESIAN_POINT('',(3.073502E-016,1.86,0.0));
#123=DIRECTION('',(0.0,0.0,1.0));
#124=VECTOR('',#123,0.188);
#125=LINE('',#122,#124);
#126=EDGE_CURVE('',#119,#121,#125,.T.);
#127=ORIENTED_EDGE('',*,*,#126,.F.);
#128=CARTESIAN_POINT('',(3.416386E-016,2.14,0.0));
#129=VERTEX_POINT('',#128);
#130=CARTESIAN_POINT('',(3.330669E-016,2.0,0.0));
#131=DIRECTION('',(0.0,0.0,1.0));
#132=DIRECTION('',(0.0,-1.0,0.0));
#133=AXIS2_PLACEMENT_3D('',#130,#131,#132);
#134=CIRCLE('',#133,0.14);
#135=EDGE_CURVE('',#129,#119,#134,.T.);
#136=ORIENTED_EDGE('',*,*,#135,.F.);
#137=CARTESIAN_POINT('',(3.416386E-016,2.14,0.188));
#138=VERTEX_POINT('',#137);
#139=CARTESIAN_POINT('',(3.416386E-016,2.14,0.0));
#140=DIRECTION('',(0.0,0.0,1.0));
#141=VECTOR('',#140,0.188);
#142=LINE('',#139,#141);
#143=EDGE_CURVE('',#129,#138,#142,.T.);
#144=ORIENTED_EDGE('',*,*,#143,.T.);
#145=CARTESIAN_POINT('',(3.330669E-016,2.0,0.188));
#146=DIRECTION('',(0.0,0.0,-1.0));
#147=DIRECTION('',(0.0,-1.0,0.0));
#148=AXIS2_PLACEMENT_3D('',#145,#146,#147);
#149=CIRCLE('',#148,0.14);
#150=EDGE_CURVE('',#121,#138,#149,.T.);
#151=ORIENTED_EDGE('',*,*,#150,.F.);
#152=EDGE_LOOP('',(#127,#136,#144,#151));
#153=FACE_OUTER_BOUND('',#152,.T.);
#154=ADVANCED_FACE('',(#153),#117,.F.);
#155=CARTESIAN_POINT('',(0.0,0.0,0.0));
#156=DIRECTION('',(0.0,0.0,1.0));
#157=DIRECTION('',(0.0,-1.0,0.0));
#158=AXIS2_PLACEMENT_3D('',#155,#156,#157);
#159=CYLINDRICAL_SURFACE('',#158,0.14);
#160=CARTESIAN_POINT('',(0.0,-0.14,0.0));
#161=VERTEX_POINT('',#160);
#162=CARTESIAN_POINT('',(0.0,-0.14,0.188));
#163=VERTEX_POINT('',#162);
#164=CARTESIAN_POINT('',(-2.571673E-017,-0.14,0.0));
#165=DIRECTION('',(0.0,0.0,1.0));
#166=VECTOR('',#165,0.188);
#167=LINE('',#164,#166);
#168=EDGE_CURVE('',#161,#163,#167,.T.);
#169=ORIENTED_EDGE('',*,*,#168,.F.);
#170=CARTESIAN_POINT('',(8.571678E-018,0.14,0.0));
#171=VERTEX_POINT('',#170);
#172=CARTESIAN_POINT('',(0.0,0.0,0.0));
#173=DIRECTION('',(0.0,0.0,1.0));
#174=DIRECTION('',(0.0,-1.0,0.0));
#175=AXIS2_PLACEMENT_3D('',#172,#173,#174);
#176=CIRCLE('',#175,0.14);
#177=EDGE_CURVE('',#171,#161,#176,.T.);
#178=ORIENTED_EDGE('',*,*,#177,.F.);
#179=CARTESIAN_POINT('',(8.571678E-018,0.14,0.188));
#180=VERTEX_POINT('',#179);
#181=CARTESIAN_POINT('',(8.571678E-018,0.14,0.0));
#182=DIRECTION('',(0.0,0.0,1.0));
#183=VECTOR('',#182,0.188);
#184=LINE('',#181,#183);
#185=EDGE_CURVE('',#171,#180,#184,.T.);
#186=ORIENTED_EDGE('',*,*,#185,.T.);
#187=CARTESIAN_POINT('',(0.0,0.0,0.188));
#188=DIRECTION('',(0.0,0.0,-1.0));
#189=DIRECTION('',(0.0,-1.0,0.0));
#190=AXIS2_PLACEMENT_3D('',#187,#188,#189);
#191=CIRCLE('',#190,0.14);
#192=EDGE_CURVE('',#163,#180,#191,.T.);
#193=ORIENTED_EDGE('',*,*,#192,.F.);
#194=EDGE_LOOP('',(#169,#178,#186,#193));
#195=FACE_OUTER_BOUND('',#194,.T.);
#196=ADVANCED_FACE('',(#195),#159,.F.);
#197=CARTESIAN_POINT('',(0.0,0.0,0.0));
#198=DIRECTION('',(0.0,0.0,1.0));
#199=DIRECTION('',(0.0,-1.0,0.0));
#200=AXIS2_PLACEMENT_3D('',#197,#198,#199);
#201=CYLINDRICAL_SURFACE('',#200,0.14);
#202=ORIENTED_EDGE('',*,*,#168,.T.);
#203=CARTESIAN_POINT('',(0.0,0.0,0.188));
#204=DIRECTION('',(0.0,0.0,-1.0));
#205=DIRECTION('',(0.0,-1.0,0.0));
#206=AXIS2_PLACEMENT_3D('',#203,#204,#205);
#207=CIRCLE('',#206,0.14);
#208=EDGE_CURVE('',#180,#163,#207,.T.);
#209=ORIENTED_EDGE('',*,*,#208,.F.);
#210=ORIENTED_EDGE('',*,*,#185,.F.);
#211=CARTESIAN_POINT('',(0.0,0.0,0.0));
#212=DIRECTION('',(0.0,0.0,1.0));
#213=DIRECTION('',(0.0,-1.0,0.0));
#214=AXIS2_PLACEMENT_3D('',#211,#212,#213);
#215=CIRCLE('',#214,0.14);
#216=EDGE_CURVE('',#161,#171,#215,.T.);
#217=ORIENTED_EDGE('',*,*,#216,.F.);
#218=EDGE_LOOP('',(#202,#209,#210,#217));
#219=FACE_OUTER_BOUND('',#218,.T.);
#220=ADVANCED_FACE('',(#219),#201,.F.);
#221=CARTESIAN_POINT('',(3.330669E-016,2.0,0.0));
#222=DIRECTION('',(0.0,0.0,1.0));
#223=DIRECTION('',(0.0,-1.0,0.0));
#224=AXIS2_PLACEMENT_3D('',#221,#222,#223);
#225=CYLINDRICAL_SURFACE('',#224,0.14);
#226=ORIENTED_EDGE('',*,*,#126,.T.);
#227=CARTESIAN_POINT('',(3.330669E-016,2.0,0.188));
#228=DIRECTION('',(0.0,0.0,-1.0));
#229=DIRECTION('',(0.0,-1.0,0.0));
#230=AXIS2_PLACEMENT_3D('',#227,#228,#229);
#231=CIRCLE('',#230,0.14);
#232=EDGE_CURVE('',#138,#121,#231,.T.);
#233=ORIENTED_EDGE('',*,*,#232,.F.);
#234=ORIENTED_EDGE('',*,*,#143,.F.);
#235=CARTESIAN_POINT('',(3.330669E-016,2.0,0.0));
#236=DIRECTION('',(0.0,0.0,1.0));
#237=DIRECTION('',(0.0,-1.0,0.0));
#238=AXIS2_PLACEMENT_3D('',#235,#236,#237);
#239=CIRCLE('',#238,0.14);
#240=EDGE_CURVE('',#119,#129,#239,.T.);
#241=ORIENTED_EDGE('',*,*,#240,.F.);
#242=EDGE_LOOP('',(#226,#233,#234,#241));
#243=FACE_OUTER_BOUND('',#242,.T.);
#244=ADVANCED_FACE('',(#243),#225,.F.);
#245=CARTESIAN_POINT('',(5.551115E-016,3.0,0.0));
#246=DIRECTION('',(0.0,0.0,1.0));
#247=DIRECTION('',(0.0,-1.0,0.0));
#248=AXIS2_PLACEMENT_3D('',#245,#246,#247);
#249=CYLINDRICAL_SURFACE('',#248,0.14);
#250=ORIENTED_EDGE('',*,*,#84,.T.);
#251=CARTESIAN_POINT('',(5.551115E-016,3.0,0.188));
#252=DIRECTION('',(0.0,0.0,-1.0));
#253=DIRECTION('',(0.0,-1.0,0.0));
#254=AXIS2_PLACEMENT_3D('',#251,#252,#253);
#255=CIRCLE('',#254,0.14);
#256=EDGE_CURVE('',#96,#79,#255,.T.);
#257=ORIENTED_EDGE('',*,*,#256,.F.);
#258=ORIENTED_EDGE('',*,*,#101,.F.);
#259=CARTESIAN_POINT('',(5.551115E-016,3.0,0.0));
#260=DIRECTION('',(0.0,0.0,1.0));
#261=DIRECTION('',(0.0,-1.0,0.0));
#262=AXIS2_PLACEMENT_3D('',#259,#260,#261);
#263=CIRCLE('',#262,0.14);
#264=EDGE_CURVE('',#77,#87,#263,.T.);
#265=ORIENTED_EDGE('',*,*,#264,.F.);
#266=EDGE_LOOP('',(#250,#257,#258,#265));
#267=FACE_OUTER_BOUND('',#266,.T.);
#268=ADVANCED_FACE('',(#267),#249,.F.);
#269=CARTESIAN_POINT('',(-0.499999999999999,3.5,0.0));
#270=DIRECTION('',(0.0,1.0,0.0));
#271=DIRECTION('',(0.0,0.0,1.0));
#272=AXIS2_PLACEMENT_3D('',#269,#270,#271);
#273=PLANE('',#272);
#274=CARTESIAN_POINT('',(-0.499999999999999,3.5,0.188));
#275=VERTEX_POINT('',#274);
#276=CARTESIAN_POINT('',(0.500000000000001,3.5,0.188));
#277=VERTEX_POINT('',#276);
#278=CARTESIAN_POINT('',(-0.499999999999999,3.5,0.188));
#279=DIRECTION('',(1.0,0.0,0.0));
#280=VECTOR('',#279,1.0);
#281=LINE('',#278,#280);
#282=EDGE_CURVE('',#275,#277,#281,.T.);
#283=ORIENTED_EDGE('',*,*,#282,.T.);
#284=CARTESIAN_POINT('',(0.500000000000001,3.5,0.0));
#285=VERTEX_POINT('',#284);
#286=CARTESIAN_POINT('',(0.500000000000001,3.5,0.0));
#287=DIRECTION('',(0.0,0.0,1.0));
#288=VECTOR('',#287,0.188);
#289=LINE('',#286,#288);
#290=EDGE_CURVE('',#285,#277,#289,.T.);
#291=ORIENTED_EDGE('',*,*,#290,.F.);
#292=CARTESIAN_POINT('',(-0.499999999999999,3.5,0.0));
#293=VERTEX_POINT('',#292);
#294=CARTESIAN_POINT('',(0.500000000000001,3.5,0.0));
#295=DIRECTION('',(-1.0,0.0,0.0));
#296=VECTOR('',#295,1.0);
#297=LINE('',#294,#296);
#298=EDGE_CURVE('',#285,#293,#297,.T.);
#299=ORIENTED_EDGE('',*,*,#298,.T.);
#300=CARTESIAN_POINT('',(-0.499999999999999,3.5,0.0));
#301=DIRECTION('',(0.0,0.0,1.0));
#302=VECTOR('',#301,0.188);
#303=LINE('',#300,#302);
#304=EDGE_CURVE('',#293,#275,#303,.T.);
#305=ORIENTED_EDGE('',*,*,#304,.T.);
#306=EDGE_LOOP('',(#283,#291,#299,#305));
#307=FACE_OUTER_BOUND('',#306,.T.);
#308=ADVANCED_FACE('',(#307),#273,.T.);
#309=CARTESIAN_POINT('',(0.500000000000001,3.5,0.0));
#310=DIRECTION('',(1.0,0.0,0.0));
#311=DIRECTION('',(0.0,0.0,1.0));
#312=AXIS2_PLACEMENT_3D('',#309,#310,#311);
#313=PLANE('',#312);
#314=CARTESIAN_POINT('',(0.5,0.0,0.188));
#315=VERTEX_POINT('',#314);
#316=CARTESIAN_POINT('',(0.500000000000001,3.5,0.188));
#317=DIRECTION('',(0.0,-1.0,0.0));
#318=VECTOR('',#317,3.5);
#319=LINE('',#316,#318);
#320=EDGE_CURVE('',#277,#315,#319,.T.);
#321=ORIENTED_EDGE('',*,*,#320,.T.);
#322=CARTESIAN_POINT('',(0.5,0.0,0.0));
#323=VERTEX_POINT('',#322);
#324=CARTESIAN_POINT('',(0.5,0.0,0.0));
#325=DIRECTION('',(0.0,0.0,1.0));
#326=VECTOR('',#325,0.188);
#327=LINE('',#324,#326);
#328=EDGE_CURVE('',#323,#315,#327,.T.);
#329=ORIENTED_EDGE('',*,*,#328,.F.);
#330=CARTESIAN_POINT('',(0.5,0.0,0.0));
#331=DIRECTION('',(0.0,1.0,0.0));
#332=VECTOR('',#331,3.5);
#333=LINE('',#330,#332);
#334=EDGE_CURVE('',#323,#285,#333,.T.);
#335=ORIENTED_EDGE('',*,*,#334,.T.);
#336=ORIENTED_EDGE('',*,*,#290,.T.);
#337=EDGE_LOOP('',(#321,#329,#335,#336));
#338=FACE_OUTER_BOUND('',#337,.T.);
#339=ADVANCED_FACE('',(#338),#313,.T.);
#340=CARTESIAN_POINT('',(0.0,0.0,0.0));
#341=DIRECTION('',(0.0,0.0,1.0));
#342=DIRECTION('',(-0.707106781186548,-0.707106781186547,0.0));
#343=AXIS2_PLACEMENT_3D('',#340,#341,#342);
#344=CYLINDRICAL_SURFACE('',#343,0.5);
#345=CARTESIAN_POINT('',(-0.5,0.0,0.188));
#346=VERTEX_POINT('',#345);
#347=CARTESIAN_POINT('',(0.0,0.0,0.188));
#348=DIRECTION('',(0.0,0.0,-1.0));
#349=DIRECTION('',(-0.707106781186548,-0.707106781186547,0.0));
#350=AXIS2_PLACEMENT_3D('',#347,#348,#349);
#351=CIRCLE('',#350,0.5);
#352=EDGE_CURVE('',#315,#346,#351,.T.);
#353=ORIENTED_EDGE('',*,*,#352,.T.);
#354=CARTESIAN_POINT('',(-0.5,0.0,0.0));
#355=VERTEX_POINT('',#354);
#356=CARTESIAN_POINT('',(-0.5,0.0,0.0));
#357=DIRECTION('',(0.0,0.0,1.0));
#358=VECTOR('',#357,0.188);
#359=LINE('',#356,#358);
#360=EDGE_CURVE('',#355,#346,#359,.T.);
#361=ORIENTED_EDGE('',*,*,#360,.F.);
#362=CARTESIAN_POINT('',(0.0,0.0,0.0));
#363=DIRECTION('',(0.0,0.0,1.0));
#364=DIRECTION('',(-0.707106781186548,-0.707106781186547,0.0));
#365=AXIS2_PLACEMENT_3D('',#362,#363,#364);
#366=CIRCLE('',#365,0.5);
#367=EDGE_CURVE('',#355,#323,#366,.T.);
#368=ORIENTED_EDGE('',*,*,#367,.T.);
#369=ORIENTED_EDGE('',*,*,#328,.T.);
#370=EDGE_LOOP('',(#353,#361,#368,#369));
#371=FACE_OUTER_BOUND('',#370,.T.);
#372=ADVANCED_FACE('',(#371),#344,.T.);
#373=CARTESIAN_POINT('',(-0.5,0.0,0.0));
#374=DIRECTION('',(-1.0,0.0,0.0));
#375=DIRECTION('',(0.0,0.0,-1.0));
#376=AXIS2_PLACEMENT_3D('',#373,#374,#375);
#377=PLANE('',#376);
#378=CARTESIAN_POINT('',(-0.5,0.0,0.188));
#379=DIRECTION('',(0.0,1.0,0.0));
#380=VECTOR('',#379,3.5);
#381=LINE('',#378,#380);
#382=EDGE_CURVE('',#346,#275,#381,.T.);
#383=ORIENTED_EDGE('',*,*,#382,.T.);
#384=ORIENTED_EDGE('',*,*,#304,.F.);
#385=CARTESIAN_POINT('',(-0.499999999999999,3.5,0.0));
#386=DIRECTION('',(0.0,-1.0,0.0));
#387=VECTOR('',#386,3.5);
#388=LINE('',#385,#387);
#389=EDGE_CURVE('',#293,#355,#388,.T.);
#390=ORIENTED_EDGE('',*,*,#389,.T.);
#391=ORIENTED_EDGE('',*,*,#360,.T.);
#392=EDGE_LOOP('',(#383,#384,#390,#391));
#393=FACE_OUTER_BOUND('',#392,.T.);
#394=ADVANCED_FACE('',(#393),#377,.T.);
#395=CARTESIAN_POINT('',(1.110223E-016,0.827556174116208,0.0));
#396=DIRECTION('',(0.0,0.0,-1.0));
#397=DIRECTION('',(0.0,1.0,0.0));
#398=AXIS2_PLACEMENT_3D('',#395,#396,#397);
#399=PLANE('',#398);
#400=ORIENTED_EDGE('',*,*,#389,.F.);
#401=ORIENTED_EDGE('',*,*,#298,.F.);
#402=ORIENTED_EDGE('',*,*,#334,.F.);
#403=ORIENTED_EDGE('',*,*,#367,.F.);
#404=EDGE_LOOP('',(#400,#401,#402,#403));
#405=FACE_OUTER_BOUND('',#404,.T.);
#406=ORIENTED_EDGE('',*,*,#216,.T.);
#407=ORIENTED_EDGE('',*,*,#177,.T.);
#408=EDGE_LOOP('',(#406,#407));
#409=FACE_BOUND('',#408,.T.);
#410=ORIENTED_EDGE('',*,*,#240,.T.);
#411=ORIENTED_EDGE('',*,*,#135,.T.);
#412=EDGE_LOOP('',(#410,#411));
#413=FACE_BOUND('',#412,.T.);
#414=ORIENTED_EDGE('',*,*,#264,.T.);
#415=ORIENTED_EDGE('',*,*,#93,.T.);
#416=EDGE_LOOP('',(#414,#415));
#417=FACE_BOUND('',#416,.T.);
#418=ADVANCED_FACE('',(#405,#409,#413,#417),#399,.T.);
#419=CARTESIAN_POINT('',(-0.499999999999999,3.5,0.188));
#420=DIRECTION('',(0.0,0.0,-1.0));
#421=DIRECTION('',(0.0,1.0,0.0));
#422=AXIS2_PLACEMENT_3D('',#419,#420,#421);
#423=PLANE('',#422);
#424=ORIENTED_EDGE('',*,*,#282,.F.);
#425=ORIENTED_EDGE('',*,*,#382,.F.);
#426=ORIENTED_EDGE('',*,*,#352,.F.);
#427=ORIENTED_EDGE('',*,*,#320,.F.);
#428=EDGE_LOOP('',(#424,#425,#426,#427));
#429=FACE_OUTER_BOUND('',#428,.T.);
#430=ORIENTED_EDGE('',*,*,#192,.T.);
#431=ORIENTED_EDGE('',*,*,#208,.T.);
#432=EDGE_LOOP('',(#430,#431));
#433=FACE_BOUND('',#432,.T.);
#434=ORIENTED_EDGE('',*,*,#150,.T.);
#435=ORIENTED_EDGE('',*,*,#232,.T.);
#436=EDGE_LOOP('',(#434,#435));
#437=FACE_BOUND('',#436,.T.);
#438=ORIENTED_EDGE('',*,*,#108,.T.);
#439=ORIENTED_EDGE('',*,*,#256,.T.);
#440=EDGE_LOOP('',(#438,#439));
#441=FACE_BOUND('',#440,.T.);
#442=ADVANCED_FACE('',(#429,#433,#437,#441),#423,.F.);
#443=CLOSED_SHELL('',(#112,#154,#196,#220,#244,#268,#308,#339,#372,#394,#418,#442));
#444=MANIFOLD_SOLID_BREP('2B',#443);
#445=DRAUGHTING_PRE_DEFINED_COLOUR('white');
#446=SURFACE_STYLE_USAGE(.BOTH.,#447);
#447=SURFACE_SIDE_STYLE('NONE',(#448));
#448=SURFACE_STYLE_FILL_AREA(#449);
#449=FILL_AREA_STYLE('NONE',(#450));
#450=FILL_AREA_STYLE_COLOUR('NONE',#445);
#451=PRESENTATION_STYLE_ASSIGNMENT((#446));
#452=STYLED_ITEM('NONE',(#451),#444);
#453=MECHANICAL_DESIGN_GEOMETRIC_PRESENTATION_REPRESENTATION('NONE',(#452),#34);
#454=PRESENTATION_LAYER_ASSIGNMENT('0','None',(#444));
#455=ADVANCED_BREP_SHAPE_REPRESENTATION('ABSR1',(#444),#34);
#456=SHAPE_REPRESENTATION_RELATIONSHIP('SRRPL1','',#455,#68);
ENDSEC;
END-ISO-10303-21;
