ISO-10303-21;
HEADER;
/****************************************************************
 * Generated by software with PDElib inside                    *
 * PDElib Version v51a, created Fri 09/10/2010                  *
 * ITI Transcendata (http://www.transcendata.com/)              *
 ****************************************************************/
FILE_DESCRIPTION((''),'2;1');
FILE_NAME('10HI8315.stp','2015-07-07T15:17:49',(''),(''),'Mechanical Desktop 2011','Mechanical Desktop 2011',', , ');
FILE_SCHEMA(('CONFIG_CONTROL_DESIGN'));
ENDSEC;
DATA;
#10=(NAMED_UNIT(*)PLANE_ANGLE_UNIT()SI_UNIT($,.RADIAN.));
#11=DIMENSIONAL_EXPONENTS(0.0,0.0,0.0,0.0,0.0,0.0,0.0);
#12=PLANE_ANGLE_MEASURE_WITH_UNIT(PLANE_ANGLE_MEASURE(0.0174532925),#10);
#16=(CONVERSION_BASED_UNIT('DEGREE',#12)NAMED_UNIT(#11)PLANE_ANGLE_UNIT());
#20=(NAMED_UNIT(*)SI_UNIT($,.STERADIAN.)SOLID_ANGLE_UNIT());
#24=(LENGTH_UNIT()NAMED_UNIT(*)SI_UNIT(.MILLI.,.METRE.));
#26=UNCERTAINTY_MEASURE_WITH_UNIT(LENGTH_MEASURE(0.000001),#24,'DISTANCE_ACCURACY_VALUE','');
#28=(GEOMETRIC_REPRESENTATION_CONTEXT(3)GLOBAL_UNCERTAINTY_ASSIGNED_CONTEXT((#26))GLOBAL_UNIT_ASSIGNED_CONTEXT((#16,#20,#24))REPRESENTATION_CONTEXT('','3D'));
#29=APPLICATION_CONTEXT('CONFIGURATION CONTROLLED 3D DESIGNS OF MECHANICAL PARTS AND ASSEMBLIES');
#30=APPLICATION_PROTOCOL_DEFINITION('INTERNATIONAL STANDARD','config_control_design',1995,#29);
#31=MECHANICAL_CONTEXT('3D Mechanical Parts',#29,'mechanical');
#32=PRODUCT('Product','Product',' ',(#31));
#33=PRODUCT_RELATED_PRODUCT_CATEGORY('detail',$,(#32));
#34=PRODUCT_CATEGORY('part',$);
#35=PRODUCT_CATEGORY_RELATIONSHIP('None','None',#34,#33);
#36=PERSON('1','Design','Joe',$,$,$);
#37=ORGANIZATION($,'None','None');
#38=PERSON_AND_ORGANIZATION(#36,#37);
#39=PERSON_AND_ORGANIZATION_ROLE('design_owner');
#40=CC_DESIGN_PERSON_AND_ORGANIZATION_ASSIGNMENT(#38,#39,(#32));
#41=PRODUCT_DEFINITION_FORMATION_WITH_SPECIFIED_SOURCE('None','None',#32,.BOUGHT.);
#42=PERSON('2','Creator','Joe',$,$,$);
#43=ORGANIZATION($,'None','None');
#44=PERSON_AND_ORGANIZATION(#42,#43);
#45=PERSON_AND_ORGANIZATION_ROLE('creator');
#46=CC_DESIGN_PERSON_AND_ORGANIZATION_ASSIGNMENT(#44,#45,(#41));
#47=PERSON('3','Supplier','Joe',$,$,$);
#48=ORGANIZATION($,'None','None');
#49=PERSON_AND_ORGANIZATION(#47,#48);
#50=PERSON_AND_ORGANIZATION_ROLE('design_supplier');
#51=CC_DESIGN_PERSON_AND_ORGANIZATION_ASSIGNMENT(#49,#50,(#41));
#52=APPROVAL_STATUS('approved');
#53=APPROVAL(#52,'None');
#54=PERSON('4','Approver','Joe',$,$,$);
#55=ORGANIZATION($,'None','None');
#56=PERSON_AND_ORGANIZATION(#54,#55);
#57=APPROVAL_ROLE('approver');
#58=APPROVAL_PERSON_ORGANIZATION(#56,#53,#57);
#59=COORDINATED_UNIVERSAL_TIME_OFFSET(8,$,.EXACT.);
#60=CALENDAR_DATE(1996,29,5);
#61=LOCAL_TIME(12,0,0.0,#59);
#62=DATE_AND_TIME(#60,#61);
#63=APPROVAL_DATE_TIME(#62,#53);
#64=CC_DESIGN_APPROVAL(#53,(#41));
#65=SECURITY_CLASSIFICATION_LEVEL('unclassified');
#66=SECURITY_CLASSIFICATION('security','None',#65);
#67=CC_DESIGN_SECURITY_CLASSIFICATION(#66,(#41));
#68=APPROVAL_STATUS('approved');
#69=APPROVAL(#68,'None');
#70=PERSON('5','Approver','Joe',$,$,$);
#71=ORGANIZATION($,'None','None');
#72=PERSON_AND_ORGANIZATION(#70,#71);
#73=APPROVAL_ROLE('approver');
#74=APPROVAL_PERSON_ORGANIZATION(#72,#69,#73);
#75=COORDINATED_UNIVERSAL_TIME_OFFSET(8,$,.EXACT.);
#76=CALENDAR_DATE(1996,29,5);
#77=LOCAL_TIME(12,0,0.0,#75);
#78=DATE_AND_TIME(#76,#77);
#79=APPROVAL_DATE_TIME(#78,#69);
#80=CC_DESIGN_APPROVAL(#69,(#66));
#81=PERSON('6','Classifier','Joe',$,$,$);
#82=ORGANIZATION($,'None','None');
#83=PERSON_AND_ORGANIZATION(#81,#82);
#84=PERSON_AND_ORGANIZATION_ROLE('classification_officer');
#85=CC_DESIGN_PERSON_AND_ORGANIZATION_ASSIGNMENT(#83,#84,(#66));
#86=COORDINATED_UNIVERSAL_TIME_OFFSET(8,$,.EXACT.);
#87=CALENDAR_DATE(1996,29,5);
#88=LOCAL_TIME(12,0,0.0,#86);
#89=DATE_AND_TIME(#87,#88);
#90=DATE_TIME_ROLE('classification_date');
#91=CC_DESIGN_DATE_AND_TIME_ASSIGNMENT(#89,#90,(#66));
#92=DESIGN_CONTEXT('Design Context',#29,'design');
#93=PRODUCT_DEFINITION('None','None',#41,#92);
#94=PERSON('7','Creator','Joe',$,$,$);
#95=ORGANIZATION($,'None','None');
#96=PERSON_AND_ORGANIZATION(#94,#95);
#97=PERSON_AND_ORGANIZATION_ROLE('creator');
#98=CC_DESIGN_PERSON_AND_ORGANIZATION_ASSIGNMENT(#96,#97,(#93));
#99=COORDINATED_UNIVERSAL_TIME_OFFSET(8,$,.EXACT.);
#100=CALENDAR_DATE(1996,29,5);
#101=LOCAL_TIME(12,0,0.0,#99);
#102=DATE_AND_TIME(#100,#101);
#103=DATE_TIME_ROLE('creation_date');
#104=CC_DESIGN_DATE_AND_TIME_ASSIGNMENT(#102,#103,(#93));
#105=APPROVAL_STATUS('approved');
#106=APPROVAL(#105,'None');
#107=PERSON('8','Approver','Joe',$,$,$);
#108=ORGANIZATION($,'None','None');
#109=PERSON_AND_ORGANIZATION(#107,#108);
#110=APPROVAL_ROLE('approver');
#111=APPROVAL_PERSON_ORGANIZATION(#109,#106,#110);
#112=COORDINATED_UNIVERSAL_TIME_OFFSET(8,$,.EXACT.);
#113=CALENDAR_DATE(1996,29,5);
#114=LOCAL_TIME(12,0,0.0,#112);
#115=DATE_AND_TIME(#113,#114);
#116=APPROVAL_DATE_TIME(#115,#106);
#117=CC_DESIGN_APPROVAL(#106,(#93));
#118=CARTESIAN_POINT('NONE',(0.0,0.0,0.0));
#119=DIRECTION('NONE',(0.0,0.0,1.0));
#120=DIRECTION('NONE',(1.0,0.0,0.0));
#121=AXIS2_PLACEMENT_3D('NONE',#118,#119,#120);
#122=SHAPE_REPRESENTATION('SR1',(#121),#28);
#123=PRODUCT_DEFINITION_SHAPE('PDS1','Test Part',#93);
#124=SHAPE_DEFINITION_REPRESENTATION(#123,#122);
#125=CARTESIAN_POINT('',(1.110223E-016,1.0,0.0));
#126=DIRECTION('',(0.0,0.0,1.0));
#127=DIRECTION('',(-1.0,0.0,0.0));
#128=AXIS2_PLACEMENT_3D('',#125,#126,#127);
#129=CYLINDRICAL_SURFACE('',#128,0.14);
#130=CARTESIAN_POINT('',(-0.14,1.0,0.0));
#131=VERTEX_POINT('',#130);
#132=CARTESIAN_POINT('',(-0.14,1.0,0.25));
#133=VERTEX_POINT('',#132);
#134=CARTESIAN_POINT('',(-0.14,1.0,0.0));
#135=DIRECTION('',(0.0,0.0,1.0));
#136=VECTOR('',#135,0.25);
#137=LINE('',#134,#136);
#138=EDGE_CURVE('',#131,#133,#137,.T.);
#139=ORIENTED_EDGE('',*,*,#138,.F.);
#140=CARTESIAN_POINT('',(0.14,1.0,0.0));
#141=VERTEX_POINT('',#140);
#142=CARTESIAN_POINT('',(1.110223E-016,1.0,0.0));
#143=DIRECTION('',(0.0,0.0,1.0));
#144=DIRECTION('',(-1.0,0.0,0.0));
#145=AXIS2_PLACEMENT_3D('',#142,#143,#144);
#146=CIRCLE('',#145,0.14);
#147=EDGE_CURVE('',#141,#131,#146,.T.);
#148=ORIENTED_EDGE('',*,*,#147,.F.);
#149=CARTESIAN_POINT('',(0.14,1.0,0.25));
#150=VERTEX_POINT('',#149);
#151=CARTESIAN_POINT('',(0.14,1.0,0.0));
#152=DIRECTION('',(0.0,0.0,1.0));
#153=VECTOR('',#152,0.25);
#154=LINE('',#151,#153);
#155=EDGE_CURVE('',#141,#150,#154,.T.);
#156=ORIENTED_EDGE('',*,*,#155,.T.);
#157=CARTESIAN_POINT('',(1.110223E-016,1.0,0.25));
#158=DIRECTION('',(0.0,0.0,-1.0));
#159=DIRECTION('',(-1.0,0.0,0.0));
#160=AXIS2_PLACEMENT_3D('',#157,#158,#159);
#161=CIRCLE('',#160,0.14);
#162=EDGE_CURVE('',#133,#150,#161,.T.);
#163=ORIENTED_EDGE('',*,*,#162,.F.);
#164=EDGE_LOOP('',(#139,#148,#156,#163));
#165=FACE_OUTER_BOUND('',#164,.T.);
#166=ADVANCED_FACE('',(#165),#129,.F.);
#167=CARTESIAN_POINT('',(2.220446E-016,2.0,0.0));
#168=DIRECTION('',(0.0,0.0,1.0));
#169=DIRECTION('',(-1.0,0.0,0.0));
#170=AXIS2_PLACEMENT_3D('',#167,#168,#169);
#171=CYLINDRICAL_SURFACE('',#170,0.14);
#172=CARTESIAN_POINT('',(-0.14,2.0,0.0));
#173=VERTEX_POINT('',#172);
#174=CARTESIAN_POINT('',(-0.14,2.0,0.25));
#175=VERTEX_POINT('',#174);
#176=CARTESIAN_POINT('',(-0.14,2.0,0.0));
#177=DIRECTION('',(0.0,0.0,1.0));
#178=VECTOR('',#177,0.25);
#179=LINE('',#176,#178);
#180=EDGE_CURVE('',#173,#175,#179,.T.);
#181=ORIENTED_EDGE('',*,*,#180,.F.);
#182=CARTESIAN_POINT('',(0.14,2.0,0.0));
#183=VERTEX_POINT('',#182);
#184=CARTESIAN_POINT('',(2.220446E-016,2.0,0.0));
#185=DIRECTION('',(0.0,0.0,1.0));
#186=DIRECTION('',(-1.0,0.0,0.0));
#187=AXIS2_PLACEMENT_3D('',#184,#185,#186);
#188=CIRCLE('',#187,0.14);
#189=EDGE_CURVE('',#183,#173,#188,.T.);
#190=ORIENTED_EDGE('',*,*,#189,.F.);
#191=CARTESIAN_POINT('',(0.14,2.0,0.25));
#192=VERTEX_POINT('',#191);
#193=CARTESIAN_POINT('',(0.14,2.0,0.0));
#194=DIRECTION('',(0.0,0.0,1.0));
#195=VECTOR('',#194,0.25);
#196=LINE('',#193,#195);
#197=EDGE_CURVE('',#183,#192,#196,.T.);
#198=ORIENTED_EDGE('',*,*,#197,.T.);
#199=CARTESIAN_POINT('',(2.220446E-016,2.0,0.25));
#200=DIRECTION('',(0.0,0.0,-1.0));
#201=DIRECTION('',(-1.0,0.0,0.0));
#202=AXIS2_PLACEMENT_3D('',#199,#200,#201);
#203=CIRCLE('',#202,0.14);
#204=EDGE_CURVE('',#175,#192,#203,.T.);
#205=ORIENTED_EDGE('',*,*,#204,.F.);
#206=EDGE_LOOP('',(#181,#190,#198,#205));
#207=FACE_OUTER_BOUND('',#206,.T.);
#208=ADVANCED_FACE('',(#207),#171,.F.);
#209=CARTESIAN_POINT('',(0.0,0.0,0.0));
#210=DIRECTION('',(0.0,0.0,1.0));
#211=DIRECTION('',(-1.0,0.0,0.0));
#212=AXIS2_PLACEMENT_3D('',#209,#210,#211);
#213=CYLINDRICAL_SURFACE('',#212,0.14);
#214=CARTESIAN_POINT('',(-0.14,0.0,0.0));
#215=VERTEX_POINT('',#214);
#216=CARTESIAN_POINT('',(-0.14,0.0,0.25));
#217=VERTEX_POINT('',#216);
#218=CARTESIAN_POINT('',(-0.14,1.714449E-017,0.0));
#219=DIRECTION('',(0.0,0.0,1.0));
#220=VECTOR('',#219,0.25);
#221=LINE('',#218,#220);
#222=EDGE_CURVE('',#215,#217,#221,.T.);
#223=ORIENTED_EDGE('',*,*,#222,.F.);
#224=CARTESIAN_POINT('',(0.14,5.662345E-022,0.0));
#225=VERTEX_POINT('',#224);
#226=CARTESIAN_POINT('',(0.0,0.0,0.0));
#227=DIRECTION('',(0.0,0.0,1.0));
#228=DIRECTION('',(-1.0,0.0,0.0));
#229=AXIS2_PLACEMENT_3D('',#226,#227,#228);
#230=CIRCLE('',#229,0.14);
#231=EDGE_CURVE('',#225,#215,#230,.T.);
#232=ORIENTED_EDGE('',*,*,#231,.F.);
#233=CARTESIAN_POINT('',(0.14,5.662345E-022,0.25));
#234=VERTEX_POINT('',#233);
#235=CARTESIAN_POINT('',(0.14,5.662345E-022,0.0));
#236=DIRECTION('',(0.0,0.0,1.0));
#237=VECTOR('',#236,0.25);
#238=LINE('',#235,#237);
#239=EDGE_CURVE('',#225,#234,#238,.T.);
#240=ORIENTED_EDGE('',*,*,#239,.T.);
#241=CARTESIAN_POINT('',(0.0,0.0,0.25));
#242=DIRECTION('',(0.0,0.0,-1.0));
#243=DIRECTION('',(-1.0,0.0,0.0));
#244=AXIS2_PLACEMENT_3D('',#241,#242,#243);
#245=CIRCLE('',#244,0.14);
#246=EDGE_CURVE('',#217,#234,#245,.T.);
#247=ORIENTED_EDGE('',*,*,#246,.F.);
#248=EDGE_LOOP('',(#223,#232,#240,#247));
#249=FACE_OUTER_BOUND('',#248,.T.);
#250=ADVANCED_FACE('',(#249),#213,.F.);
#251=CARTESIAN_POINT('',(0.0,0.0,0.0));
#252=DIRECTION('',(0.0,0.0,1.0));
#253=DIRECTION('',(-1.0,0.0,0.0));
#254=AXIS2_PLACEMENT_3D('',#251,#252,#253);
#255=CYLINDRICAL_SURFACE('',#254,0.14);
#256=ORIENTED_EDGE('',*,*,#222,.T.);
#257=CARTESIAN_POINT('',(0.0,0.0,0.25));
#258=DIRECTION('',(0.0,0.0,-1.0));
#259=DIRECTION('',(-1.0,0.0,0.0));
#260=AXIS2_PLACEMENT_3D('',#257,#258,#259);
#261=CIRCLE('',#260,0.14);
#262=EDGE_CURVE('',#234,#217,#261,.T.);
#263=ORIENTED_EDGE('',*,*,#262,.F.);
#264=ORIENTED_EDGE('',*,*,#239,.F.);
#265=CARTESIAN_POINT('',(0.0,0.0,0.0));
#266=DIRECTION('',(0.0,0.0,1.0));
#267=DIRECTION('',(-1.0,0.0,0.0));
#268=AXIS2_PLACEMENT_3D('',#265,#266,#267);
#269=CIRCLE('',#268,0.14);
#270=EDGE_CURVE('',#215,#225,#269,.T.);
#271=ORIENTED_EDGE('',*,*,#270,.F.);
#272=EDGE_LOOP('',(#256,#263,#264,#271));
#273=FACE_OUTER_BOUND('',#272,.T.);
#274=ADVANCED_FACE('',(#273),#255,.F.);
#275=CARTESIAN_POINT('',(2.220446E-016,2.0,0.0));
#276=DIRECTION('',(0.0,0.0,1.0));
#277=DIRECTION('',(-1.0,0.0,0.0));
#278=AXIS2_PLACEMENT_3D('',#275,#276,#277);
#279=CYLINDRICAL_SURFACE('',#278,0.14);
#280=ORIENTED_EDGE('',*,*,#180,.T.);
#281=CARTESIAN_POINT('',(2.220446E-016,2.0,0.25));
#282=DIRECTION('',(0.0,0.0,-1.0));
#283=DIRECTION('',(-1.0,0.0,0.0));
#284=AXIS2_PLACEMENT_3D('',#281,#282,#283);
#285=CIRCLE('',#284,0.14);
#286=EDGE_CURVE('',#192,#175,#285,.T.);
#287=ORIENTED_EDGE('',*,*,#286,.F.);
#288=ORIENTED_EDGE('',*,*,#197,.F.);
#289=CARTESIAN_POINT('',(2.220446E-016,2.0,0.0));
#290=DIRECTION('',(0.0,0.0,1.0));
#291=DIRECTION('',(-1.0,0.0,0.0));
#292=AXIS2_PLACEMENT_3D('',#289,#290,#291);
#293=CIRCLE('',#292,0.14);
#294=EDGE_CURVE('',#173,#183,#293,.T.);
#295=ORIENTED_EDGE('',*,*,#294,.F.);
#296=EDGE_LOOP('',(#280,#287,#288,#295));
#297=FACE_OUTER_BOUND('',#296,.T.);
#298=ADVANCED_FACE('',(#297),#279,.F.);
#299=CARTESIAN_POINT('',(1.110223E-016,1.0,0.0));
#300=DIRECTION('',(0.0,0.0,1.0));
#301=DIRECTION('',(-1.0,0.0,0.0));
#302=AXIS2_PLACEMENT_3D('',#299,#300,#301);
#303=CYLINDRICAL_SURFACE('',#302,0.14);
#304=ORIENTED_EDGE('',*,*,#138,.T.);
#305=CARTESIAN_POINT('',(1.110223E-016,1.0,0.25));
#306=DIRECTION('',(0.0,0.0,-1.0));
#307=DIRECTION('',(-1.0,0.0,0.0));
#308=AXIS2_PLACEMENT_3D('',#305,#306,#307);
#309=CIRCLE('',#308,0.14);
#310=EDGE_CURVE('',#150,#133,#309,.T.);
#311=ORIENTED_EDGE('',*,*,#310,.F.);
#312=ORIENTED_EDGE('',*,*,#155,.F.);
#313=CARTESIAN_POINT('',(1.110223E-016,1.0,0.0));
#314=DIRECTION('',(0.0,0.0,1.0));
#315=DIRECTION('',(-1.0,0.0,0.0));
#316=AXIS2_PLACEMENT_3D('',#313,#314,#315);
#317=CIRCLE('',#316,0.14);
#318=EDGE_CURVE('',#131,#141,#317,.T.);
#319=ORIENTED_EDGE('',*,*,#318,.F.);
#320=EDGE_LOOP('',(#304,#311,#312,#319));
#321=FACE_OUTER_BOUND('',#320,.T.);
#322=ADVANCED_FACE('',(#321),#303,.F.);
#323=CARTESIAN_POINT('',(0.5,2.5,0.0));
#324=DIRECTION('',(1.0,0.0,0.0));
#325=DIRECTION('',(0.0,0.0,1.0));
#326=AXIS2_PLACEMENT_3D('',#323,#324,#325);
#327=PLANE('',#326);
#328=CARTESIAN_POINT('',(0.5,2.5,0.25));
#329=VERTEX_POINT('',#328);
#330=CARTESIAN_POINT('',(0.5,0.0,0.25));
#331=VERTEX_POINT('',#330);
#332=CARTESIAN_POINT('',(0.5,2.5,0.25));
#333=DIRECTION('',(0.0,-1.0,0.0));
#334=VECTOR('',#333,2.5);
#335=LINE('',#332,#334);
#336=EDGE_CURVE('',#329,#331,#335,.T.);
#337=ORIENTED_EDGE('',*,*,#336,.T.);
#338=CARTESIAN_POINT('',(0.5,0.0,0.0));
#339=VERTEX_POINT('',#338);
#340=CARTESIAN_POINT('',(0.5,0.0,0.0));
#341=DIRECTION('',(0.0,0.0,1.0));
#342=VECTOR('',#341,0.25);
#343=LINE('',#340,#342);
#344=EDGE_CURVE('',#339,#331,#343,.T.);
#345=ORIENTED_EDGE('',*,*,#344,.F.);
#346=CARTESIAN_POINT('',(0.5,2.5,0.0));
#347=VERTEX_POINT('',#346);
#348=CARTESIAN_POINT('',(0.5,0.0,0.0));
#349=DIRECTION('',(0.0,1.0,0.0));
#350=VECTOR('',#349,2.5);
#351=LINE('',#348,#350);
#352=EDGE_CURVE('',#339,#347,#351,.T.);
#353=ORIENTED_EDGE('',*,*,#352,.T.);
#354=CARTESIAN_POINT('',(0.5,2.5,0.0));
#355=DIRECTION('',(0.0,0.0,1.0));
#356=VECTOR('',#355,0.25);
#357=LINE('',#354,#356);
#358=EDGE_CURVE('',#347,#329,#357,.T.);
#359=ORIENTED_EDGE('',*,*,#358,.T.);
#360=EDGE_LOOP('',(#337,#345,#353,#359));
#361=FACE_OUTER_BOUND('',#360,.T.);
#362=ADVANCED_FACE('',(#361),#327,.T.);
#363=CARTESIAN_POINT('',(0.0,0.0,0.0));
#364=DIRECTION('',(0.0,0.0,1.0));
#365=DIRECTION('',(-0.707106781186548,-0.707106781186547,0.0));
#366=AXIS2_PLACEMENT_3D('',#363,#364,#365);
#367=CYLINDRICAL_SURFACE('',#366,0.5);
#368=CARTESIAN_POINT('',(-0.5,0.0,0.25));
#369=VERTEX_POINT('',#368);
#370=CARTESIAN_POINT('',(0.0,0.0,0.25));
#371=DIRECTION('',(0.0,0.0,-1.0));
#372=DIRECTION('',(-0.707106781186548,-0.707106781186547,0.0));
#373=AXIS2_PLACEMENT_3D('',#370,#371,#372);
#374=CIRCLE('',#373,0.5);
#375=EDGE_CURVE('',#331,#369,#374,.T.);
#376=ORIENTED_EDGE('',*,*,#375,.T.);
#377=CARTESIAN_POINT('',(-0.5,0.0,0.0));
#378=VERTEX_POINT('',#377);
#379=CARTESIAN_POINT('',(-0.5,0.0,0.0));
#380=DIRECTION('',(0.0,0.0,1.0));
#381=VECTOR('',#380,0.25);
#382=LINE('',#379,#381);
#383=EDGE_CURVE('',#378,#369,#382,.T.);
#384=ORIENTED_EDGE('',*,*,#383,.F.);
#385=CARTESIAN_POINT('',(0.0,0.0,0.0));
#386=DIRECTION('',(0.0,0.0,1.0));
#387=DIRECTION('',(-0.707106781186548,-0.707106781186547,0.0));
#388=AXIS2_PLACEMENT_3D('',#385,#386,#387);
#389=CIRCLE('',#388,0.5);
#390=EDGE_CURVE('',#378,#339,#389,.T.);
#391=ORIENTED_EDGE('',*,*,#390,.T.);
#392=ORIENTED_EDGE('',*,*,#344,.T.);
#393=EDGE_LOOP('',(#376,#384,#391,#392));
#394=FACE_OUTER_BOUND('',#393,.T.);
#395=ADVANCED_FACE('',(#394),#367,.T.);
#396=CARTESIAN_POINT('',(-0.5,0.0,0.0));
#397=DIRECTION('',(-1.0,0.0,0.0));
#398=DIRECTION('',(0.0,0.0,-1.0));
#399=AXIS2_PLACEMENT_3D('',#396,#397,#398);
#400=PLANE('',#399);
#401=CARTESIAN_POINT('',(-0.5,2.5,0.25));
#402=VERTEX_POINT('',#401);
#403=CARTESIAN_POINT('',(-0.5,0.0,0.25));
#404=DIRECTION('',(0.0,1.0,0.0));
#405=VECTOR('',#404,2.5);
#406=LINE('',#403,#405);
#407=EDGE_CURVE('',#369,#402,#406,.T.);
#408=ORIENTED_EDGE('',*,*,#407,.T.);
#409=CARTESIAN_POINT('',(-0.5,2.5,0.0));
#410=VERTEX_POINT('',#409);
#411=CARTESIAN_POINT('',(-0.5,2.5,0.0));
#412=DIRECTION('',(0.0,0.0,1.0));
#413=VECTOR('',#412,0.25);
#414=LINE('',#411,#413);
#415=EDGE_CURVE('',#410,#402,#414,.T.);
#416=ORIENTED_EDGE('',*,*,#415,.F.);
#417=CARTESIAN_POINT('',(-0.5,2.5,0.0));
#418=DIRECTION('',(0.0,-1.0,0.0));
#419=VECTOR('',#418,2.5);
#420=LINE('',#417,#419);
#421=EDGE_CURVE('',#410,#378,#420,.T.);
#422=ORIENTED_EDGE('',*,*,#421,.T.);
#423=ORIENTED_EDGE('',*,*,#383,.T.);
#424=EDGE_LOOP('',(#408,#416,#422,#423));
#425=FACE_OUTER_BOUND('',#424,.T.);
#426=ADVANCED_FACE('',(#425),#400,.T.);
#427=CARTESIAN_POINT('',(-0.5,2.5,0.0));
#428=DIRECTION('',(0.0,1.0,0.0));
#429=DIRECTION('',(0.0,0.0,-1.0));
#430=AXIS2_PLACEMENT_3D('',#427,#428,#429);
#431=PLANE('',#430);
#432=CARTESIAN_POINT('',(-0.5,2.5,0.25));
#433=DIRECTION('',(1.0,0.0,0.0));
#434=VECTOR('',#433,1.0);
#435=LINE('',#432,#434);
#436=EDGE_CURVE('',#402,#329,#435,.T.);
#437=ORIENTED_EDGE('',*,*,#436,.T.);
#438=ORIENTED_EDGE('',*,*,#358,.F.);
#439=CARTESIAN_POINT('',(0.5,2.5,0.0));
#440=DIRECTION('',(-1.0,0.0,0.0));
#441=VECTOR('',#440,1.0);
#442=LINE('',#439,#441);
#443=EDGE_CURVE('',#347,#410,#442,.T.);
#444=ORIENTED_EDGE('',*,*,#443,.T.);
#445=ORIENTED_EDGE('',*,*,#415,.T.);
#446=EDGE_LOOP('',(#437,#438,#444,#445));
#447=FACE_OUTER_BOUND('',#446,.T.);
#448=ADVANCED_FACE('',(#447),#431,.T.);
#449=CARTESIAN_POINT('',(1.110223E-016,0.541841888401922,0.0));
#450=DIRECTION('',(0.0,0.0,-1.0));
#451=DIRECTION('',(1.0,0.0,0.0));
#452=AXIS2_PLACEMENT_3D('',#449,#450,#451);
#453=PLANE('',#452);
#454=ORIENTED_EDGE('',*,*,#443,.F.);
#455=ORIENTED_EDGE('',*,*,#352,.F.);
#456=ORIENTED_EDGE('',*,*,#390,.F.);
#457=ORIENTED_EDGE('',*,*,#421,.F.);
#458=EDGE_LOOP('',(#454,#455,#456,#457));
#459=FACE_OUTER_BOUND('',#458,.T.);
#460=ORIENTED_EDGE('',*,*,#270,.T.);
#461=ORIENTED_EDGE('',*,*,#231,.T.);
#462=EDGE_LOOP('',(#460,#461));
#463=FACE_BOUND('',#462,.T.);
#464=ORIENTED_EDGE('',*,*,#294,.T.);
#465=ORIENTED_EDGE('',*,*,#189,.T.);
#466=EDGE_LOOP('',(#464,#465));
#467=FACE_BOUND('',#466,.T.);
#468=ORIENTED_EDGE('',*,*,#318,.T.);
#469=ORIENTED_EDGE('',*,*,#147,.T.);
#470=EDGE_LOOP('',(#468,#469));
#471=FACE_BOUND('',#470,.T.);
#472=ADVANCED_FACE('',(#459,#463,#467,#471),#453,.T.);
#473=CARTESIAN_POINT('',(0.5,2.5,0.25));
#474=DIRECTION('',(0.0,0.0,-1.0));
#475=DIRECTION('',(1.0,0.0,0.0));
#476=AXIS2_PLACEMENT_3D('',#473,#474,#475);
#477=PLANE('',#476);
#478=ORIENTED_EDGE('',*,*,#336,.F.);
#479=ORIENTED_EDGE('',*,*,#436,.F.);
#480=ORIENTED_EDGE('',*,*,#407,.F.);
#481=ORIENTED_EDGE('',*,*,#375,.F.);
#482=EDGE_LOOP('',(#478,#479,#480,#481));
#483=FACE_OUTER_BOUND('',#482,.T.);
#484=ORIENTED_EDGE('',*,*,#246,.T.);
#485=ORIENTED_EDGE('',*,*,#262,.T.);
#486=EDGE_LOOP('',(#484,#485));
#487=FACE_BOUND('',#486,.T.);
#488=ORIENTED_EDGE('',*,*,#204,.T.);
#489=ORIENTED_EDGE('',*,*,#286,.T.);
#490=EDGE_LOOP('',(#488,#489));
#491=FACE_BOUND('',#490,.T.);
#492=ORIENTED_EDGE('',*,*,#162,.T.);
#493=ORIENTED_EDGE('',*,*,#310,.T.);
#494=EDGE_LOOP('',(#492,#493));
#495=FACE_BOUND('',#494,.T.);
#496=ADVANCED_FACE('',(#483,#487,#491,#495),#477,.F.);
#497=CLOSED_SHELL('',(#166,#208,#250,#274,#298,#322,#362,#395,#426,#448,#472,#496));
#498=MANIFOLD_SOLID_BREP('46A',#497);
#499=ADVANCED_BREP_SHAPE_REPRESENTATION('ABSR1',(#498),#28);
#500=SHAPE_REPRESENTATION_RELATIONSHIP('SRRPL1','',#499,#122);
ENDSEC;
END-ISO-10303-21;
