ISO-10303-21;
HEADER;
/****************************************************************
 * Generated by software with PDElib inside                    *
 * PDElib Version v51a, created Fri 09/10/2010                  *
 * ITI Transcendata (http://www.transcendata.com/)              *
 ****************************************************************/
FILE_DESCRIPTION((''),'2;1');
FILE_NAME('10HI8304.stp','2015-07-07T14:07:51',(''),(''),'Mechanical Desktop 2011','Mechanical Desktop 2011',', , ');
FILE_SCHEMA(('CONFIG_CONTROL_DESIGN'));
ENDSEC;
DATA;
#10=(NAMED_UNIT(*)PLANE_ANGLE_UNIT()SI_UNIT($,.RADIAN.));
#11=DIMENSIONAL_EXPONENTS(0.0,0.0,0.0,0.0,0.0,0.0,0.0);
#12=PLANE_ANGLE_MEASURE_WITH_UNIT(PLANE_ANGLE_MEASURE(0.0174532925),#10);
#16=(CONVERSION_BASED_UNIT('DEGREE',#12)NAMED_UNIT(#11)PLANE_ANGLE_UNIT());
#20=(NAMED_UNIT(*)SI_UNIT($,.STERADIAN.)SOLID_ANGLE_UNIT());
#24=(LENGTH_UNIT()NAMED_UNIT(*)SI_UNIT(.MILLI.,.METRE.));
#26=UNCERTAINTY_MEASURE_WITH_UNIT(LENGTH_MEASURE(0.000001),#24,'DISTANCE_ACCURACY_VALUE','');
#28=(GEOMETRIC_REPRESENTATION_CONTEXT(3)GLOBAL_UNCERTAINTY_ASSIGNED_CONTEXT((#26))GLOBAL_UNIT_ASSIGNED_CONTEXT((#16,#20,#24))REPRESENTATION_CONTEXT('','3D'));
#29=APPLICATION_CONTEXT('CONFIGURATION CONTROLLED 3D DESIGNS OF MECHANICAL PARTS AND ASSEMBLIES');
#30=APPLICATION_PROTOCOL_DEFINITION('INTERNATIONAL STANDARD','config_control_design',1995,#29);
#31=MECHANICAL_CONTEXT('3D Mechanical Parts',#29,'mechanical');
#32=PRODUCT('Product','Product',' ',(#31));
#33=PRODUCT_RELATED_PRODUCT_CATEGORY('detail',$,(#32));
#34=PRODUCT_CATEGORY('part',$);
#35=PRODUCT_CATEGORY_RELATIONSHIP('None','None',#34,#33);
#36=PERSON('1','Design','Joe',$,$,$);
#37=ORGANIZATION($,'None','None');
#38=PERSON_AND_ORGANIZATION(#36,#37);
#39=PERSON_AND_ORGANIZATION_ROLE('design_owner');
#40=CC_DESIGN_PERSON_AND_ORGANIZATION_ASSIGNMENT(#38,#39,(#32));
#41=PRODUCT_DEFINITION_FORMATION_WITH_SPECIFIED_SOURCE('None','None',#32,.BOUGHT.);
#42=PERSON('2','Creator','Joe',$,$,$);
#43=ORGANIZATION($,'None','None');
#44=PERSON_AND_ORGANIZATION(#42,#43);
#45=PERSON_AND_ORGANIZATION_ROLE('creator');
#46=CC_DESIGN_PERSON_AND_ORGANIZATION_ASSIGNMENT(#44,#45,(#41));
#47=PERSON('3','Supplier','Joe',$,$,$);
#48=ORGANIZATION($,'None','None');
#49=PERSON_AND_ORGANIZATION(#47,#48);
#50=PERSON_AND_ORGANIZATION_ROLE('design_supplier');
#51=CC_DESIGN_PERSON_AND_ORGANIZATION_ASSIGNMENT(#49,#50,(#41));
#52=APPROVAL_STATUS('approved');
#53=APPROVAL(#52,'None');
#54=PERSON('4','Approver','Joe',$,$,$);
#55=ORGANIZATION($,'None','None');
#56=PERSON_AND_ORGANIZATION(#54,#55);
#57=APPROVAL_ROLE('approver');
#58=APPROVAL_PERSON_ORGANIZATION(#56,#53,#57);
#59=COORDINATED_UNIVERSAL_TIME_OFFSET(8,$,.EXACT.);
#60=CALENDAR_DATE(1996,29,5);
#61=LOCAL_TIME(12,0,0.0,#59);
#62=DATE_AND_TIME(#60,#61);
#63=APPROVAL_DATE_TIME(#62,#53);
#64=CC_DESIGN_APPROVAL(#53,(#41));
#65=SECURITY_CLASSIFICATION_LEVEL('unclassified');
#66=SECURITY_CLASSIFICATION('security','None',#65);
#67=CC_DESIGN_SECURITY_CLASSIFICATION(#66,(#41));
#68=APPROVAL_STATUS('approved');
#69=APPROVAL(#68,'None');
#70=PERSON('5','Approver','Joe',$,$,$);
#71=ORGANIZATION($,'None','None');
#72=PERSON_AND_ORGANIZATION(#70,#71);
#73=APPROVAL_ROLE('approver');
#74=APPROVAL_PERSON_ORGANIZATION(#72,#69,#73);
#75=COORDINATED_UNIVERSAL_TIME_OFFSET(8,$,.EXACT.);
#76=CALENDAR_DATE(1996,29,5);
#77=LOCAL_TIME(12,0,0.0,#75);
#78=DATE_AND_TIME(#76,#77);
#79=APPROVAL_DATE_TIME(#78,#69);
#80=CC_DESIGN_APPROVAL(#69,(#66));
#81=PERSON('6','Classifier','Joe',$,$,$);
#82=ORGANIZATION($,'None','None');
#83=PERSON_AND_ORGANIZATION(#81,#82);
#84=PERSON_AND_ORGANIZATION_ROLE('classification_officer');
#85=CC_DESIGN_PERSON_AND_ORGANIZATION_ASSIGNMENT(#83,#84,(#66));
#86=COORDINATED_UNIVERSAL_TIME_OFFSET(8,$,.EXACT.);
#87=CALENDAR_DATE(1996,29,5);
#88=LOCAL_TIME(12,0,0.0,#86);
#89=DATE_AND_TIME(#87,#88);
#90=DATE_TIME_ROLE('classification_date');
#91=CC_DESIGN_DATE_AND_TIME_ASSIGNMENT(#89,#90,(#66));
#92=DESIGN_CONTEXT('Design Context',#29,'design');
#93=PRODUCT_DEFINITION('None','None',#41,#92);
#94=PERSON('7','Creator','Joe',$,$,$);
#95=ORGANIZATION($,'None','None');
#96=PERSON_AND_ORGANIZATION(#94,#95);
#97=PERSON_AND_ORGANIZATION_ROLE('creator');
#98=CC_DESIGN_PERSON_AND_ORGANIZATION_ASSIGNMENT(#96,#97,(#93));
#99=COORDINATED_UNIVERSAL_TIME_OFFSET(8,$,.EXACT.);
#100=CALENDAR_DATE(1996,29,5);
#101=LOCAL_TIME(12,0,0.0,#99);
#102=DATE_AND_TIME(#100,#101);
#103=DATE_TIME_ROLE('creation_date');
#104=CC_DESIGN_DATE_AND_TIME_ASSIGNMENT(#102,#103,(#93));
#105=APPROVAL_STATUS('approved');
#106=APPROVAL(#105,'None');
#107=PERSON('8','Approver','Joe',$,$,$);
#108=ORGANIZATION($,'None','None');
#109=PERSON_AND_ORGANIZATION(#107,#108);
#110=APPROVAL_ROLE('approver');
#111=APPROVAL_PERSON_ORGANIZATION(#109,#106,#110);
#112=COORDINATED_UNIVERSAL_TIME_OFFSET(8,$,.EXACT.);
#113=CALENDAR_DATE(1996,29,5);
#114=LOCAL_TIME(12,0,0.0,#112);
#115=DATE_AND_TIME(#113,#114);
#116=APPROVAL_DATE_TIME(#115,#106);
#117=CC_DESIGN_APPROVAL(#106,(#93));
#118=CARTESIAN_POINT('NONE',(0.0,0.0,0.0));
#119=DIRECTION('NONE',(0.0,0.0,1.0));
#120=DIRECTION('NONE',(1.0,0.0,0.0));
#121=AXIS2_PLACEMENT_3D('NONE',#118,#119,#120);
#122=SHAPE_REPRESENTATION('SR1',(#121),#28);
#123=PRODUCT_DEFINITION_SHAPE('PDS1','Test Part',#93);
#124=SHAPE_DEFINITION_REPRESENTATION(#123,#122);
#125=CARTESIAN_POINT('',(0.0,-1.110223E-016,0.125));
#126=DIRECTION('',(0.0,-1.224647E-016,-1.0));
#127=DIRECTION('',(1.0,0.0,0.0));
#128=AXIS2_PLACEMENT_3D('',#125,#126,#127);
#129=CYLINDRICAL_SURFACE('',#128,0.25);
#130=CARTESIAN_POINT('',(0.25,-1.110223E-016,0.0));
#131=VERTEX_POINT('',#130);
#132=CARTESIAN_POINT('',(0.25,-1.110223E-016,0.25));
#133=VERTEX_POINT('',#132);
#134=CARTESIAN_POINT('',(0.25,-1.263304E-016,0.0));
#135=DIRECTION('',(0.0,0.0,1.0));
#136=VECTOR('',#135,0.25);
#137=LINE('',#134,#136);
#138=EDGE_CURVE('',#131,#133,#137,.T.);
#139=ORIENTED_EDGE('',*,*,#138,.F.);
#140=CARTESIAN_POINT('',(-0.25,-9.571422E-017,0.0));
#141=VERTEX_POINT('',#140);
#142=CARTESIAN_POINT('',(0.0,-1.110223E-016,0.0));
#143=DIRECTION('',(0.0,0.0,-1.0));
#144=DIRECTION('',(1.0,0.0,0.0));
#145=AXIS2_PLACEMENT_3D('',#142,#143,#144);
#146=CIRCLE('',#145,0.25);
#147=EDGE_CURVE('',#141,#131,#146,.T.);
#148=ORIENTED_EDGE('',*,*,#147,.F.);
#149=CARTESIAN_POINT('',(-0.25,-6.509805E-017,0.25));
#150=VERTEX_POINT('',#149);
#151=CARTESIAN_POINT('',(-0.25,-9.571422E-017,0.0));
#152=DIRECTION('',(0.0,0.0,1.0));
#153=VECTOR('',#152,0.25);
#154=LINE('',#151,#153);
#155=EDGE_CURVE('',#141,#150,#154,.T.);
#156=ORIENTED_EDGE('',*,*,#155,.T.);
#157=CARTESIAN_POINT('',(0.0,-1.110223E-016,0.25));
#158=DIRECTION('',(0.0,0.0,1.0));
#159=DIRECTION('',(1.0,0.0,0.0));
#160=AXIS2_PLACEMENT_3D('',#157,#158,#159);
#161=CIRCLE('',#160,0.25);
#162=EDGE_CURVE('',#133,#150,#161,.T.);
#163=ORIENTED_EDGE('',*,*,#162,.F.);
#164=EDGE_LOOP('',(#139,#148,#156,#163));
#165=FACE_OUTER_BOUND('',#164,.T.);
#166=ADVANCED_FACE('',(#165),#129,.T.);
#167=CARTESIAN_POINT('',(0.0,-1.110223E-016,-0.279288998004746));
#168=DIRECTION('',(0.0,-1.224647E-016,-1.0));
#169=DIRECTION('',(1.0,0.0,0.0));
#170=AXIS2_PLACEMENT_3D('',#167,#168,#169);
#171=CYLINDRICAL_SURFACE('',#170,0.15625);
#172=CARTESIAN_POINT('',(0.15625,0.0,0.25));
#173=VERTEX_POINT('',#172);
#174=CARTESIAN_POINT('',(0.15625,-7.681926E-017,0.0));
#175=VERTEX_POINT('',#174);
#176=CARTESIAN_POINT('',(0.15625,-4.620309E-017,0.25));
#177=DIRECTION('',(0.0,0.0,-1.0));
#178=VECTOR('',#177,0.25);
#179=LINE('',#176,#178);
#180=EDGE_CURVE('',#173,#175,#179,.T.);
#181=ORIENTED_EDGE('',*,*,#180,.F.);
#182=CARTESIAN_POINT('',(-0.15625,-2.706799E-017,0.25));
#183=VERTEX_POINT('',#182);
#184=CARTESIAN_POINT('',(0.0,0.0,0.25));
#185=DIRECTION('',(0.0,0.0,-1.0));
#186=DIRECTION('',(1.0,0.0,0.0));
#187=AXIS2_PLACEMENT_3D('',#184,#185,#186);
#188=CIRCLE('',#187,0.15625);
#189=EDGE_CURVE('',#183,#173,#188,.T.);
#190=ORIENTED_EDGE('',*,*,#189,.F.);
#191=CARTESIAN_POINT('',(-0.15625,0.0,2.343375E-033));
#192=VERTEX_POINT('',#191);
#193=CARTESIAN_POINT('',(-0.15625,-2.706799E-017,0.25));
#194=DIRECTION('',(0.0,0.0,-1.0));
#195=VECTOR('',#194,0.25);
#196=LINE('',#193,#195);
#197=EDGE_CURVE('',#183,#192,#196,.T.);
#198=ORIENTED_EDGE('',*,*,#197,.T.);
#199=CARTESIAN_POINT('',(0.0,0.0,0.0));
#200=DIRECTION('',(0.0,0.0,1.0));
#201=DIRECTION('',(1.0,0.0,0.0));
#202=AXIS2_PLACEMENT_3D('',#199,#200,#201);
#203=CIRCLE('',#202,0.15625);
#204=EDGE_CURVE('',#175,#192,#203,.T.);
#205=ORIENTED_EDGE('',*,*,#204,.F.);
#206=EDGE_LOOP('',(#181,#190,#198,#205));
#207=FACE_OUTER_BOUND('',#206,.T.);
#208=ADVANCED_FACE('',(#207),#171,.F.);
#209=CARTESIAN_POINT('',(0.0,-1.110223E-016,-0.279288998004746));
#210=DIRECTION('',(0.0,-1.224647E-016,-1.0));
#211=DIRECTION('',(1.0,0.0,0.0));
#212=AXIS2_PLACEMENT_3D('',#209,#210,#211);
#213=CYLINDRICAL_SURFACE('',#212,0.15625);
#214=ORIENTED_EDGE('',*,*,#180,.T.);
#215=CARTESIAN_POINT('',(0.0,0.0,0.0));
#216=DIRECTION('',(0.0,0.0,1.0));
#217=DIRECTION('',(1.0,0.0,0.0));
#218=AXIS2_PLACEMENT_3D('',#215,#216,#217);
#219=CIRCLE('',#218,0.15625);
#220=EDGE_CURVE('',#192,#175,#219,.T.);
#221=ORIENTED_EDGE('',*,*,#220,.F.);
#222=ORIENTED_EDGE('',*,*,#197,.F.);
#223=CARTESIAN_POINT('',(0.0,0.0,0.25));
#224=DIRECTION('',(0.0,0.0,-1.0));
#225=DIRECTION('',(1.0,0.0,0.0));
#226=AXIS2_PLACEMENT_3D('',#223,#224,#225);
#227=CIRCLE('',#226,0.15625);
#228=EDGE_CURVE('',#173,#183,#227,.T.);
#229=ORIENTED_EDGE('',*,*,#228,.F.);
#230=EDGE_LOOP('',(#214,#221,#222,#229));
#231=FACE_OUTER_BOUND('',#230,.T.);
#232=ADVANCED_FACE('',(#231),#213,.F.);
#233=CARTESIAN_POINT('',(0.0,-1.110223E-016,0.125));
#234=DIRECTION('',(0.0,-1.224647E-016,-1.0));
#235=DIRECTION('',(1.0,0.0,0.0));
#236=AXIS2_PLACEMENT_3D('',#233,#234,#235);
#237=CYLINDRICAL_SURFACE('',#236,0.25);
#238=ORIENTED_EDGE('',*,*,#138,.T.);
#239=CARTESIAN_POINT('',(0.0,-1.110223E-016,0.25));
#240=DIRECTION('',(0.0,0.0,1.0));
#241=DIRECTION('',(1.0,0.0,0.0));
#242=AXIS2_PLACEMENT_3D('',#239,#240,#241);
#243=CIRCLE('',#242,0.25);
#244=EDGE_CURVE('',#150,#133,#243,.T.);
#245=ORIENTED_EDGE('',*,*,#244,.F.);
#246=ORIENTED_EDGE('',*,*,#155,.F.);
#247=CARTESIAN_POINT('',(0.0,-1.110223E-016,0.0));
#248=DIRECTION('',(0.0,0.0,-1.0));
#249=DIRECTION('',(1.0,0.0,0.0));
#250=AXIS2_PLACEMENT_3D('',#247,#248,#249);
#251=CIRCLE('',#250,0.25);
#252=EDGE_CURVE('',#131,#141,#251,.T.);
#253=ORIENTED_EDGE('',*,*,#252,.F.);
#254=EDGE_LOOP('',(#238,#245,#246,#253));
#255=FACE_OUTER_BOUND('',#254,.T.);
#256=ADVANCED_FACE('',(#255),#237,.T.);
#257=CARTESIAN_POINT('',(0.0,-1.110223E-016,0.25));
#258=DIRECTION('',(0.0,0.0,1.0));
#259=DIRECTION('',(-1.0,0.0,0.0));
#260=AXIS2_PLACEMENT_3D('',#257,#258,#259);
#261=PLANE('',#260);
#262=ORIENTED_EDGE('',*,*,#162,.T.);
#263=ORIENTED_EDGE('',*,*,#244,.T.);
#264=EDGE_LOOP('',(#262,#263));
#265=FACE_OUTER_BOUND('',#264,.T.);
#266=ORIENTED_EDGE('',*,*,#228,.T.);
#267=ORIENTED_EDGE('',*,*,#189,.T.);
#268=EDGE_LOOP('',(#266,#267));
#269=FACE_BOUND('',#268,.T.);
#270=ADVANCED_FACE('',(#265,#269),#261,.T.);
#271=CARTESIAN_POINT('',(0.0,-1.110223E-016,0.0));
#272=DIRECTION('',(0.0,0.0,-1.0));
#273=DIRECTION('',(1.0,0.0,0.0));
#274=AXIS2_PLACEMENT_3D('',#271,#272,#273);
#275=PLANE('',#274);
#276=ORIENTED_EDGE('',*,*,#252,.T.);
#277=ORIENTED_EDGE('',*,*,#147,.T.);
#278=EDGE_LOOP('',(#276,#277));
#279=FACE_OUTER_BOUND('',#278,.T.);
#280=ORIENTED_EDGE('',*,*,#220,.T.);
#281=ORIENTED_EDGE('',*,*,#204,.T.);
#282=EDGE_LOOP('',(#280,#281));
#283=FACE_BOUND('',#282,.T.);
#284=ADVANCED_FACE('',(#279,#283),#275,.T.);
#285=CLOSED_SHELL('',(#166,#208,#232,#256,#270,#284));
#286=MANIFOLD_SOLID_BREP('648',#285);
#287=CARTESIAN_POINT('',(1.110223E-016,1.0,0.0));
#288=DIRECTION('',(0.0,0.0,1.0));
#289=DIRECTION('',(-1.0,0.0,0.0));
#290=AXIS2_PLACEMENT_3D('',#287,#288,#289);
#291=CYLINDRICAL_SURFACE('',#290,0.14);
#292=CARTESIAN_POINT('',(-0.14,1.0,0.0));
#293=VERTEX_POINT('',#292);
#294=CARTESIAN_POINT('',(-0.14,1.0,0.25));
#295=VERTEX_POINT('',#294);
#296=CARTESIAN_POINT('',(-0.14,1.0,0.0));
#297=DIRECTION('',(0.0,0.0,1.0));
#298=VECTOR('',#297,0.25);
#299=LINE('',#296,#298);
#300=EDGE_CURVE('',#293,#295,#299,.T.);
#301=ORIENTED_EDGE('',*,*,#300,.F.);
#302=CARTESIAN_POINT('',(0.14,1.0,0.0));
#303=VERTEX_POINT('',#302);
#304=CARTESIAN_POINT('',(1.110223E-016,1.0,0.0));
#305=DIRECTION('',(0.0,0.0,1.0));
#306=DIRECTION('',(-1.0,0.0,0.0));
#307=AXIS2_PLACEMENT_3D('',#304,#305,#306);
#308=CIRCLE('',#307,0.14);
#309=EDGE_CURVE('',#303,#293,#308,.T.);
#310=ORIENTED_EDGE('',*,*,#309,.F.);
#311=CARTESIAN_POINT('',(0.14,1.0,0.25));
#312=VERTEX_POINT('',#311);
#313=CARTESIAN_POINT('',(0.14,1.0,0.0));
#314=DIRECTION('',(0.0,0.0,1.0));
#315=VECTOR('',#314,0.25);
#316=LINE('',#313,#315);
#317=EDGE_CURVE('',#303,#312,#316,.T.);
#318=ORIENTED_EDGE('',*,*,#317,.T.);
#319=CARTESIAN_POINT('',(1.110223E-016,1.0,0.25));
#320=DIRECTION('',(0.0,0.0,-1.0));
#321=DIRECTION('',(-1.0,0.0,0.0));
#322=AXIS2_PLACEMENT_3D('',#319,#320,#321);
#323=CIRCLE('',#322,0.14);
#324=EDGE_CURVE('',#295,#312,#323,.T.);
#325=ORIENTED_EDGE('',*,*,#324,.F.);
#326=EDGE_LOOP('',(#301,#310,#318,#325));
#327=FACE_OUTER_BOUND('',#326,.T.);
#328=ADVANCED_FACE('',(#327),#291,.F.);
#329=CARTESIAN_POINT('',(2.220446E-016,2.0,0.0));
#330=DIRECTION('',(0.0,0.0,1.0));
#331=DIRECTION('',(-1.0,0.0,0.0));
#332=AXIS2_PLACEMENT_3D('',#329,#330,#331);
#333=CYLINDRICAL_SURFACE('',#332,0.14);
#334=CARTESIAN_POINT('',(-0.14,2.0,0.0));
#335=VERTEX_POINT('',#334);
#336=CARTESIAN_POINT('',(-0.14,2.0,0.25));
#337=VERTEX_POINT('',#336);
#338=CARTESIAN_POINT('',(-0.14,2.0,0.0));
#339=DIRECTION('',(0.0,0.0,1.0));
#340=VECTOR('',#339,0.25);
#341=LINE('',#338,#340);
#342=EDGE_CURVE('',#335,#337,#341,.T.);
#343=ORIENTED_EDGE('',*,*,#342,.F.);
#344=CARTESIAN_POINT('',(0.14,2.0,0.0));
#345=VERTEX_POINT('',#344);
#346=CARTESIAN_POINT('',(2.220446E-016,2.0,0.0));
#347=DIRECTION('',(0.0,0.0,1.0));
#348=DIRECTION('',(-1.0,0.0,0.0));
#349=AXIS2_PLACEMENT_3D('',#346,#347,#348);
#350=CIRCLE('',#349,0.14);
#351=EDGE_CURVE('',#345,#335,#350,.T.);
#352=ORIENTED_EDGE('',*,*,#351,.F.);
#353=CARTESIAN_POINT('',(0.14,2.0,0.25));
#354=VERTEX_POINT('',#353);
#355=CARTESIAN_POINT('',(0.14,2.0,0.0));
#356=DIRECTION('',(0.0,0.0,1.0));
#357=VECTOR('',#356,0.25);
#358=LINE('',#355,#357);
#359=EDGE_CURVE('',#345,#354,#358,.T.);
#360=ORIENTED_EDGE('',*,*,#359,.T.);
#361=CARTESIAN_POINT('',(2.220446E-016,2.0,0.25));
#362=DIRECTION('',(0.0,0.0,-1.0));
#363=DIRECTION('',(-1.0,0.0,0.0));
#364=AXIS2_PLACEMENT_3D('',#361,#362,#363);
#365=CIRCLE('',#364,0.14);
#366=EDGE_CURVE('',#337,#354,#365,.T.);
#367=ORIENTED_EDGE('',*,*,#366,.F.);
#368=EDGE_LOOP('',(#343,#352,#360,#367));
#369=FACE_OUTER_BOUND('',#368,.T.);
#370=ADVANCED_FACE('',(#369),#333,.F.);
#371=CARTESIAN_POINT('',(0.0,1.530808E-017,0.125));
#372=DIRECTION('',(0.0,-1.224647E-016,-1.0));
#373=DIRECTION('',(1.0,0.0,0.0));
#374=AXIS2_PLACEMENT_3D('',#371,#372,#373);
#375=CYLINDRICAL_SURFACE('',#374,0.25);
#376=CARTESIAN_POINT('',(0.25,3.061617E-017,0.25));
#377=VERTEX_POINT('',#376);
#378=CARTESIAN_POINT('',(0.25,1.540744E-032,0.0));
#379=VERTEX_POINT('',#378);
#380=CARTESIAN_POINT('',(0.25,3.061617E-017,0.25));
#381=DIRECTION('',(0.0,0.0,-1.0));
#382=VECTOR('',#381,0.25);
#383=LINE('',#380,#382);
#384=EDGE_CURVE('',#377,#379,#383,.T.);
#385=ORIENTED_EDGE('',*,*,#384,.F.);
#386=CARTESIAN_POINT('',(-0.25,6.123234E-017,0.25));
#387=VERTEX_POINT('',#386);
#388=CARTESIAN_POINT('',(0.0,3.061617E-017,0.25));
#389=DIRECTION('',(0.0,0.0,-1.0));
#390=DIRECTION('',(1.0,0.0,0.0));
#391=AXIS2_PLACEMENT_3D('',#388,#389,#390);
#392=CIRCLE('',#391,0.25);
#393=EDGE_CURVE('',#387,#377,#392,.T.);
#394=ORIENTED_EDGE('',*,*,#393,.F.);
#395=CARTESIAN_POINT('',(-0.25,3.061617E-017,5.551115E-017));
#396=VERTEX_POINT('',#395);
#397=CARTESIAN_POINT('',(-0.25,6.123234E-017,0.25));
#398=DIRECTION('',(0.0,0.0,-1.0));
#399=VECTOR('',#398,0.25);
#400=LINE('',#397,#399);
#401=EDGE_CURVE('',#387,#396,#400,.T.);
#402=ORIENTED_EDGE('',*,*,#401,.T.);
#403=CARTESIAN_POINT('',(0.0,2.465190E-032,5.551115E-017));
#404=DIRECTION('',(0.0,0.0,1.0));
#405=DIRECTION('',(1.0,0.0,0.0));
#406=AXIS2_PLACEMENT_3D('',#403,#404,#405);
#407=CIRCLE('',#406,0.25);
#408=EDGE_CURVE('',#379,#396,#407,.T.);
#409=ORIENTED_EDGE('',*,*,#408,.F.);
#410=EDGE_LOOP('',(#385,#394,#402,#409));
#411=FACE_OUTER_BOUND('',#410,.T.);
#412=ADVANCED_FACE('',(#411),#375,.F.);
#413=CARTESIAN_POINT('',(0.0,1.530808E-017,0.125));
#414=DIRECTION('',(0.0,-1.224647E-016,-1.0));
#415=DIRECTION('',(1.0,0.0,0.0));
#416=AXIS2_PLACEMENT_3D('',#413,#414,#415);
#417=CYLINDRICAL_SURFACE('',#416,0.25);
#418=ORIENTED_EDGE('',*,*,#384,.T.);
#419=CARTESIAN_POINT('',(0.0,2.465190E-032,5.551115E-017));
#420=DIRECTION('',(0.0,0.0,1.0));
#421=DIRECTION('',(1.0,0.0,0.0));
#422=AXIS2_PLACEMENT_3D('',#419,#420,#421);
#423=CIRCLE('',#422,0.25);
#424=EDGE_CURVE('',#396,#379,#423,.T.);
#425=ORIENTED_EDGE('',*,*,#424,.F.);
#426=ORIENTED_EDGE('',*,*,#401,.F.);
#427=CARTESIAN_POINT('',(0.0,3.061617E-017,0.25));
#428=DIRECTION('',(0.0,0.0,-1.0));
#429=DIRECTION('',(1.0,0.0,0.0));
#430=AXIS2_PLACEMENT_3D('',#427,#428,#429);
#431=CIRCLE('',#430,0.25);
#432=EDGE_CURVE('',#377,#387,#431,.T.);
#433=ORIENTED_EDGE('',*,*,#432,.F.);
#434=EDGE_LOOP('',(#418,#425,#426,#433));
#435=FACE_OUTER_BOUND('',#434,.T.);
#436=ADVANCED_FACE('',(#435),#417,.F.);
#437=CARTESIAN_POINT('',(2.220446E-016,2.0,0.0));
#438=DIRECTION('',(0.0,0.0,1.0));
#439=DIRECTION('',(-1.0,0.0,0.0));
#440=AXIS2_PLACEMENT_3D('',#437,#438,#439);
#441=CYLINDRICAL_SURFACE('',#440,0.14);
#442=ORIENTED_EDGE('',*,*,#342,.T.);
#443=CARTESIAN_POINT('',(2.220446E-016,2.0,0.25));
#444=DIRECTION('',(0.0,0.0,-1.0));
#445=DIRECTION('',(-1.0,0.0,0.0));
#446=AXIS2_PLACEMENT_3D('',#443,#444,#445);
#447=CIRCLE('',#446,0.14);
#448=EDGE_CURVE('',#354,#337,#447,.T.);
#449=ORIENTED_EDGE('',*,*,#448,.F.);
#450=ORIENTED_EDGE('',*,*,#359,.F.);
#451=CARTESIAN_POINT('',(2.220446E-016,2.0,0.0));
#452=DIRECTION('',(0.0,0.0,1.0));
#453=DIRECTION('',(-1.0,0.0,0.0));
#454=AXIS2_PLACEMENT_3D('',#451,#452,#453);
#455=CIRCLE('',#454,0.14);
#456=EDGE_CURVE('',#335,#345,#455,.T.);
#457=ORIENTED_EDGE('',*,*,#456,.F.);
#458=EDGE_LOOP('',(#442,#449,#450,#457));
#459=FACE_OUTER_BOUND('',#458,.T.);
#460=ADVANCED_FACE('',(#459),#441,.F.);
#461=CARTESIAN_POINT('',(1.110223E-016,1.0,0.0));
#462=DIRECTION('',(0.0,0.0,1.0));
#463=DIRECTION('',(-1.0,0.0,0.0));
#464=AXIS2_PLACEMENT_3D('',#461,#462,#463);
#465=CYLINDRICAL_SURFACE('',#464,0.14);
#466=ORIENTED_EDGE('',*,*,#300,.T.);
#467=CARTESIAN_POINT('',(1.110223E-016,1.0,0.25));
#468=DIRECTION('',(0.0,0.0,-1.0));
#469=DIRECTION('',(-1.0,0.0,0.0));
#470=AXIS2_PLACEMENT_3D('',#467,#468,#469);
#471=CIRCLE('',#470,0.14);
#472=EDGE_CURVE('',#312,#295,#471,.T.);
#473=ORIENTED_EDGE('',*,*,#472,.F.);
#474=ORIENTED_EDGE('',*,*,#317,.F.);
#475=CARTESIAN_POINT('',(1.110223E-016,1.0,0.0));
#476=DIRECTION('',(0.0,0.0,1.0));
#477=DIRECTION('',(-1.0,0.0,0.0));
#478=AXIS2_PLACEMENT_3D('',#475,#476,#477);
#479=CIRCLE('',#478,0.14);
#480=EDGE_CURVE('',#293,#303,#479,.T.);
#481=ORIENTED_EDGE('',*,*,#480,.F.);
#482=EDGE_LOOP('',(#466,#473,#474,#481));
#483=FACE_OUTER_BOUND('',#482,.T.);
#484=ADVANCED_FACE('',(#483),#465,.F.);
#485=CARTESIAN_POINT('',(0.5,2.5,0.0));
#486=DIRECTION('',(1.0,0.0,0.0));
#487=DIRECTION('',(0.0,0.0,1.0));
#488=AXIS2_PLACEMENT_3D('',#485,#486,#487);
#489=PLANE('',#488);
#490=CARTESIAN_POINT('',(0.5,2.5,0.25));
#491=VERTEX_POINT('',#490);
#492=CARTESIAN_POINT('',(0.5,0.0,0.25));
#493=VERTEX_POINT('',#492);
#494=CARTESIAN_POINT('',(0.5,2.5,0.25));
#495=DIRECTION('',(0.0,-1.0,0.0));
#496=VECTOR('',#495,2.5);
#497=LINE('',#494,#496);
#498=EDGE_CURVE('',#491,#493,#497,.T.);
#499=ORIENTED_EDGE('',*,*,#498,.T.);
#500=CARTESIAN_POINT('',(0.5,0.0,0.0));
#501=VERTEX_POINT('',#500);
#502=CARTESIAN_POINT('',(0.5,0.0,0.0));
#503=DIRECTION('',(0.0,0.0,1.0));
#504=VECTOR('',#503,0.25);
#505=LINE('',#502,#504);
#506=EDGE_CURVE('',#501,#493,#505,.T.);
#507=ORIENTED_EDGE('',*,*,#506,.F.);
#508=CARTESIAN_POINT('',(0.5,2.5,0.0));
#509=VERTEX_POINT('',#508);
#510=CARTESIAN_POINT('',(0.5,0.0,0.0));
#511=DIRECTION('',(0.0,1.0,0.0));
#512=VECTOR('',#511,2.5);
#513=LINE('',#510,#512);
#514=EDGE_CURVE('',#501,#509,#513,.T.);
#515=ORIENTED_EDGE('',*,*,#514,.T.);
#516=CARTESIAN_POINT('',(0.5,2.5,0.0));
#517=DIRECTION('',(0.0,0.0,1.0));
#518=VECTOR('',#517,0.25);
#519=LINE('',#516,#518);
#520=EDGE_CURVE('',#509,#491,#519,.T.);
#521=ORIENTED_EDGE('',*,*,#520,.T.);
#522=EDGE_LOOP('',(#499,#507,#515,#521));
#523=FACE_OUTER_BOUND('',#522,.T.);
#524=ADVANCED_FACE('',(#523),#489,.T.);
#525=CARTESIAN_POINT('',(0.0,0.0,0.0));
#526=DIRECTION('',(0.0,0.0,1.0));
#527=DIRECTION('',(-0.707106781186548,-0.707106781186547,0.0));
#528=AXIS2_PLACEMENT_3D('',#525,#526,#527);
#529=CYLINDRICAL_SURFACE('',#528,0.5);
#530=CARTESIAN_POINT('',(-0.5,0.0,0.25));
#531=VERTEX_POINT('',#530);
#532=CARTESIAN_POINT('',(0.0,0.0,0.25));
#533=DIRECTION('',(0.0,0.0,-1.0));
#534=DIRECTION('',(-0.707106781186548,-0.707106781186547,0.0));
#535=AXIS2_PLACEMENT_3D('',#532,#533,#534);
#536=CIRCLE('',#535,0.5);
#537=EDGE_CURVE('',#493,#531,#536,.T.);
#538=ORIENTED_EDGE('',*,*,#537,.T.);
#539=CARTESIAN_POINT('',(-0.5,0.0,0.0));
#540=VERTEX_POINT('',#539);
#541=CARTESIAN_POINT('',(-0.5,0.0,0.0));
#542=DIRECTION('',(0.0,0.0,1.0));
#543=VECTOR('',#542,0.25);
#544=LINE('',#541,#543);
#545=EDGE_CURVE('',#540,#531,#544,.T.);
#546=ORIENTED_EDGE('',*,*,#545,.F.);
#547=CARTESIAN_POINT('',(0.0,0.0,0.0));
#548=DIRECTION('',(0.0,0.0,1.0));
#549=DIRECTION('',(-0.707106781186548,-0.707106781186547,0.0));
#550=AXIS2_PLACEMENT_3D('',#547,#548,#549);
#551=CIRCLE('',#550,0.5);
#552=EDGE_CURVE('',#540,#501,#551,.T.);
#553=ORIENTED_EDGE('',*,*,#552,.T.);
#554=ORIENTED_EDGE('',*,*,#506,.T.);
#555=EDGE_LOOP('',(#538,#546,#553,#554));
#556=FACE_OUTER_BOUND('',#555,.T.);
#557=ADVANCED_FACE('',(#556),#529,.T.);
#558=CARTESIAN_POINT('',(-0.5,0.0,0.0));
#559=DIRECTION('',(-1.0,0.0,0.0));
#560=DIRECTION('',(0.0,0.0,-1.0));
#561=AXIS2_PLACEMENT_3D('',#558,#559,#560);
#562=PLANE('',#561);
#563=CARTESIAN_POINT('',(-0.5,2.5,0.25));
#564=VERTEX_POINT('',#563);
#565=CARTESIAN_POINT('',(-0.5,0.0,0.25));
#566=DIRECTION('',(0.0,1.0,0.0));
#567=VECTOR('',#566,2.5);
#568=LINE('',#565,#567);
#569=EDGE_CURVE('',#531,#564,#568,.T.);
#570=ORIENTED_EDGE('',*,*,#569,.T.);
#571=CARTESIAN_POINT('',(-0.5,2.5,0.0));
#572=VERTEX_POINT('',#571);
#573=CARTESIAN_POINT('',(-0.5,2.5,0.0));
#574=DIRECTION('',(0.0,0.0,1.0));
#575=VECTOR('',#574,0.25);
#576=LINE('',#573,#575);
#577=EDGE_CURVE('',#572,#564,#576,.T.);
#578=ORIENTED_EDGE('',*,*,#577,.F.);
#579=CARTESIAN_POINT('',(-0.5,2.5,0.0));
#580=DIRECTION('',(0.0,-1.0,0.0));
#581=VECTOR('',#580,2.5);
#582=LINE('',#579,#581);
#583=EDGE_CURVE('',#572,#540,#582,.T.);
#584=ORIENTED_EDGE('',*,*,#583,.T.);
#585=ORIENTED_EDGE('',*,*,#545,.T.);
#586=EDGE_LOOP('',(#570,#578,#584,#585));
#587=FACE_OUTER_BOUND('',#586,.T.);
#588=ADVANCED_FACE('',(#587),#562,.T.);
#589=CARTESIAN_POINT('',(-0.5,2.5,0.0));
#590=DIRECTION('',(0.0,1.0,0.0));
#591=DIRECTION('',(0.0,0.0,-1.0));
#592=AXIS2_PLACEMENT_3D('',#589,#590,#591);
#593=PLANE('',#592);
#594=CARTESIAN_POINT('',(-0.5,2.5,0.25));
#595=DIRECTION('',(1.0,0.0,0.0));
#596=VECTOR('',#595,1.0);
#597=LINE('',#594,#596);
#598=EDGE_CURVE('',#564,#491,#597,.T.);
#599=ORIENTED_EDGE('',*,*,#598,.T.);
#600=ORIENTED_EDGE('',*,*,#520,.F.);
#601=CARTESIAN_POINT('',(0.5,2.5,0.0));
#602=DIRECTION('',(-1.0,0.0,0.0));
#603=VECTOR('',#602,1.0);
#604=LINE('',#601,#603);
#605=EDGE_CURVE('',#509,#572,#604,.T.);
#606=ORIENTED_EDGE('',*,*,#605,.T.);
#607=ORIENTED_EDGE('',*,*,#577,.T.);
#608=EDGE_LOOP('',(#599,#600,#606,#607));
#609=FACE_OUTER_BOUND('',#608,.T.);
#610=ADVANCED_FACE('',(#609),#593,.T.);
#611=CARTESIAN_POINT('',(1.110223E-016,0.541841888401922,0.0));
#612=DIRECTION('',(0.0,0.0,-1.0));
#613=DIRECTION('',(1.0,0.0,0.0));
#614=AXIS2_PLACEMENT_3D('',#611,#612,#613);
#615=PLANE('',#614);
#616=ORIENTED_EDGE('',*,*,#605,.F.);
#617=ORIENTED_EDGE('',*,*,#514,.F.);
#618=ORIENTED_EDGE('',*,*,#552,.F.);
#619=ORIENTED_EDGE('',*,*,#583,.F.);
#620=EDGE_LOOP('',(#616,#617,#618,#619));
#621=FACE_OUTER_BOUND('',#620,.T.);
#622=ORIENTED_EDGE('',*,*,#408,.T.);
#623=ORIENTED_EDGE('',*,*,#424,.T.);
#624=EDGE_LOOP('',(#622,#623));
#625=FACE_BOUND('',#624,.T.);
#626=ORIENTED_EDGE('',*,*,#456,.T.);
#627=ORIENTED_EDGE('',*,*,#351,.T.);
#628=EDGE_LOOP('',(#626,#627));
#629=FACE_BOUND('',#628,.T.);
#630=ORIENTED_EDGE('',*,*,#480,.T.);
#631=ORIENTED_EDGE('',*,*,#309,.T.);
#632=EDGE_LOOP('',(#630,#631));
#633=FACE_BOUND('',#632,.T.);
#634=ADVANCED_FACE('',(#621,#625,#629,#633),#615,.T.);
#635=CARTESIAN_POINT('',(0.5,2.5,0.25));
#636=DIRECTION('',(0.0,0.0,-1.0));
#637=DIRECTION('',(1.0,0.0,0.0));
#638=AXIS2_PLACEMENT_3D('',#635,#636,#637);
#639=PLANE('',#638);
#640=ORIENTED_EDGE('',*,*,#498,.F.);
#641=ORIENTED_EDGE('',*,*,#598,.F.);
#642=ORIENTED_EDGE('',*,*,#569,.F.);
#643=ORIENTED_EDGE('',*,*,#537,.F.);
#644=EDGE_LOOP('',(#640,#641,#642,#643));
#645=FACE_OUTER_BOUND('',#644,.T.);
#646=ORIENTED_EDGE('',*,*,#432,.T.);
#647=ORIENTED_EDGE('',*,*,#393,.T.);
#648=EDGE_LOOP('',(#646,#647));
#649=FACE_BOUND('',#648,.T.);
#650=ORIENTED_EDGE('',*,*,#366,.T.);
#651=ORIENTED_EDGE('',*,*,#448,.T.);
#652=EDGE_LOOP('',(#650,#651));
#653=FACE_BOUND('',#652,.T.);
#654=ORIENTED_EDGE('',*,*,#324,.T.);
#655=ORIENTED_EDGE('',*,*,#472,.T.);
#656=EDGE_LOOP('',(#654,#655));
#657=FACE_BOUND('',#656,.T.);
#658=ADVANCED_FACE('',(#645,#649,#653,#657),#639,.F.);
#659=CLOSED_SHELL('',(#328,#370,#412,#436,#460,#484,#524,#557,#588,#610,#634,#658));
#660=MANIFOLD_SOLID_BREP('46A',#659);
#661=ADVANCED_BREP_SHAPE_REPRESENTATION('ABSR1',(#286,#660),#28);
#662=SHAPE_REPRESENTATION_RELATIONSHIP('SRRPL1','',#661,#122);
ENDSEC;
END-ISO-10303-21;
