ISO-10303-21;
HEADER;
/****************************************************************
 * Generated by software with PDElib inside                    *
 * PDElib Version v51a, created Fri 09/10/2010                  *
 * ITI Transcendata (http://www.transcendata.com/)              *
 ****************************************************************/
FILE_DESCRIPTION((''),'2;1');
FILE_NAME('10CB4102.stp','2015-07-07T13:00:02',(''),(''),'Mechanical Desktop 2011','Mechanical Desktop 2011',', , ');
FILE_SCHEMA(('AUTOMOTIVE_DESIGN { 1 2 10303 214 1 1 1 1 }'));
ENDSEC;
DATA;
#10=(NAMED_UNIT(*)PLANE_ANGLE_UNIT()SI_UNIT($,.RADIAN.));
#11=DIMENSIONAL_EXPONENTS(0.0,0.0,0.0,0.0,0.0,0.0,0.0);
#12=PLANE_ANGLE_MEASURE_WITH_UNIT(PLANE_ANGLE_MEASURE(0.0174532925),#10);
#16=(CONVERSION_BASED_UNIT('DEGREE',#12)NAMED_UNIT(#11)PLANE_ANGLE_UNIT());
#20=(NAMED_UNIT(*)SI_UNIT($,.STERADIAN.)SOLID_ANGLE_UNIT());
#24=(LENGTH_UNIT()NAMED_UNIT(*)SI_UNIT(.CENTI.,.METRE.));
#25=DIMENSIONAL_EXPONENTS(1.0,0.0,0.0,0.0,0.0,0.0,0.0);
#26=LENGTH_MEASURE_WITH_UNIT(LENGTH_MEASURE(2.54),#24);
#30=(CONVERSION_BASED_UNIT('INCH',#26)LENGTH_UNIT()NAMED_UNIT(#25));
#32=UNCERTAINTY_MEASURE_WITH_UNIT(LENGTH_MEASURE(0.000001),#30,'DISTANCE_ACCURACY_VALUE','');
#34=(GEOMETRIC_REPRESENTATION_CONTEXT(3)GLOBAL_UNCERTAINTY_ASSIGNED_CONTEXT((#32))GLOBAL_UNIT_ASSIGNED_CONTEXT((#16,#20,#30))REPRESENTATION_CONTEXT('','3D'));
#35=APPLICATION_CONTEXT('automotive design');
#36=APPLICATION_PROTOCOL_DEFINITION('INTERNATIONAL_STANDARD','automotive_design',1998,#35);
#37=PRODUCT_CONTEXT('3D Mechanical Parts',#35,'mechanical');
#38=PRODUCT('Product','Product','',(#37));
#39=PRODUCT_RELATED_PRODUCT_CATEGORY('part',$,(#38));
#40=PRODUCT_CATEGORY('part',$);
#41=PERSON('1','Design','Joe',$,$,$);
#42=ORGANIZATION($,'None','None');
#43=PERSON_AND_ORGANIZATION(#41,#42);
#44=PERSON_AND_ORGANIZATION_ROLE('design_owner');
#45=APPLIED_PERSON_AND_ORGANIZATION_ASSIGNMENT(#43,#44,(#38));
#46=PRODUCT_DEFINITION_FORMATION_WITH_SPECIFIED_SOURCE('None','',#38,.BOUGHT.);
#47=PERSON('2','Creator','Joe',$,$,$);
#48=ORGANIZATION($,'None','None');
#49=PERSON_AND_ORGANIZATION(#47,#48);
#50=PERSON_AND_ORGANIZATION_ROLE('creator');
#51=APPLIED_PERSON_AND_ORGANIZATION_ASSIGNMENT(#49,#50,(#46));
#52=PERSON('3','Supplier','Joe',$,$,$);
#53=ORGANIZATION($,'None','None');
#54=PERSON_AND_ORGANIZATION(#52,#53);
#55=PERSON_AND_ORGANIZATION_ROLE('design_supplier');
#56=APPLIED_PERSON_AND_ORGANIZATION_ASSIGNMENT(#54,#55,(#46));
#57=PRODUCT_DEFINITION_CONTEXT('part definition',#35,'design');
#58=PRODUCT_DEFINITION('None','',#46,#57);
#59=PERSON('4','Creator','Joe',$,$,$);
#60=ORGANIZATION($,'None','None');
#61=PERSON_AND_ORGANIZATION(#59,#60);
#62=PERSON_AND_ORGANIZATION_ROLE('creator');
#63=APPLIED_PERSON_AND_ORGANIZATION_ASSIGNMENT(#61,#62,(#58));
#64=CARTESIAN_POINT('NONE',(0.0,0.0,0.0));
#65=DIRECTION('NONE',(0.0,0.0,1.0));
#66=DIRECTION('NONE',(1.0,0.0,0.0));
#67=AXIS2_PLACEMENT_3D('NONE',#64,#65,#66);
#68=SHAPE_REPRESENTATION('SR1',(#67),#34);
#69=PRODUCT_DEFINITION_SHAPE('PDS1','Test Part',#58);
#70=SHAPE_DEFINITION_REPRESENTATION(#69,#68);
#71=CARTESIAN_POINT('',(-2.775558E-016,-0.0976745,1.5));
#72=DIRECTION('',(-1.608143E-016,1.0,-8.410698E-017));
#73=DIRECTION('',(-1.0,0.0,0.0));
#74=AXIS2_PLACEMENT_3D('',#71,#72,#73);
#75=CYLINDRICAL_SURFACE('',#74,0.140625);
#76=CARTESIAN_POINT('',(-0.140625,-0.188,1.5));
#77=VERTEX_POINT('',#76);
#78=CARTESIAN_POINT('',(-0.140625,4.440892E-016,1.5));
#79=VERTEX_POINT('',#78);
#80=CARTESIAN_POINT('',(-0.140625,-0.188,1.5));
#81=DIRECTION('',(0.0,1.0,0.0));
#82=VECTOR('',#81,0.188);
#83=LINE('',#80,#82);
#84=EDGE_CURVE('',#77,#79,#83,.T.);
#85=ORIENTED_EDGE('',*,*,#84,.F.);
#86=CARTESIAN_POINT('',(0.140625,-0.188,1.500000000000001));
#87=VERTEX_POINT('',#86);
#88=CARTESIAN_POINT('',(-2.220446E-016,-0.188,1.5));
#89=DIRECTION('',(0.0,1.0,0.0));
#90=DIRECTION('',(-1.0,0.0,0.0));
#91=AXIS2_PLACEMENT_3D('',#88,#89,#90);
#92=CIRCLE('',#91,0.140625);
#93=EDGE_CURVE('',#87,#77,#92,.T.);
#94=ORIENTED_EDGE('',*,*,#93,.F.);
#95=CARTESIAN_POINT('',(0.140625,9.159340E-016,1.5));
#96=VERTEX_POINT('',#95);
#97=CARTESIAN_POINT('',(0.140625,-0.187999999999999,1.5));
#98=DIRECTION('',(0.0,1.0,0.0));
#99=VECTOR('',#98,0.188);
#100=LINE('',#97,#99);
#101=EDGE_CURVE('',#87,#96,#100,.T.);
#102=ORIENTED_EDGE('',*,*,#101,.T.);
#103=CARTESIAN_POINT('',(-2.775558E-016,8.881784E-016,1.5));
#104=DIRECTION('',(0.0,-1.0,0.0));
#105=DIRECTION('',(-1.0,0.0,0.0));
#106=AXIS2_PLACEMENT_3D('',#103,#104,#105);
#107=CIRCLE('',#106,0.140625);
#108=EDGE_CURVE('',#79,#96,#107,.T.);
#109=ORIENTED_EDGE('',*,*,#108,.F.);
#110=EDGE_LOOP('',(#85,#94,#102,#109));
#111=FACE_OUTER_BOUND('',#110,.T.);
#112=ADVANCED_FACE('',(#111),#75,.F.);
#113=CARTESIAN_POINT('',(-5.551115E-017,-0.0976745,0.5));
#114=DIRECTION('',(-1.608143E-016,1.0,-8.410698E-017));
#115=DIRECTION('',(-1.0,0.0,0.0));
#116=AXIS2_PLACEMENT_3D('',#113,#114,#115);
#117=CYLINDRICAL_SURFACE('',#116,0.140625);
#118=CARTESIAN_POINT('',(-0.140625,-0.188,0.5));
#119=VERTEX_POINT('',#118);
#120=CARTESIAN_POINT('',(-0.140625,1.110223E-016,0.5));
#121=VERTEX_POINT('',#120);
#122=CARTESIAN_POINT('',(-0.140625,-0.188,0.5));
#123=DIRECTION('',(0.0,1.0,0.0));
#124=VECTOR('',#123,0.188);
#125=LINE('',#122,#124);
#126=EDGE_CURVE('',#119,#121,#125,.T.);
#127=ORIENTED_EDGE('',*,*,#126,.F.);
#128=CARTESIAN_POINT('',(0.140625,-0.188,0.500000000000001));
#129=VERTEX_POINT('',#128);
#130=CARTESIAN_POINT('',(0.0,-0.188,0.5));
#131=DIRECTION('',(0.0,1.0,0.0));
#132=DIRECTION('',(-1.0,0.0,0.0));
#133=AXIS2_PLACEMENT_3D('',#130,#131,#132);
#134=CIRCLE('',#133,0.140625);
#135=EDGE_CURVE('',#129,#119,#134,.T.);
#136=ORIENTED_EDGE('',*,*,#135,.F.);
#137=CARTESIAN_POINT('',(0.140625,9.159340E-016,0.5));
#138=VERTEX_POINT('',#137);
#139=CARTESIAN_POINT('',(0.140625,-0.188,0.5));
#140=DIRECTION('',(0.0,1.0,0.0));
#141=VECTOR('',#140,0.188000000000001);
#142=LINE('',#139,#141);
#143=EDGE_CURVE('',#129,#138,#142,.T.);
#144=ORIENTED_EDGE('',*,*,#143,.T.);
#145=CARTESIAN_POINT('',(-5.551115E-017,8.881784E-016,0.5));
#146=DIRECTION('',(0.0,-1.0,0.0));
#147=DIRECTION('',(-1.0,0.0,0.0));
#148=AXIS2_PLACEMENT_3D('',#145,#146,#147);
#149=CIRCLE('',#148,0.140625);
#150=EDGE_CURVE('',#121,#138,#149,.T.);
#151=ORIENTED_EDGE('',*,*,#150,.F.);
#152=EDGE_LOOP('',(#127,#136,#144,#151));
#153=FACE_OUTER_BOUND('',#152,.T.);
#154=ADVANCED_FACE('',(#153),#117,.F.);
#155=CARTESIAN_POINT('',(1.665335E-016,-0.5,0.0976745));
#156=DIRECTION('',(5.319638E-016,3.061516E-016,1.0));
#157=DIRECTION('',(0.0,-1.0,0.0));
#158=AXIS2_PLACEMENT_3D('',#155,#156,#157);
#159=CYLINDRICAL_SURFACE('',#158,0.140625);
#160=CARTESIAN_POINT('',(1.110223E-016,-0.640625,0.0));
#161=VERTEX_POINT('',#160);
#162=CARTESIAN_POINT('',(2.059728E-016,-0.640625,0.187999999999999));
#163=VERTEX_POINT('',#162);
#164=CARTESIAN_POINT('',(1.059636E-016,-0.640625,0.0));
#165=DIRECTION('',(0.0,0.0,1.0));
#166=VECTOR('',#165,0.187999999999999);
#167=LINE('',#164,#166);
#168=EDGE_CURVE('',#161,#163,#167,.T.);
#169=ORIENTED_EDGE('',*,*,#168,.F.);
#170=CARTESIAN_POINT('',(1.059631E-016,-0.359375,-2.636780E-016));
#171=VERTEX_POINT('',#170);
#172=CARTESIAN_POINT('',(1.665335E-016,-0.5,-2.220446E-016));
#173=DIRECTION('',(0.0,0.0,1.0));
#174=DIRECTION('',(0.0,-1.0,0.0));
#175=AXIS2_PLACEMENT_3D('',#172,#173,#174);
#176=CIRCLE('',#175,0.140625);
#177=EDGE_CURVE('',#171,#161,#176,.T.);
#178=ORIENTED_EDGE('',*,*,#177,.F.);
#179=CARTESIAN_POINT('',(-8.326673E-016,-0.359375,0.187999999999999));
#180=VERTEX_POINT('',#179);
#181=CARTESIAN_POINT('',(1.059631E-016,-0.359375,-2.636780E-016));
#182=DIRECTION('',(0.0,0.0,1.0));
#183=VECTOR('',#182,0.188);
#184=LINE('',#181,#183);
#185=EDGE_CURVE('',#171,#180,#184,.T.);
#186=ORIENTED_EDGE('',*,*,#185,.T.);
#187=CARTESIAN_POINT('',(1.110223E-016,-0.5,0.187999999999999));
#188=DIRECTION('',(0.0,0.0,-1.0));
#189=DIRECTION('',(0.0,-1.0,0.0));
#190=AXIS2_PLACEMENT_3D('',#187,#188,#189);
#191=CIRCLE('',#190,0.140625);
#192=EDGE_CURVE('',#163,#180,#191,.T.);
#193=ORIENTED_EDGE('',*,*,#192,.F.);
#194=EDGE_LOOP('',(#169,#178,#186,#193));
#195=FACE_OUTER_BOUND('',#194,.T.);
#196=ADVANCED_FACE('',(#195),#159,.F.);
#197=CARTESIAN_POINT('',(1.665335E-016,-0.5,0.0976745));
#198=DIRECTION('',(5.319638E-016,3.061516E-016,1.0));
#199=DIRECTION('',(0.0,-1.0,0.0));
#200=AXIS2_PLACEMENT_3D('',#197,#198,#199);
#201=CYLINDRICAL_SURFACE('',#200,0.140625);
#202=ORIENTED_EDGE('',*,*,#168,.T.);
#203=CARTESIAN_POINT('',(1.110223E-016,-0.5,0.187999999999999));
#204=DIRECTION('',(0.0,0.0,-1.0));
#205=DIRECTION('',(0.0,-1.0,0.0));
#206=AXIS2_PLACEMENT_3D('',#203,#204,#205);
#207=CIRCLE('',#206,0.140625);
#208=EDGE_CURVE('',#180,#163,#207,.T.);
#209=ORIENTED_EDGE('',*,*,#208,.F.);
#210=ORIENTED_EDGE('',*,*,#185,.F.);
#211=CARTESIAN_POINT('',(1.665335E-016,-0.5,-2.220446E-016));
#212=DIRECTION('',(0.0,0.0,1.0));
#213=DIRECTION('',(0.0,-1.0,0.0));
#214=AXIS2_PLACEMENT_3D('',#211,#212,#213);
#215=CIRCLE('',#214,0.140625);
#216=EDGE_CURVE('',#161,#171,#215,.T.);
#217=ORIENTED_EDGE('',*,*,#216,.F.);
#218=EDGE_LOOP('',(#202,#209,#210,#217));
#219=FACE_OUTER_BOUND('',#218,.T.);
#220=ADVANCED_FACE('',(#219),#201,.F.);
#221=CARTESIAN_POINT('',(-5.551115E-017,-0.0976745,0.5));
#222=DIRECTION('',(-1.608143E-016,1.0,-8.410698E-017));
#223=DIRECTION('',(-1.0,0.0,0.0));
#224=AXIS2_PLACEMENT_3D('',#221,#222,#223);
#225=CYLINDRICAL_SURFACE('',#224,0.140625);
#226=ORIENTED_EDGE('',*,*,#126,.T.);
#227=CARTESIAN_POINT('',(-5.551115E-017,8.881784E-016,0.5));
#228=DIRECTION('',(0.0,-1.0,0.0));
#229=DIRECTION('',(-1.0,0.0,0.0));
#230=AXIS2_PLACEMENT_3D('',#227,#228,#229);
#231=CIRCLE('',#230,0.140625);
#232=EDGE_CURVE('',#138,#121,#231,.T.);
#233=ORIENTED_EDGE('',*,*,#232,.F.);
#234=ORIENTED_EDGE('',*,*,#143,.F.);
#235=CARTESIAN_POINT('',(0.0,-0.188,0.5));
#236=DIRECTION('',(0.0,1.0,0.0));
#237=DIRECTION('',(-1.0,0.0,0.0));
#238=AXIS2_PLACEMENT_3D('',#235,#236,#237);
#239=CIRCLE('',#238,0.140625);
#240=EDGE_CURVE('',#119,#129,#239,.T.);
#241=ORIENTED_EDGE('',*,*,#240,.F.);
#242=EDGE_LOOP('',(#226,#233,#234,#241));
#243=FACE_OUTER_BOUND('',#242,.T.);
#244=ADVANCED_FACE('',(#243),#225,.F.);
#245=CARTESIAN_POINT('',(-2.775558E-016,-0.0976745,1.5));
#246=DIRECTION('',(-1.608143E-016,1.0,-8.410698E-017));
#247=DIRECTION('',(-1.0,0.0,0.0));
#248=AXIS2_PLACEMENT_3D('',#245,#246,#247);
#249=CYLINDRICAL_SURFACE('',#248,0.140625);
#250=ORIENTED_EDGE('',*,*,#84,.T.);
#251=CARTESIAN_POINT('',(-2.775558E-016,8.881784E-016,1.5));
#252=DIRECTION('',(0.0,-1.0,0.0));
#253=DIRECTION('',(-1.0,0.0,0.0));
#254=AXIS2_PLACEMENT_3D('',#251,#252,#253);
#255=CIRCLE('',#254,0.140625);
#256=EDGE_CURVE('',#96,#79,#255,.T.);
#257=ORIENTED_EDGE('',*,*,#256,.F.);
#258=ORIENTED_EDGE('',*,*,#101,.F.);
#259=CARTESIAN_POINT('',(-2.220446E-016,-0.188,1.5));
#260=DIRECTION('',(0.0,1.0,0.0));
#261=DIRECTION('',(-1.0,0.0,0.0));
#262=AXIS2_PLACEMENT_3D('',#259,#260,#261);
#263=CIRCLE('',#262,0.140625);
#264=EDGE_CURVE('',#77,#87,#263,.T.);
#265=ORIENTED_EDGE('',*,*,#264,.F.);
#266=EDGE_LOOP('',(#250,#257,#258,#265));
#267=FACE_OUTER_BOUND('',#266,.T.);
#268=ADVANCED_FACE('',(#267),#249,.F.);
#269=CARTESIAN_POINT('',(-0.4375,-0.812,-4.440892E-016));
#270=DIRECTION('',(1.0,1.608143E-016,2.220446E-016));
#271=DIRECTION('',(-4.329637E-017,-0.707106781186546,0.707106781186549));
#272=AXIS2_PLACEMENT_3D('',#269,#270,#271);
#273=CYLINDRICAL_SURFACE('',#272,0.188);
#274=CARTESIAN_POINT('',(0.4375,-1.0,2.220446E-016));
#275=VERTEX_POINT('',#274);
#276=CARTESIAN_POINT('',(0.4375,-0.812,0.188));
#277=VERTEX_POINT('',#276);
#278=CARTESIAN_POINT('',(0.4375,-0.812,-2.220446E-016));
#279=DIRECTION('',(-1.0,1.416375E-016,-1.416375E-016));
#280=DIRECTION('',(-2.003056E-016,-0.707106781186546,0.707106781186549));
#281=AXIS2_PLACEMENT_3D('',#278,#279,#280);
#282=CIRCLE('',#281,0.188);
#283=EDGE_CURVE('',#275,#277,#282,.T.);
#284=ORIENTED_EDGE('',*,*,#283,.T.);
#285=CARTESIAN_POINT('',(-0.4375,-0.812,0.188));
#286=VERTEX_POINT('',#285);
#287=CARTESIAN_POINT('',(-0.4375,-0.812,0.188));
#288=DIRECTION('',(1.0,0.0,0.0));
#289=VECTOR('',#288,0.875);
#290=LINE('',#287,#289);
#291=EDGE_CURVE('',#286,#277,#290,.T.);
#292=ORIENTED_EDGE('',*,*,#291,.F.);
#293=CARTESIAN_POINT('',(-0.4375,-1.0,0.0));
#294=VERTEX_POINT('',#293);
#295=CARTESIAN_POINT('',(-0.4375,-0.812,-4.440892E-016));
#296=DIRECTION('',(1.0,-1.416375E-016,1.416375E-016));
#297=DIRECTION('',(-2.003056E-016,-0.707106781186546,0.707106781186549));
#298=AXIS2_PLACEMENT_3D('',#295,#296,#297);
#299=CIRCLE('',#298,0.188);
#300=EDGE_CURVE('',#286,#294,#299,.T.);
#301=ORIENTED_EDGE('',*,*,#300,.T.);
#302=CARTESIAN_POINT('',(-0.4375,-1.0,0.0));
#303=DIRECTION('',(1.0,0.0,0.0));
#304=VECTOR('',#303,0.875);
#305=LINE('',#302,#304);
#306=EDGE_CURVE('',#294,#275,#305,.T.);
#307=ORIENTED_EDGE('',*,*,#306,.T.);
#308=EDGE_LOOP('',(#284,#292,#301,#307));
#309=FACE_OUTER_BOUND('',#308,.T.);
#310=ADVANCED_FACE('',(#309),#273,.T.);
#311=CARTESIAN_POINT('',(-0.4375,-0.812,0.188));
#312=DIRECTION('',(0.0,0.0,1.0));
#313=DIRECTION('',(0.0,1.0,0.0));
#314=AXIS2_PLACEMENT_3D('',#311,#312,#313);
#315=PLANE('',#314);
#316=CARTESIAN_POINT('',(0.4375,-0.313,0.188));
#317=VERTEX_POINT('',#316);
#318=CARTESIAN_POINT('',(0.4375,-0.812,0.188));
#319=DIRECTION('',(0.0,1.0,0.0));
#320=VECTOR('',#319,0.499);
#321=LINE('',#318,#320);
#322=EDGE_CURVE('',#277,#317,#321,.T.);
#323=ORIENTED_EDGE('',*,*,#322,.T.);
#324=CARTESIAN_POINT('',(-0.4375,-0.313,0.188));
#325=VERTEX_POINT('',#324);
#326=CARTESIAN_POINT('',(-0.4375,-0.313,0.188));
#327=DIRECTION('',(1.0,0.0,0.0));
#328=VECTOR('',#327,0.875);
#329=LINE('',#326,#328);
#330=EDGE_CURVE('',#325,#317,#329,.T.);
#331=ORIENTED_EDGE('',*,*,#330,.F.);
#332=CARTESIAN_POINT('',(-0.4375,-0.313,0.188));
#333=DIRECTION('',(0.0,-1.0,0.0));
#334=VECTOR('',#333,0.499);
#335=LINE('',#332,#334);
#336=EDGE_CURVE('',#325,#286,#335,.T.);
#337=ORIENTED_EDGE('',*,*,#336,.T.);
#338=ORIENTED_EDGE('',*,*,#291,.T.);
#339=EDGE_LOOP('',(#323,#331,#337,#338));
#340=FACE_OUTER_BOUND('',#339,.T.);
#341=ORIENTED_EDGE('',*,*,#208,.T.);
#342=ORIENTED_EDGE('',*,*,#192,.T.);
#343=EDGE_LOOP('',(#341,#342));
#344=FACE_BOUND('',#343,.T.);
#345=ADVANCED_FACE('',(#340,#344),#315,.T.);
#346=CARTESIAN_POINT('',(-0.4375,-0.313,0.313));
#347=DIRECTION('',(1.0,1.608143E-016,2.220446E-016));
#348=DIRECTION('',(4.329637E-017,0.707106781186547,-0.707106781186548));
#349=AXIS2_PLACEMENT_3D('',#346,#347,#348);
#350=CYLINDRICAL_SURFACE('',#349,0.125);
#351=CARTESIAN_POINT('',(0.4375,-0.188,0.313));
#352=VERTEX_POINT('',#351);
#353=CARTESIAN_POINT('',(0.4375,-0.313,0.313));
#354=DIRECTION('',(1.0,-1.416375E-016,1.416375E-016));
#355=DIRECTION('',(2.003056E-016,0.707106781186547,-0.707106781186548));
#356=AXIS2_PLACEMENT_3D('',#353,#354,#355);
#357=CIRCLE('',#356,0.125);
#358=EDGE_CURVE('',#317,#352,#357,.T.);
#359=ORIENTED_EDGE('',*,*,#358,.T.);
#360=CARTESIAN_POINT('',(-0.4375,-0.188,0.313));
#361=VERTEX_POINT('',#360);
#362=CARTESIAN_POINT('',(-0.4375,-0.188,0.313));
#363=DIRECTION('',(1.0,0.0,0.0));
#364=VECTOR('',#363,0.875);
#365=LINE('',#362,#364);
#366=EDGE_CURVE('',#361,#352,#365,.T.);
#367=ORIENTED_EDGE('',*,*,#366,.F.);
#368=CARTESIAN_POINT('',(-0.4375,-0.313,0.313));
#369=DIRECTION('',(-1.0,1.416375E-016,-1.416375E-016));
#370=DIRECTION('',(2.003056E-016,0.707106781186547,-0.707106781186548));
#371=AXIS2_PLACEMENT_3D('',#368,#369,#370);
#372=CIRCLE('',#371,0.125);
#373=EDGE_CURVE('',#361,#325,#372,.T.);
#374=ORIENTED_EDGE('',*,*,#373,.T.);
#375=ORIENTED_EDGE('',*,*,#330,.T.);
#376=EDGE_LOOP('',(#359,#367,#374,#375));
#377=FACE_OUTER_BOUND('',#376,.T.);
#378=ADVANCED_FACE('',(#377),#350,.F.);
#379=CARTESIAN_POINT('',(-0.4375,-0.188,0.313));
#380=DIRECTION('',(0.0,-1.0,0.0));
#381=DIRECTION('',(0.0,0.0,1.0));
#382=AXIS2_PLACEMENT_3D('',#379,#380,#381);
#383=PLANE('',#382);
#384=CARTESIAN_POINT('',(0.4375,-0.187999999999999,1.812));
#385=VERTEX_POINT('',#384);
#386=CARTESIAN_POINT('',(0.4375,-0.188,0.313));
#387=DIRECTION('',(0.0,0.0,1.0));
#388=VECTOR('',#387,1.499000000000001);
#389=LINE('',#386,#388);
#390=EDGE_CURVE('',#352,#385,#389,.T.);
#391=ORIENTED_EDGE('',*,*,#390,.T.);
#392=CARTESIAN_POINT('',(-0.4375,-0.187999999999999,1.812));
#393=VERTEX_POINT('',#392);
#394=CARTESIAN_POINT('',(-0.4375,-0.187999999999999,1.812));
#395=DIRECTION('',(1.0,0.0,0.0));
#396=VECTOR('',#395,0.875);
#397=LINE('',#394,#396);
#398=EDGE_CURVE('',#393,#385,#397,.T.);
#399=ORIENTED_EDGE('',*,*,#398,.F.);
#400=CARTESIAN_POINT('',(-0.4375,-0.187999999999999,1.812));
#401=DIRECTION('',(0.0,0.0,-1.0));
#402=VECTOR('',#401,1.499000000000001);
#403=LINE('',#400,#402);
#404=EDGE_CURVE('',#393,#361,#403,.T.);
#405=ORIENTED_EDGE('',*,*,#404,.T.);
#406=ORIENTED_EDGE('',*,*,#366,.T.);
#407=EDGE_LOOP('',(#391,#399,#405,#406));
#408=FACE_OUTER_BOUND('',#407,.T.);
#409=ORIENTED_EDGE('',*,*,#135,.T.);
#410=ORIENTED_EDGE('',*,*,#240,.T.);
#411=EDGE_LOOP('',(#409,#410));
#412=FACE_BOUND('',#411,.T.);
#413=ORIENTED_EDGE('',*,*,#93,.T.);
#414=ORIENTED_EDGE('',*,*,#264,.T.);
#415=EDGE_LOOP('',(#413,#414));
#416=FACE_BOUND('',#415,.T.);
#417=ADVANCED_FACE('',(#408,#412,#416),#383,.T.);
#418=CARTESIAN_POINT('',(-0.4375,8.881784E-016,1.812));
#419=DIRECTION('',(1.0,1.608143E-016,2.220446E-016));
#420=DIRECTION('',(-4.329637E-017,-0.707106781186547,0.707106781186548));
#421=AXIS2_PLACEMENT_3D('',#418,#419,#420);
#422=CYLINDRICAL_SURFACE('',#421,0.188);
#423=CARTESIAN_POINT('',(0.437499999999999,1.332268E-015,2.0));
#424=VERTEX_POINT('',#423);
#425=CARTESIAN_POINT('',(0.4375,8.881784E-016,1.812));
#426=DIRECTION('',(-1.0,1.416375E-016,-1.416375E-016));
#427=DIRECTION('',(-2.003056E-016,-0.707106781186547,0.707106781186548));
#428=AXIS2_PLACEMENT_3D('',#425,#426,#427);
#429=CIRCLE('',#428,0.188);
#430=EDGE_CURVE('',#385,#424,#429,.T.);
#431=ORIENTED_EDGE('',*,*,#430,.T.);
#432=CARTESIAN_POINT('',(-0.4375,1.110223E-015,2.0));
#433=VERTEX_POINT('',#432);
#434=CARTESIAN_POINT('',(-0.4375,1.110223E-015,2.0));
#435=DIRECTION('',(1.0,0.0,0.0));
#436=VECTOR('',#435,0.874999999999999);
#437=LINE('',#434,#436);
#438=EDGE_CURVE('',#433,#424,#437,.T.);
#439=ORIENTED_EDGE('',*,*,#438,.F.);
#440=CARTESIAN_POINT('',(-0.4375,8.881784E-016,1.812));
#441=DIRECTION('',(1.0,-1.416375E-016,1.416375E-016));
#442=DIRECTION('',(-2.003056E-016,-0.707106781186547,0.707106781186548));
#443=AXIS2_PLACEMENT_3D('',#440,#441,#442);
#444=CIRCLE('',#443,0.188);
#445=EDGE_CURVE('',#433,#393,#444,.T.);
#446=ORIENTED_EDGE('',*,*,#445,.T.);
#447=ORIENTED_EDGE('',*,*,#398,.T.);
#448=EDGE_LOOP('',(#431,#439,#446,#447));
#449=FACE_OUTER_BOUND('',#448,.T.);
#450=ADVANCED_FACE('',(#449),#422,.T.);
#451=CARTESIAN_POINT('',(-0.4375,1.110223E-015,2.0));
#452=DIRECTION('',(0.0,1.0,0.0));
#453=DIRECTION('',(0.0,0.0,-1.0));
#454=AXIS2_PLACEMENT_3D('',#451,#452,#453);
#455=PLANE('',#454);
#456=CARTESIAN_POINT('',(0.4375,1.110223E-016,0.0));
#457=VERTEX_POINT('',#456);
#458=CARTESIAN_POINT('',(0.4375,1.167415E-015,2.0));
#459=DIRECTION('',(0.0,0.0,-1.0));
#460=VECTOR('',#459,2.0);
#461=LINE('',#458,#460);
#462=EDGE_CURVE('',#424,#457,#461,.T.);
#463=ORIENTED_EDGE('',*,*,#462,.T.);
#464=CARTESIAN_POINT('',(-0.4375,-1.110223E-016,-2.220446E-016));
#465=VERTEX_POINT('',#464);
#466=CARTESIAN_POINT('',(-0.4375,-1.110223E-016,-2.220446E-016));
#467=DIRECTION('',(1.0,0.0,0.0));
#468=VECTOR('',#467,0.874999999999999);
#469=LINE('',#466,#468);
#470=EDGE_CURVE('',#465,#457,#469,.T.);
#471=ORIENTED_EDGE('',*,*,#470,.F.);
#472=CARTESIAN_POINT('',(-0.4375,-1.110223E-016,-2.220446E-016));
#473=DIRECTION('',(0.0,0.0,1.0));
#474=VECTOR('',#473,2.0);
#475=LINE('',#472,#474);
#476=EDGE_CURVE('',#465,#433,#475,.T.);
#477=ORIENTED_EDGE('',*,*,#476,.T.);
#478=ORIENTED_EDGE('',*,*,#438,.T.);
#479=EDGE_LOOP('',(#463,#471,#477,#478));
#480=FACE_OUTER_BOUND('',#479,.T.);
#481=ORIENTED_EDGE('',*,*,#150,.T.);
#482=ORIENTED_EDGE('',*,*,#232,.T.);
#483=EDGE_LOOP('',(#481,#482));
#484=FACE_BOUND('',#483,.T.);
#485=ORIENTED_EDGE('',*,*,#108,.T.);
#486=ORIENTED_EDGE('',*,*,#256,.T.);
#487=EDGE_LOOP('',(#485,#486));
#488=FACE_BOUND('',#487,.T.);
#489=ADVANCED_FACE('',(#480,#484,#488),#455,.T.);
#490=CARTESIAN_POINT('',(-0.4375,-1.110223E-016,-2.220446E-016));
#491=DIRECTION('',(0.0,0.0,-1.0));
#492=DIRECTION('',(0.0,-1.0,0.0));
#493=AXIS2_PLACEMENT_3D('',#490,#491,#492);
#494=PLANE('',#493);
#495=CARTESIAN_POINT('',(0.4375,1.110223E-016,-8.410698E-017));
#496=DIRECTION('',(0.0,-1.0,0.0));
#497=VECTOR('',#496,1.0);
#498=LINE('',#495,#497);
#499=EDGE_CURVE('',#457,#275,#498,.T.);
#500=ORIENTED_EDGE('',*,*,#499,.T.);
#501=ORIENTED_EDGE('',*,*,#306,.F.);
#502=CARTESIAN_POINT('',(-0.4375,-1.0,0.0));
#503=DIRECTION('',(0.0,1.0,0.0));
#504=VECTOR('',#503,1.0);
#505=LINE('',#502,#504);
#506=EDGE_CURVE('',#294,#465,#505,.T.);
#507=ORIENTED_EDGE('',*,*,#506,.T.);
#508=ORIENTED_EDGE('',*,*,#470,.T.);
#509=EDGE_LOOP('',(#500,#501,#507,#508));
#510=FACE_OUTER_BOUND('',#509,.T.);
#511=ORIENTED_EDGE('',*,*,#216,.T.);
#512=ORIENTED_EDGE('',*,*,#177,.T.);
#513=EDGE_LOOP('',(#511,#512));
#514=FACE_BOUND('',#513,.T.);
#515=ADVANCED_FACE('',(#510,#514),#494,.T.);
#516=CARTESIAN_POINT('',(-0.4375,-0.380348380207782,0.680348380207782));
#517=DIRECTION('',(-1.0,0.0,0.0));
#518=DIRECTION('',(0.0,-1.0,0.0));
#519=AXIS2_PLACEMENT_3D('',#516,#517,#518);
#520=PLANE('',#519);
#521=ORIENTED_EDGE('',*,*,#506,.F.);
#522=ORIENTED_EDGE('',*,*,#300,.F.);
#523=ORIENTED_EDGE('',*,*,#336,.F.);
#524=ORIENTED_EDGE('',*,*,#373,.F.);
#525=ORIENTED_EDGE('',*,*,#404,.F.);
#526=ORIENTED_EDGE('',*,*,#445,.F.);
#527=ORIENTED_EDGE('',*,*,#476,.F.);
#528=EDGE_LOOP('',(#521,#522,#523,#524,#525,#526,#527));
#529=FACE_OUTER_BOUND('',#528,.T.);
#530=ADVANCED_FACE('',(#529),#520,.T.);
#531=CARTESIAN_POINT('',(0.4375,-1.0,2.220446E-016));
#532=DIRECTION('',(-1.0,0.0,0.0));
#533=DIRECTION('',(0.0,-1.0,0.0));
#534=AXIS2_PLACEMENT_3D('',#531,#532,#533);
#535=PLANE('',#534);
#536=ORIENTED_EDGE('',*,*,#283,.F.);
#537=ORIENTED_EDGE('',*,*,#499,.F.);
#538=ORIENTED_EDGE('',*,*,#462,.F.);
#539=ORIENTED_EDGE('',*,*,#430,.F.);
#540=ORIENTED_EDGE('',*,*,#390,.F.);
#541=ORIENTED_EDGE('',*,*,#358,.F.);
#542=ORIENTED_EDGE('',*,*,#322,.F.);
#543=EDGE_LOOP('',(#536,#537,#538,#539,#540,#541,#542));
#544=FACE_OUTER_BOUND('',#543,.T.);
#545=ADVANCED_FACE('',(#544),#535,.F.);
#546=CLOSED_SHELL('',(#112,#154,#196,#220,#244,#268,#310,#345,#378,#417,#450,#489,#515,#530,#545));
#547=MANIFOLD_SOLID_BREP('30',#546);
#548=DRAUGHTING_PRE_DEFINED_COLOUR('white');
#549=SURFACE_STYLE_USAGE(.BOTH.,#550);
#550=SURFACE_SIDE_STYLE('NONE',(#551));
#551=SURFACE_STYLE_FILL_AREA(#552);
#552=FILL_AREA_STYLE('NONE',(#553));
#553=FILL_AREA_STYLE_COLOUR('NONE',#548);
#554=PRESENTATION_STYLE_ASSIGNMENT((#549));
#555=STYLED_ITEM('NONE',(#554),#547);
#556=MECHANICAL_DESIGN_GEOMETRIC_PRESENTATION_REPRESENTATION('NONE',(#555),#34);
#557=PRESENTATION_LAYER_ASSIGNMENT('10cb4102','None',(#547));
#558=ADVANCED_BREP_SHAPE_REPRESENTATION('ABSR1',(#547),#34);
#559=SHAPE_REPRESENTATION_RELATIONSHIP('SRRPL1','',#558,#68);
ENDSEC;
END-ISO-10303-21;
