ISO-10303-21;
HEADER;
/****************************************************************
 * Generated by software with PDElib inside                    *
 * PDElib Version v51a, created Fri 09/10/2010                  *
 * ITI Transcendata (http://www.transcendata.com/)              *
 ****************************************************************/
FILE_DESCRIPTION((''),'2;1');
FILE_NAME('10CB4100.stp','2015-07-07T12:54:25',(''),(''),'Mechanical Desktop 2011','Mechanical Desktop 2011',', , ');
FILE_SCHEMA(('CONFIG_CONTROL_DESIGN'));
ENDSEC;
DATA;
#10=(NAMED_UNIT(*)PLANE_ANGLE_UNIT()SI_UNIT($,.RADIAN.));
#11=DIMENSIONAL_EXPONENTS(0.0,0.0,0.0,0.0,0.0,0.0,0.0);
#12=PLANE_ANGLE_MEASURE_WITH_UNIT(PLANE_ANGLE_MEASURE(0.0174532925),#10);
#16=(CONVERSION_BASED_UNIT('DEGREE',#12)NAMED_UNIT(#11)PLANE_ANGLE_UNIT());
#20=(NAMED_UNIT(*)SI_UNIT($,.STERADIAN.)SOLID_ANGLE_UNIT());
#24=(LENGTH_UNIT()NAMED_UNIT(*)SI_UNIT(.MILLI.,.METRE.));
#26=UNCERTAINTY_MEASURE_WITH_UNIT(LENGTH_MEASURE(0.000001),#24,'DISTANCE_ACCURACY_VALUE','');
#28=(GEOMETRIC_REPRESENTATION_CONTEXT(3)GLOBAL_UNCERTAINTY_ASSIGNED_CONTEXT((#26))GLOBAL_UNIT_ASSIGNED_CONTEXT((#16,#20,#24))REPRESENTATION_CONTEXT('','3D'));
#29=APPLICATION_CONTEXT('CONFIGURATION CONTROLLED 3D DESIGNS OF MECHANICAL PARTS AND ASSEMBLIES');
#30=APPLICATION_PROTOCOL_DEFINITION('INTERNATIONAL STANDARD','config_control_design',1995,#29);
#31=MECHANICAL_CONTEXT('3D Mechanical Parts',#29,'mechanical');
#32=PRODUCT('Product','Product',' ',(#31));
#33=PRODUCT_RELATED_PRODUCT_CATEGORY('detail',$,(#32));
#34=PRODUCT_CATEGORY('part',$);
#35=PRODUCT_CATEGORY_RELATIONSHIP('None','None',#34,#33);
#36=PERSON('1','Design','Joe',$,$,$);
#37=ORGANIZATION($,'None','None');
#38=PERSON_AND_ORGANIZATION(#36,#37);
#39=PERSON_AND_ORGANIZATION_ROLE('design_owner');
#40=CC_DESIGN_PERSON_AND_ORGANIZATION_ASSIGNMENT(#38,#39,(#32));
#41=PRODUCT_DEFINITION_FORMATION_WITH_SPECIFIED_SOURCE('None','None',#32,.BOUGHT.);
#42=PERSON('2','Creator','Joe',$,$,$);
#43=ORGANIZATION($,'None','None');
#44=PERSON_AND_ORGANIZATION(#42,#43);
#45=PERSON_AND_ORGANIZATION_ROLE('creator');
#46=CC_DESIGN_PERSON_AND_ORGANIZATION_ASSIGNMENT(#44,#45,(#41));
#47=PERSON('3','Supplier','Joe',$,$,$);
#48=ORGANIZATION($,'None','None');
#49=PERSON_AND_ORGANIZATION(#47,#48);
#50=PERSON_AND_ORGANIZATION_ROLE('design_supplier');
#51=CC_DESIGN_PERSON_AND_ORGANIZATION_ASSIGNMENT(#49,#50,(#41));
#52=APPROVAL_STATUS('approved');
#53=APPROVAL(#52,'None');
#54=PERSON('4','Approver','Joe',$,$,$);
#55=ORGANIZATION($,'None','None');
#56=PERSON_AND_ORGANIZATION(#54,#55);
#57=APPROVAL_ROLE('approver');
#58=APPROVAL_PERSON_ORGANIZATION(#56,#53,#57);
#59=COORDINATED_UNIVERSAL_TIME_OFFSET(8,$,.EXACT.);
#60=CALENDAR_DATE(1996,29,5);
#61=LOCAL_TIME(12,0,0.0,#59);
#62=DATE_AND_TIME(#60,#61);
#63=APPROVAL_DATE_TIME(#62,#53);
#64=CC_DESIGN_APPROVAL(#53,(#41));
#65=SECURITY_CLASSIFICATION_LEVEL('unclassified');
#66=SECURITY_CLASSIFICATION('security','None',#65);
#67=CC_DESIGN_SECURITY_CLASSIFICATION(#66,(#41));
#68=APPROVAL_STATUS('approved');
#69=APPROVAL(#68,'None');
#70=PERSON('5','Approver','Joe',$,$,$);
#71=ORGANIZATION($,'None','None');
#72=PERSON_AND_ORGANIZATION(#70,#71);
#73=APPROVAL_ROLE('approver');
#74=APPROVAL_PERSON_ORGANIZATION(#72,#69,#73);
#75=COORDINATED_UNIVERSAL_TIME_OFFSET(8,$,.EXACT.);
#76=CALENDAR_DATE(1996,29,5);
#77=LOCAL_TIME(12,0,0.0,#75);
#78=DATE_AND_TIME(#76,#77);
#79=APPROVAL_DATE_TIME(#78,#69);
#80=CC_DESIGN_APPROVAL(#69,(#66));
#81=PERSON('6','Classifier','Joe',$,$,$);
#82=ORGANIZATION($,'None','None');
#83=PERSON_AND_ORGANIZATION(#81,#82);
#84=PERSON_AND_ORGANIZATION_ROLE('classification_officer');
#85=CC_DESIGN_PERSON_AND_ORGANIZATION_ASSIGNMENT(#83,#84,(#66));
#86=COORDINATED_UNIVERSAL_TIME_OFFSET(8,$,.EXACT.);
#87=CALENDAR_DATE(1996,29,5);
#88=LOCAL_TIME(12,0,0.0,#86);
#89=DATE_AND_TIME(#87,#88);
#90=DATE_TIME_ROLE('classification_date');
#91=CC_DESIGN_DATE_AND_TIME_ASSIGNMENT(#89,#90,(#66));
#92=DESIGN_CONTEXT('Design Context',#29,'design');
#93=PRODUCT_DEFINITION('None','None',#41,#92);
#94=PERSON('7','Creator','Joe',$,$,$);
#95=ORGANIZATION($,'None','None');
#96=PERSON_AND_ORGANIZATION(#94,#95);
#97=PERSON_AND_ORGANIZATION_ROLE('creator');
#98=CC_DESIGN_PERSON_AND_ORGANIZATION_ASSIGNMENT(#96,#97,(#93));
#99=COORDINATED_UNIVERSAL_TIME_OFFSET(8,$,.EXACT.);
#100=CALENDAR_DATE(1996,29,5);
#101=LOCAL_TIME(12,0,0.0,#99);
#102=DATE_AND_TIME(#100,#101);
#103=DATE_TIME_ROLE('creation_date');
#104=CC_DESIGN_DATE_AND_TIME_ASSIGNMENT(#102,#103,(#93));
#105=APPROVAL_STATUS('approved');
#106=APPROVAL(#105,'None');
#107=PERSON('8','Approver','Joe',$,$,$);
#108=ORGANIZATION($,'None','None');
#109=PERSON_AND_ORGANIZATION(#107,#108);
#110=APPROVAL_ROLE('approver');
#111=APPROVAL_PERSON_ORGANIZATION(#109,#106,#110);
#112=COORDINATED_UNIVERSAL_TIME_OFFSET(8,$,.EXACT.);
#113=CALENDAR_DATE(1996,29,5);
#114=LOCAL_TIME(12,0,0.0,#112);
#115=DATE_AND_TIME(#113,#114);
#116=APPROVAL_DATE_TIME(#115,#106);
#117=CC_DESIGN_APPROVAL(#106,(#93));
#118=CARTESIAN_POINT('NONE',(0.0,0.0,0.0));
#119=DIRECTION('NONE',(0.0,0.0,1.0));
#120=DIRECTION('NONE',(1.0,0.0,0.0));
#121=AXIS2_PLACEMENT_3D('NONE',#118,#119,#120);
#122=SHAPE_REPRESENTATION('SR1',(#121),#28);
#123=PRODUCT_DEFINITION_SHAPE('PDS1','Test Part',#93);
#124=SHAPE_DEFINITION_REPRESENTATION(#123,#122);
#125=CARTESIAN_POINT('',(2.679673E-016,-0.125,0.5));
#126=DIRECTION('',(9.958397E-017,-1.0,-4.057356E-016));
#127=DIRECTION('',(-1.0,0.0,0.0));
#128=AXIS2_PLACEMENT_3D('',#125,#126,#127);
#129=CYLINDRICAL_SURFACE('',#128,0.140625);
#130=CARTESIAN_POINT('',(-0.140625,-2.775558E-016,0.5));
#131=VERTEX_POINT('',#130);
#132=CARTESIAN_POINT('',(-0.140625,-0.188,0.5));
#133=VERTEX_POINT('',#132);
#134=CARTESIAN_POINT('',(-0.140625,-2.775558E-016,0.5));
#135=DIRECTION('',(0.0,-1.0,0.0));
#136=VECTOR('',#135,0.188);
#137=LINE('',#134,#136);
#138=EDGE_CURVE('',#131,#133,#137,.T.);
#139=ORIENTED_EDGE('',*,*,#138,.F.);
#140=CARTESIAN_POINT('',(0.140625,-1.942890E-016,0.5));
#141=VERTEX_POINT('',#140);
#142=CARTESIAN_POINT('',(2.832749E-016,-2.220446E-016,0.5));
#143=DIRECTION('',(0.0,-1.0,0.0));
#144=DIRECTION('',(-1.0,0.0,0.0));
#145=AXIS2_PLACEMENT_3D('',#142,#143,#144);
#146=CIRCLE('',#145,0.140625);
#147=EDGE_CURVE('',#141,#131,#146,.T.);
#148=ORIENTED_EDGE('',*,*,#147,.F.);
#149=CARTESIAN_POINT('',(0.140625,-0.188,0.500000000000001));
#150=VERTEX_POINT('',#149);
#151=CARTESIAN_POINT('',(0.140625,-1.942890E-016,0.5));
#152=DIRECTION('',(0.0,-1.0,0.0));
#153=VECTOR('',#152,0.188);
#154=LINE('',#151,#153);
#155=EDGE_CURVE('',#141,#150,#154,.T.);
#156=ORIENTED_EDGE('',*,*,#155,.T.);
#157=CARTESIAN_POINT('',(3.712746E-016,-0.188,0.5));
#158=DIRECTION('',(0.0,1.0,0.0));
#159=DIRECTION('',(-1.0,0.0,0.0));
#160=AXIS2_PLACEMENT_3D('',#157,#158,#159);
#161=CIRCLE('',#160,0.140625);
#162=EDGE_CURVE('',#133,#150,#161,.T.);
#163=ORIENTED_EDGE('',*,*,#162,.F.);
#164=EDGE_LOOP('',(#139,#148,#156,#163));
#165=FACE_OUTER_BOUND('',#164,.T.);
#166=ADVANCED_FACE('',(#165),#129,.F.);
#167=CARTESIAN_POINT('',(1.110223E-016,-0.5,0.125));
#168=DIRECTION('',(6.123032E-017,-2.220446E-016,1.0));
#169=DIRECTION('',(-1.0,0.0,0.0));
#170=AXIS2_PLACEMENT_3D('',#167,#168,#169);
#171=CYLINDRICAL_SURFACE('',#170,0.140625);
#172=CARTESIAN_POINT('',(-0.140625,-0.5,-2.775558E-017));
#173=VERTEX_POINT('',#172);
#174=CARTESIAN_POINT('',(-0.140625,-0.5,0.188));
#175=VERTEX_POINT('',#174);
#176=CARTESIAN_POINT('',(-0.140625,-0.5,-2.775558E-017));
#177=DIRECTION('',(0.0,0.0,1.0));
#178=VECTOR('',#177,0.188);
#179=LINE('',#176,#178);
#180=EDGE_CURVE('',#173,#175,#179,.T.);
#181=ORIENTED_EDGE('',*,*,#180,.F.);
#182=CARTESIAN_POINT('',(0.140625,-0.5,-1.526557E-016));
#183=VERTEX_POINT('',#182);
#184=CARTESIAN_POINT('',(1.110223E-016,-0.5,-1.387779E-016));
#185=DIRECTION('',(0.0,0.0,1.0));
#186=DIRECTION('',(-1.0,0.0,0.0));
#187=AXIS2_PLACEMENT_3D('',#184,#185,#186);
#188=CIRCLE('',#187,0.140625);
#189=EDGE_CURVE('',#183,#173,#188,.T.);
#190=ORIENTED_EDGE('',*,*,#189,.F.);
#191=CARTESIAN_POINT('',(0.140625,-0.499999999999999,0.188));
#192=VERTEX_POINT('',#191);
#193=CARTESIAN_POINT('',(0.140625,-0.5,-1.526557E-016));
#194=DIRECTION('',(0.0,0.0,1.0));
#195=VECTOR('',#194,0.188);
#196=LINE('',#193,#195);
#197=EDGE_CURVE('',#183,#192,#196,.T.);
#198=ORIENTED_EDGE('',*,*,#197,.T.);
#199=CARTESIAN_POINT('',(1.110223E-016,-0.5,0.188));
#200=DIRECTION('',(0.0,0.0,-1.0));
#201=DIRECTION('',(-1.0,0.0,0.0));
#202=AXIS2_PLACEMENT_3D('',#199,#200,#201);
#203=CIRCLE('',#202,0.140625);
#204=EDGE_CURVE('',#175,#192,#203,.T.);
#205=ORIENTED_EDGE('',*,*,#204,.F.);
#206=EDGE_LOOP('',(#181,#190,#198,#205));
#207=FACE_OUTER_BOUND('',#206,.T.);
#208=ADVANCED_FACE('',(#207),#171,.F.);
#209=CARTESIAN_POINT('',(1.110223E-016,-0.5,0.125));
#210=DIRECTION('',(6.123032E-017,-2.220446E-016,1.0));
#211=DIRECTION('',(-1.0,0.0,0.0));
#212=AXIS2_PLACEMENT_3D('',#209,#210,#211);
#213=CYLINDRICAL_SURFACE('',#212,0.140625);
#214=ORIENTED_EDGE('',*,*,#180,.T.);
#215=CARTESIAN_POINT('',(1.110223E-016,-0.5,0.188));
#216=DIRECTION('',(0.0,0.0,-1.0));
#217=DIRECTION('',(-1.0,0.0,0.0));
#218=AXIS2_PLACEMENT_3D('',#215,#216,#217);
#219=CIRCLE('',#218,0.140625);
#220=EDGE_CURVE('',#192,#175,#219,.T.);
#221=ORIENTED_EDGE('',*,*,#220,.F.);
#222=ORIENTED_EDGE('',*,*,#197,.F.);
#223=CARTESIAN_POINT('',(1.110223E-016,-0.5,-1.387779E-016));
#224=DIRECTION('',(0.0,0.0,1.0));
#225=DIRECTION('',(-1.0,0.0,0.0));
#226=AXIS2_PLACEMENT_3D('',#223,#224,#225);
#227=CIRCLE('',#226,0.140625);
#228=EDGE_CURVE('',#173,#183,#227,.T.);
#229=ORIENTED_EDGE('',*,*,#228,.F.);
#230=EDGE_LOOP('',(#214,#221,#222,#229));
#231=FACE_OUTER_BOUND('',#230,.T.);
#232=ADVANCED_FACE('',(#231),#213,.F.);
#233=CARTESIAN_POINT('',(2.679673E-016,-0.125,0.5));
#234=DIRECTION('',(9.958397E-017,-1.0,-4.057356E-016));
#235=DIRECTION('',(-1.0,0.0,0.0));
#236=AXIS2_PLACEMENT_3D('',#233,#234,#235);
#237=CYLINDRICAL_SURFACE('',#236,0.140625);
#238=ORIENTED_EDGE('',*,*,#138,.T.);
#239=CARTESIAN_POINT('',(3.712746E-016,-0.188,0.5));
#240=DIRECTION('',(0.0,1.0,0.0));
#241=DIRECTION('',(-1.0,0.0,0.0));
#242=AXIS2_PLACEMENT_3D('',#239,#240,#241);
#243=CIRCLE('',#242,0.140625);
#244=EDGE_CURVE('',#150,#133,#243,.T.);
#245=ORIENTED_EDGE('',*,*,#244,.F.);
#246=ORIENTED_EDGE('',*,*,#155,.F.);
#247=CARTESIAN_POINT('',(2.832749E-016,-2.220446E-016,0.5));
#248=DIRECTION('',(0.0,-1.0,0.0));
#249=DIRECTION('',(-1.0,0.0,0.0));
#250=AXIS2_PLACEMENT_3D('',#247,#248,#249);
#251=CIRCLE('',#250,0.140625);
#252=EDGE_CURVE('',#131,#141,#251,.T.);
#253=ORIENTED_EDGE('',*,*,#252,.F.);
#254=EDGE_LOOP('',(#238,#245,#246,#253));
#255=FACE_OUTER_BOUND('',#254,.T.);
#256=ADVANCED_FACE('',(#255),#237,.F.);
#257=CARTESIAN_POINT('',(0.4375,-2.775558E-016,0.811999999999999));
#258=DIRECTION('',(-1.0,9.073998E-017,2.832749E-016));
#259=DIRECTION('',(1.361428E-016,-0.707106781186548,0.707106781186547));
#260=AXIS2_PLACEMENT_3D('',#257,#258,#259);
#261=CYLINDRICAL_SURFACE('',#260,0.188);
#262=CARTESIAN_POINT('',(-0.4375,-2.220446E-016,1.0));
#263=VERTEX_POINT('',#262);
#264=CARTESIAN_POINT('',(-0.4375,-0.188,0.812));
#265=VERTEX_POINT('',#264);
#266=CARTESIAN_POINT('',(-0.4375,-2.220446E-016,0.812));
#267=DIRECTION('',(1.0,8.040714E-017,-8.040714E-017));
#268=DIRECTION('',(1.137129E-016,-0.707106781186548,0.707106781186547));
#269=AXIS2_PLACEMENT_3D('',#266,#267,#268);
#270=CIRCLE('',#269,0.188);
#271=EDGE_CURVE('',#263,#265,#270,.T.);
#272=ORIENTED_EDGE('',*,*,#271,.T.);
#273=CARTESIAN_POINT('',(0.437500000000001,-0.188,0.812));
#274=VERTEX_POINT('',#273);
#275=CARTESIAN_POINT('',(0.437500000000001,-0.188,0.812));
#276=DIRECTION('',(-1.0,0.0,0.0));
#277=VECTOR('',#276,0.875);
#278=LINE('',#275,#277);
#279=EDGE_CURVE('',#274,#265,#278,.T.);
#280=ORIENTED_EDGE('',*,*,#279,.F.);
#281=CARTESIAN_POINT('',(0.4375,-2.775558E-016,1.0));
#282=VERTEX_POINT('',#281);
#283=CARTESIAN_POINT('',(0.4375,-2.775558E-016,0.811999999999999));
#284=DIRECTION('',(-1.0,-8.040714E-017,8.040714E-017));
#285=DIRECTION('',(1.137129E-016,-0.707106781186548,0.707106781186547));
#286=AXIS2_PLACEMENT_3D('',#283,#284,#285);
#287=CIRCLE('',#286,0.188);
#288=EDGE_CURVE('',#274,#282,#287,.T.);
#289=ORIENTED_EDGE('',*,*,#288,.T.);
#290=CARTESIAN_POINT('',(0.4375,-2.775558E-016,1.0));
#291=DIRECTION('',(-1.0,0.0,0.0));
#292=VECTOR('',#291,0.875);
#293=LINE('',#290,#292);
#294=EDGE_CURVE('',#282,#263,#293,.T.);
#295=ORIENTED_EDGE('',*,*,#294,.T.);
#296=EDGE_LOOP('',(#272,#280,#289,#295));
#297=FACE_OUTER_BOUND('',#296,.T.);
#298=ADVANCED_FACE('',(#297),#261,.T.);
#299=CARTESIAN_POINT('',(0.437500000000001,-0.188,0.812));
#300=DIRECTION('',(0.0,-1.0,0.0));
#301=DIRECTION('',(0.0,0.0,-1.0));
#302=AXIS2_PLACEMENT_3D('',#299,#300,#301);
#303=PLANE('',#302);
#304=CARTESIAN_POINT('',(-0.4375,-0.188,0.313));
#305=VERTEX_POINT('',#304);
#306=CARTESIAN_POINT('',(-0.4375,-0.188,0.812));
#307=DIRECTION('',(0.0,0.0,-1.0));
#308=VECTOR('',#307,0.499);
#309=LINE('',#306,#308);
#310=EDGE_CURVE('',#265,#305,#309,.T.);
#311=ORIENTED_EDGE('',*,*,#310,.T.);
#312=CARTESIAN_POINT('',(0.4375,-0.188000000000001,0.313));
#313=VERTEX_POINT('',#312);
#314=CARTESIAN_POINT('',(0.4375,-0.188000000000001,0.313));
#315=DIRECTION('',(-1.0,0.0,0.0));
#316=VECTOR('',#315,0.875);
#317=LINE('',#314,#316);
#318=EDGE_CURVE('',#313,#305,#317,.T.);
#319=ORIENTED_EDGE('',*,*,#318,.F.);
#320=CARTESIAN_POINT('',(0.4375,-0.188000000000001,0.313));
#321=DIRECTION('',(0.0,0.0,1.0));
#322=VECTOR('',#321,0.499);
#323=LINE('',#320,#322);
#324=EDGE_CURVE('',#313,#274,#323,.T.);
#325=ORIENTED_EDGE('',*,*,#324,.T.);
#326=ORIENTED_EDGE('',*,*,#279,.T.);
#327=EDGE_LOOP('',(#311,#319,#325,#326));
#328=FACE_OUTER_BOUND('',#327,.T.);
#329=ORIENTED_EDGE('',*,*,#244,.T.);
#330=ORIENTED_EDGE('',*,*,#162,.T.);
#331=EDGE_LOOP('',(#329,#330));
#332=FACE_BOUND('',#331,.T.);
#333=ADVANCED_FACE('',(#328,#332),#303,.T.);
#334=CARTESIAN_POINT('',(0.4375,-0.313000000000001,0.313));
#335=DIRECTION('',(-1.0,9.073998E-017,2.832749E-016));
#336=DIRECTION('',(-1.361428E-016,0.707106781186548,-0.707106781186547));
#337=AXIS2_PLACEMENT_3D('',#334,#335,#336);
#338=CYLINDRICAL_SURFACE('',#337,0.125);
#339=CARTESIAN_POINT('',(-0.4375,-0.313,0.188));
#340=VERTEX_POINT('',#339);
#341=CARTESIAN_POINT('',(-0.4375,-0.313000000000001,0.313));
#342=DIRECTION('',(-1.0,-8.040714E-017,8.040714E-017));
#343=DIRECTION('',(-1.137129E-016,0.707106781186548,-0.707106781186547));
#344=AXIS2_PLACEMENT_3D('',#341,#342,#343);
#345=CIRCLE('',#344,0.125);
#346=EDGE_CURVE('',#305,#340,#345,.T.);
#347=ORIENTED_EDGE('',*,*,#346,.T.);
#348=CARTESIAN_POINT('',(0.4375,-0.313000000000001,0.188));
#349=VERTEX_POINT('',#348);
#350=CARTESIAN_POINT('',(0.4375,-0.313000000000001,0.188));
#351=DIRECTION('',(-1.0,0.0,0.0));
#352=VECTOR('',#351,0.875);
#353=LINE('',#350,#352);
#354=EDGE_CURVE('',#349,#340,#353,.T.);
#355=ORIENTED_EDGE('',*,*,#354,.F.);
#356=CARTESIAN_POINT('',(0.4375,-0.313000000000001,0.313));
#357=DIRECTION('',(1.0,8.040714E-017,-8.040714E-017));
#358=DIRECTION('',(-1.137129E-016,0.707106781186548,-0.707106781186547));
#359=AXIS2_PLACEMENT_3D('',#356,#357,#358);
#360=CIRCLE('',#359,0.125);
#361=EDGE_CURVE('',#349,#313,#360,.T.);
#362=ORIENTED_EDGE('',*,*,#361,.T.);
#363=ORIENTED_EDGE('',*,*,#318,.T.);
#364=EDGE_LOOP('',(#347,#355,#362,#363));
#365=FACE_OUTER_BOUND('',#364,.T.);
#366=ADVANCED_FACE('',(#365),#338,.F.);
#367=CARTESIAN_POINT('',(0.4375,-0.313000000000001,0.188));
#368=DIRECTION('',(0.0,0.0,1.0));
#369=DIRECTION('',(0.0,-1.0,0.0));
#370=AXIS2_PLACEMENT_3D('',#367,#368,#369);
#371=PLANE('',#370);
#372=CARTESIAN_POINT('',(-0.4375,-0.812000000000001,0.188));
#373=VERTEX_POINT('',#372);
#374=CARTESIAN_POINT('',(-0.4375,-0.313,0.188));
#375=DIRECTION('',(0.0,-1.0,0.0));
#376=VECTOR('',#375,0.499);
#377=LINE('',#374,#376);
#378=EDGE_CURVE('',#340,#373,#377,.T.);
#379=ORIENTED_EDGE('',*,*,#378,.T.);
#380=CARTESIAN_POINT('',(0.4375,-0.812,0.188));
#381=VERTEX_POINT('',#380);
#382=CARTESIAN_POINT('',(0.4375,-0.812,0.188));
#383=DIRECTION('',(-1.0,0.0,0.0));
#384=VECTOR('',#383,0.875);
#385=LINE('',#382,#384);
#386=EDGE_CURVE('',#381,#373,#385,.T.);
#387=ORIENTED_EDGE('',*,*,#386,.F.);
#388=CARTESIAN_POINT('',(0.4375,-0.812,0.188));
#389=DIRECTION('',(0.0,1.0,0.0));
#390=VECTOR('',#389,0.499);
#391=LINE('',#388,#390);
#392=EDGE_CURVE('',#381,#349,#391,.T.);
#393=ORIENTED_EDGE('',*,*,#392,.T.);
#394=ORIENTED_EDGE('',*,*,#354,.T.);
#395=EDGE_LOOP('',(#379,#387,#393,#394));
#396=FACE_OUTER_BOUND('',#395,.T.);
#397=ORIENTED_EDGE('',*,*,#220,.T.);
#398=ORIENTED_EDGE('',*,*,#204,.T.);
#399=EDGE_LOOP('',(#397,#398));
#400=FACE_BOUND('',#399,.T.);
#401=ADVANCED_FACE('',(#396,#400),#371,.T.);
#402=CARTESIAN_POINT('',(0.4375,-0.812,-4.163336E-016));
#403=DIRECTION('',(-1.0,9.073998E-017,2.832749E-016));
#404=DIRECTION('',(1.361428E-016,-0.707106781186547,0.707106781186548));
#405=AXIS2_PLACEMENT_3D('',#402,#403,#404);
#406=CYLINDRICAL_SURFACE('',#405,0.188);
#407=CARTESIAN_POINT('',(-0.4375,-1.0,-1.387779E-016));
#408=VERTEX_POINT('',#407);
#409=CARTESIAN_POINT('',(-0.4375,-0.812,-3.053113E-016));
#410=DIRECTION('',(1.0,8.040714E-017,-8.040714E-017));
#411=DIRECTION('',(1.137129E-016,-0.707106781186547,0.707106781186548));
#412=AXIS2_PLACEMENT_3D('',#409,#410,#411);
#413=CIRCLE('',#412,0.188);
#414=EDGE_CURVE('',#373,#408,#413,.T.);
#415=ORIENTED_EDGE('',*,*,#414,.T.);
#416=CARTESIAN_POINT('',(0.4375,-1.0,-2.498002E-016));
#417=VERTEX_POINT('',#416);
#418=CARTESIAN_POINT('',(0.4375,-1.0,-2.498002E-016));
#419=DIRECTION('',(-1.0,0.0,0.0));
#420=VECTOR('',#419,0.875);
#421=LINE('',#418,#420);
#422=EDGE_CURVE('',#417,#408,#421,.T.);
#423=ORIENTED_EDGE('',*,*,#422,.F.);
#424=CARTESIAN_POINT('',(0.4375,-0.812,-4.163336E-016));
#425=DIRECTION('',(-1.0,-8.040714E-017,8.040714E-017));
#426=DIRECTION('',(1.137129E-016,-0.707106781186547,0.707106781186548));
#427=AXIS2_PLACEMENT_3D('',#424,#425,#426);
#428=CIRCLE('',#427,0.188);
#429=EDGE_CURVE('',#417,#381,#428,.T.);
#430=ORIENTED_EDGE('',*,*,#429,.T.);
#431=ORIENTED_EDGE('',*,*,#386,.T.);
#432=EDGE_LOOP('',(#415,#423,#430,#431));
#433=FACE_OUTER_BOUND('',#432,.T.);
#434=ADVANCED_FACE('',(#433),#406,.T.);
#435=CARTESIAN_POINT('',(0.4375,-1.0,-2.498002E-016));
#436=DIRECTION('',(0.0,0.0,-1.0));
#437=DIRECTION('',(0.0,1.0,0.0));
#438=AXIS2_PLACEMENT_3D('',#435,#436,#437);
#439=PLANE('',#438);
#440=CARTESIAN_POINT('',(-0.4375,-1.110223E-016,8.326673E-017));
#441=VERTEX_POINT('',#440);
#442=CARTESIAN_POINT('',(-0.4375,-1.0,-1.004242E-016));
#443=DIRECTION('',(0.0,1.0,0.0));
#444=VECTOR('',#443,1.0);
#445=LINE('',#442,#444);
#446=EDGE_CURVE('',#408,#441,#445,.T.);
#447=ORIENTED_EDGE('',*,*,#446,.T.);
#448=CARTESIAN_POINT('',(0.4375,0.0,-8.326673E-017));
#449=VERTEX_POINT('',#448);
#450=CARTESIAN_POINT('',(0.4375,0.0,-8.326673E-017));
#451=DIRECTION('',(-1.0,0.0,0.0));
#452=VECTOR('',#451,0.875);
#453=LINE('',#450,#452);
#454=EDGE_CURVE('',#449,#441,#453,.T.);
#455=ORIENTED_EDGE('',*,*,#454,.F.);
#456=CARTESIAN_POINT('',(0.4375,0.0,-8.326673E-017));
#457=DIRECTION('',(0.0,-1.0,0.0));
#458=VECTOR('',#457,1.0);
#459=LINE('',#456,#458);
#460=EDGE_CURVE('',#449,#417,#459,.T.);
#461=ORIENTED_EDGE('',*,*,#460,.T.);
#462=ORIENTED_EDGE('',*,*,#422,.T.);
#463=EDGE_LOOP('',(#447,#455,#461,#462));
#464=FACE_OUTER_BOUND('',#463,.T.);
#465=ORIENTED_EDGE('',*,*,#228,.T.);
#466=ORIENTED_EDGE('',*,*,#189,.T.);
#467=EDGE_LOOP('',(#465,#466));
#468=FACE_BOUND('',#467,.T.);
#469=ADVANCED_FACE('',(#464,#468),#439,.T.);
#470=CARTESIAN_POINT('',(0.4375,0.0,-8.326673E-017));
#471=DIRECTION('',(0.0,1.0,0.0));
#472=DIRECTION('',(0.0,0.0,1.0));
#473=AXIS2_PLACEMENT_3D('',#470,#471,#472);
#474=PLANE('',#473);
#475=CARTESIAN_POINT('',(-0.4375,-3.835365E-017,1.110223E-016));
#476=DIRECTION('',(0.0,0.0,1.0));
#477=VECTOR('',#476,1.0);
#478=LINE('',#475,#477);
#479=EDGE_CURVE('',#441,#263,#478,.T.);
#480=ORIENTED_EDGE('',*,*,#479,.T.);
#481=ORIENTED_EDGE('',*,*,#294,.F.);
#482=CARTESIAN_POINT('',(0.4375,-2.775558E-016,1.0));
#483=DIRECTION('',(0.0,0.0,-1.0));
#484=VECTOR('',#483,1.0);
#485=LINE('',#482,#484);
#486=EDGE_CURVE('',#282,#449,#485,.T.);
#487=ORIENTED_EDGE('',*,*,#486,.T.);
#488=ORIENTED_EDGE('',*,*,#454,.T.);
#489=EDGE_LOOP('',(#480,#481,#487,#488));
#490=FACE_OUTER_BOUND('',#489,.T.);
#491=ORIENTED_EDGE('',*,*,#252,.T.);
#492=ORIENTED_EDGE('',*,*,#147,.T.);
#493=EDGE_LOOP('',(#491,#492));
#494=FACE_BOUND('',#493,.T.);
#495=ADVANCED_FACE('',(#490,#494),#474,.T.);
#496=CARTESIAN_POINT('',(0.4375,-0.380348380207783,0.380348380207782));
#497=DIRECTION('',(1.0,0.0,0.0));
#498=DIRECTION('',(0.0,-1.0,0.0));
#499=AXIS2_PLACEMENT_3D('',#496,#497,#498);
#500=PLANE('',#499);
#501=ORIENTED_EDGE('',*,*,#486,.F.);
#502=ORIENTED_EDGE('',*,*,#288,.F.);
#503=ORIENTED_EDGE('',*,*,#324,.F.);
#504=ORIENTED_EDGE('',*,*,#361,.F.);
#505=ORIENTED_EDGE('',*,*,#392,.F.);
#506=ORIENTED_EDGE('',*,*,#429,.F.);
#507=ORIENTED_EDGE('',*,*,#460,.F.);
#508=EDGE_LOOP('',(#501,#502,#503,#504,#505,#506,#507));
#509=FACE_OUTER_BOUND('',#508,.T.);
#510=ADVANCED_FACE('',(#509),#500,.T.);
#511=CARTESIAN_POINT('',(-0.4375,-2.220446E-016,1.0));
#512=DIRECTION('',(1.0,0.0,0.0));
#513=DIRECTION('',(0.0,-1.0,0.0));
#514=AXIS2_PLACEMENT_3D('',#511,#512,#513);
#515=PLANE('',#514);
#516=ORIENTED_EDGE('',*,*,#271,.F.);
#517=ORIENTED_EDGE('',*,*,#479,.F.);
#518=ORIENTED_EDGE('',*,*,#446,.F.);
#519=ORIENTED_EDGE('',*,*,#414,.F.);
#520=ORIENTED_EDGE('',*,*,#378,.F.);
#521=ORIENTED_EDGE('',*,*,#346,.F.);
#522=ORIENTED_EDGE('',*,*,#310,.F.);
#523=EDGE_LOOP('',(#516,#517,#518,#519,#520,#521,#522));
#524=FACE_OUTER_BOUND('',#523,.T.);
#525=ADVANCED_FACE('',(#524),#515,.F.);
#526=CLOSED_SHELL('',(#166,#208,#232,#256,#298,#333,#366,#401,#434,#469,#495,#510,#525));
#527=MANIFOLD_SOLID_BREP('30',#526);
#528=ADVANCED_BREP_SHAPE_REPRESENTATION('ABSR1',(#527),#28);
#529=SHAPE_REPRESENTATION_RELATIONSHIP('SRRPL1','',#528,#122);
ENDSEC;
END-ISO-10303-21;
