ISO-10303-21;
HEADER;
/****************************************************************
 * Generated by software with PDElib inside                    *
 * PDElib Version v51a, created Fri 09/10/2010                  *
 * ITI Transcendata (http://www.transcendata.com/)              *
 ****************************************************************/
FILE_DESCRIPTION((''),'2;1');
FILE_NAME('15CB4804.stp','2015-07-20T13:30:06',(''),(''),'Mechanical Desktop 2011','Mechanical Desktop 2011',', , ');
FILE_SCHEMA(('AUTOMOTIVE_DESIGN { 1 2 10303 214 1 1 1 1 }'));
ENDSEC;
DATA;
#10=(NAMED_UNIT(*)PLANE_ANGLE_UNIT()SI_UNIT($,.RADIAN.));
#11=DIMENSIONAL_EXPONENTS(0.0,0.0,0.0,0.0,0.0,0.0,0.0);
#12=PLANE_ANGLE_MEASURE_WITH_UNIT(PLANE_ANGLE_MEASURE(0.0174532925),#10);
#16=(CONVERSION_BASED_UNIT('DEGREE',#12)NAMED_UNIT(#11)PLANE_ANGLE_UNIT());
#20=(NAMED_UNIT(*)SI_UNIT($,.STERADIAN.)SOLID_ANGLE_UNIT());
#24=(LENGTH_UNIT()NAMED_UNIT(*)SI_UNIT(.CENTI.,.METRE.));
#25=DIMENSIONAL_EXPONENTS(1.0,0.0,0.0,0.0,0.0,0.0,0.0);
#26=LENGTH_MEASURE_WITH_UNIT(LENGTH_MEASURE(2.54),#24);
#30=(CONVERSION_BASED_UNIT('INCH',#26)LENGTH_UNIT()NAMED_UNIT(#25));
#32=UNCERTAINTY_MEASURE_WITH_UNIT(LENGTH_MEASURE(0.000001),#30,'DISTANCE_ACCURACY_VALUE','');
#34=(GEOMETRIC_REPRESENTATION_CONTEXT(3)GLOBAL_UNCERTAINTY_ASSIGNED_CONTEXT((#32))GLOBAL_UNIT_ASSIGNED_CONTEXT((#16,#20,#30))REPRESENTATION_CONTEXT('','3D'));
#35=APPLICATION_CONTEXT('automotive design');
#36=APPLICATION_PROTOCOL_DEFINITION('INTERNATIONAL_STANDARD','automotive_design',1998,#35);
#37=PRODUCT_CONTEXT('3D Mechanical Parts',#35,'mechanical');
#38=PRODUCT('Product','Product','',(#37));
#39=PRODUCT_RELATED_PRODUCT_CATEGORY('part',$,(#38));
#40=PRODUCT_CATEGORY('part',$);
#41=PERSON('1','Design','Joe',$,$,$);
#42=ORGANIZATION($,'None','None');
#43=PERSON_AND_ORGANIZATION(#41,#42);
#44=PERSON_AND_ORGANIZATION_ROLE('design_owner');
#45=APPLIED_PERSON_AND_ORGANIZATION_ASSIGNMENT(#43,#44,(#38));
#46=PRODUCT_DEFINITION_FORMATION_WITH_SPECIFIED_SOURCE('None','',#38,.BOUGHT.);
#47=PERSON('2','Creator','Joe',$,$,$);
#48=ORGANIZATION($,'None','None');
#49=PERSON_AND_ORGANIZATION(#47,#48);
#50=PERSON_AND_ORGANIZATION_ROLE('creator');
#51=APPLIED_PERSON_AND_ORGANIZATION_ASSIGNMENT(#49,#50,(#46));
#52=PERSON('3','Supplier','Joe',$,$,$);
#53=ORGANIZATION($,'None','None');
#54=PERSON_AND_ORGANIZATION(#52,#53);
#55=PERSON_AND_ORGANIZATION_ROLE('design_supplier');
#56=APPLIED_PERSON_AND_ORGANIZATION_ASSIGNMENT(#54,#55,(#46));
#57=PRODUCT_DEFINITION_CONTEXT('part definition',#35,'design');
#58=PRODUCT_DEFINITION('None','',#46,#57);
#59=PERSON('4','Creator','Joe',$,$,$);
#60=ORGANIZATION($,'None','None');
#61=PERSON_AND_ORGANIZATION(#59,#60);
#62=PERSON_AND_ORGANIZATION_ROLE('creator');
#63=APPLIED_PERSON_AND_ORGANIZATION_ASSIGNMENT(#61,#62,(#58));
#64=CARTESIAN_POINT('NONE',(0.0,0.0,0.0));
#65=DIRECTION('NONE',(0.0,0.0,1.0));
#66=DIRECTION('NONE',(1.0,0.0,0.0));
#67=AXIS2_PLACEMENT_3D('NONE',#64,#65,#66);
#68=SHAPE_REPRESENTATION('SR1',(#67),#34);
#69=PRODUCT_DEFINITION_SHAPE('PDS1','Test Part',#58);
#70=SHAPE_DEFINITION_REPRESENTATION(#69,#68);
#71=CARTESIAN_POINT('',(-4.440892E-016,-0.750000000000001,-1.377682E-016));
#72=DIRECTION('',(6.123032E-017,-2.449213E-016,1.0));
#73=DIRECTION('',(0.0,1.0,0.0));
#74=AXIS2_PLACEMENT_3D('',#71,#72,#73);
#75=CYLINDRICAL_SURFACE('',#74,0.171875);
#76=CARTESIAN_POINT('',(-2.220446E-016,-0.578125000000001,-1.061963E-016));
#77=VERTEX_POINT('',#76);
#78=CARTESIAN_POINT('',(-3.866858E-016,-0.578125000000001,0.25));
#79=VERTEX_POINT('',#78);
#80=CARTESIAN_POINT('',(-4.019934E-016,-0.578125000000001,-1.061963E-016));
#81=DIRECTION('',(0.0,0.0,1.0));
#82=VECTOR('',#81,0.25);
#83=LINE('',#80,#82);
#84=EDGE_CURVE('',#77,#79,#83,.T.);
#85=ORIENTED_EDGE('',*,*,#84,.F.);
#86=CARTESIAN_POINT('',(-4.651364E-016,-0.921875000000001,-6.239533E-016));
#87=VERTEX_POINT('',#86);
#88=CARTESIAN_POINT('',(-4.440892E-016,-0.750000000000001,-5.818574E-016));
#89=DIRECTION('',(0.0,0.0,1.0));
#90=DIRECTION('',(0.0,1.0,0.0));
#91=AXIS2_PLACEMENT_3D('',#88,#89,#90);
#92=CIRCLE('',#91,0.171875);
#93=EDGE_CURVE('',#87,#77,#92,.T.);
#94=ORIENTED_EDGE('',*,*,#93,.F.);
#95=CARTESIAN_POINT('',(-4.498289E-016,-0.921875000000001,0.25));
#96=VERTEX_POINT('',#95);
#97=CARTESIAN_POINT('',(-4.651364E-016,-0.921875000000001,-6.239533E-016));
#98=DIRECTION('',(0.0,0.0,1.0));
#99=VECTOR('',#98,0.25);
#100=LINE('',#97,#99);
#101=EDGE_CURVE('',#87,#96,#100,.T.);
#102=ORIENTED_EDGE('',*,*,#101,.T.);
#103=CARTESIAN_POINT('',(-2.220446E-016,-0.750000000000001,0.25));
#104=DIRECTION('',(0.0,0.0,-1.0));
#105=DIRECTION('',(0.0,1.0,0.0));
#106=AXIS2_PLACEMENT_3D('',#103,#104,#105);
#107=CIRCLE('',#106,0.171875);
#108=EDGE_CURVE('',#79,#96,#107,.T.);
#109=ORIENTED_EDGE('',*,*,#108,.F.);
#110=EDGE_LOOP('',(#85,#94,#102,#109));
#111=FACE_OUTER_BOUND('',#110,.T.);
#112=ADVANCED_FACE('',(#111),#75,.F.);
#113=CARTESIAN_POINT('',(0.0,-0.500000000000001,0.75));
#114=DIRECTION('',(2.449213E-016,1.0,2.449213E-016));
#115=DIRECTION('',(-1.0,0.0,0.0));
#116=AXIS2_PLACEMENT_3D('',#113,#114,#115);
#117=CYLINDRICAL_SURFACE('',#116,0.171875);
#118=CARTESIAN_POINT('',(-0.171875,-0.250000000000001,0.750000000000001));
#119=VERTEX_POINT('',#118);
#120=CARTESIAN_POINT('',(-0.171875,-8.881784E-016,0.750000000000001));
#121=VERTEX_POINT('',#120);
#122=CARTESIAN_POINT('',(-0.171875,-0.250000000000001,0.750000000000001));
#123=DIRECTION('',(0.0,1.0,0.0));
#124=VECTOR('',#123,0.25);
#125=LINE('',#122,#124);
#126=EDGE_CURVE('',#119,#121,#125,.T.);
#127=ORIENTED_EDGE('',*,*,#126,.F.);
#128=CARTESIAN_POINT('',(0.171875,-0.250000000000001,0.750000000000001));
#129=VERTEX_POINT('',#128);
#130=CARTESIAN_POINT('',(0.0,-0.250000000000001,0.750000000000001));
#131=DIRECTION('',(0.0,1.0,0.0));
#132=DIRECTION('',(-1.0,0.0,0.0));
#133=AXIS2_PLACEMENT_3D('',#130,#131,#132);
#134=CIRCLE('',#133,0.171875);
#135=EDGE_CURVE('',#129,#119,#134,.T.);
#136=ORIENTED_EDGE('',*,*,#135,.F.);
#137=CARTESIAN_POINT('',(0.171875,-9.436896E-016,0.750000000000001));
#138=VERTEX_POINT('',#137);
#139=CARTESIAN_POINT('',(0.171875,-0.250000000000001,0.750000000000001));
#140=DIRECTION('',(0.0,1.0,0.0));
#141=VECTOR('',#140,0.25);
#142=LINE('',#139,#141);
#143=EDGE_CURVE('',#129,#138,#142,.T.);
#144=ORIENTED_EDGE('',*,*,#143,.T.);
#145=CARTESIAN_POINT('',(0.0,-8.881784E-016,0.578125));
#146=VERTEX_POINT('',#145);
#147=CARTESIAN_POINT('',(2.220446E-016,-8.881784E-016,0.750000000000001));
#148=DIRECTION('',(0.0,-1.0,0.0));
#149=DIRECTION('',(-1.0,0.0,0.0));
#150=AXIS2_PLACEMENT_3D('',#147,#148,#149);
#151=CIRCLE('',#150,0.171875);
#152=EDGE_CURVE('',#146,#138,#151,.T.);
#153=ORIENTED_EDGE('',*,*,#152,.F.);
#154=CARTESIAN_POINT('',(2.220446E-016,-8.881784E-016,0.750000000000001));
#155=DIRECTION('',(0.0,-1.0,0.0));
#156=DIRECTION('',(-1.0,0.0,0.0));
#157=AXIS2_PLACEMENT_3D('',#154,#155,#156);
#158=CIRCLE('',#157,0.171875);
#159=EDGE_CURVE('',#121,#146,#158,.T.);
#160=ORIENTED_EDGE('',*,*,#159,.F.);
#161=EDGE_LOOP('',(#127,#136,#144,#153,#160));
#162=FACE_OUTER_BOUND('',#161,.T.);
#163=ADVANCED_FACE('',(#162),#117,.F.);
#164=CARTESIAN_POINT('',(-4.440892E-016,-1.776357E-015,2.250000000000001));
#165=DIRECTION('',(-2.449213E-016,-1.0,-2.449213E-016));
#166=DIRECTION('',(1.0,0.0,0.0));
#167=AXIS2_PLACEMENT_3D('',#164,#165,#166);
#168=CYLINDRICAL_SURFACE('',#167,0.171875);
#169=CARTESIAN_POINT('',(0.171875,-1.776357E-015,2.250000000000001));
#170=VERTEX_POINT('',#169);
#171=CARTESIAN_POINT('',(0.171875,-0.250000000000002,2.250000000000001));
#172=VERTEX_POINT('',#171);
#173=CARTESIAN_POINT('',(0.171875,-1.818453E-015,2.250000000000001));
#174=DIRECTION('',(0.0,-1.0,0.0));
#175=VECTOR('',#174,0.25);
#176=LINE('',#173,#175);
#177=EDGE_CURVE('',#170,#172,#176,.T.);
#178=ORIENTED_EDGE('',*,*,#177,.F.);
#179=CARTESIAN_POINT('',(-0.171875,-1.734261E-015,2.250000000000001));
#180=VERTEX_POINT('',#179);
#181=CARTESIAN_POINT('',(-4.440892E-016,-1.776357E-015,2.250000000000001));
#182=DIRECTION('',(0.0,-1.0,0.0));
#183=DIRECTION('',(1.0,0.0,0.0));
#184=AXIS2_PLACEMENT_3D('',#181,#182,#183);
#185=CIRCLE('',#184,0.171875);
#186=EDGE_CURVE('',#180,#170,#185,.T.);
#187=ORIENTED_EDGE('',*,*,#186,.F.);
#188=CARTESIAN_POINT('',(-0.171875000000001,-0.250000000000001,2.249999999999999));
#189=VERTEX_POINT('',#188);
#190=CARTESIAN_POINT('',(-0.171875,-1.734261E-015,2.250000000000001));
#191=DIRECTION('',(0.0,-1.0,0.0));
#192=VECTOR('',#191,0.249999999999999);
#193=LINE('',#190,#192);
#194=EDGE_CURVE('',#180,#189,#193,.T.);
#195=ORIENTED_EDGE('',*,*,#194,.T.);
#196=CARTESIAN_POINT('',(-4.440892E-016,-0.250000000000002,2.250000000000001));
#197=DIRECTION('',(0.0,1.0,0.0));
#198=DIRECTION('',(1.0,0.0,0.0));
#199=AXIS2_PLACEMENT_3D('',#196,#197,#198);
#200=CIRCLE('',#199,0.171875);
#201=EDGE_CURVE('',#172,#189,#200,.T.);
#202=ORIENTED_EDGE('',*,*,#201,.F.);
#203=EDGE_LOOP('',(#178,#187,#195,#202));
#204=FACE_OUTER_BOUND('',#203,.T.);
#205=ADVANCED_FACE('',(#204),#168,.F.);
#206=CARTESIAN_POINT('',(-4.440892E-016,-2.25,-8.573939E-016));
#207=DIRECTION('',(2.832749E-016,-1.836910E-016,1.0));
#208=DIRECTION('',(-1.0,0.0,0.0));
#209=AXIS2_PLACEMENT_3D('',#206,#207,#208);
#210=CYLINDRICAL_SURFACE('',#209,0.171875);
#211=CARTESIAN_POINT('',(-0.171875,-2.25,-8.192299E-016));
#212=VERTEX_POINT('',#211);
#213=CARTESIAN_POINT('',(-0.171875,-2.25,0.249999999999999));
#214=VERTEX_POINT('',#213);
#215=CARTESIAN_POINT('',(-0.171875,-2.25,-8.087060E-016));
#216=DIRECTION('',(0.0,0.0,1.0));
#217=VECTOR('',#216,0.25);
#218=LINE('',#215,#217);
#219=EDGE_CURVE('',#212,#214,#218,.T.);
#220=ORIENTED_EDGE('',*,*,#219,.F.);
#221=CARTESIAN_POINT('',(0.171875,-2.25,-9.060817E-016));
#222=VERTEX_POINT('',#221);
#223=CARTESIAN_POINT('',(-4.440892E-016,-2.25,-8.573939E-016));
#224=DIRECTION('',(0.0,0.0,1.0));
#225=DIRECTION('',(-1.0,0.0,0.0));
#226=AXIS2_PLACEMENT_3D('',#223,#224,#225);
#227=CIRCLE('',#226,0.171875);
#228=EDGE_CURVE('',#222,#212,#227,.T.);
#229=ORIENTED_EDGE('',*,*,#228,.F.);
#230=CARTESIAN_POINT('',(0.171875,-2.249999999999999,0.249999999999999));
#231=VERTEX_POINT('',#230);
#232=CARTESIAN_POINT('',(0.171875,-2.25,-9.060817E-016));
#233=DIRECTION('',(0.0,0.0,1.0));
#234=VECTOR('',#233,0.25);
#235=LINE('',#232,#234);
#236=EDGE_CURVE('',#222,#231,#235,.T.);
#237=ORIENTED_EDGE('',*,*,#236,.T.);
#238=CARTESIAN_POINT('',(-2.220446E-016,-2.25,0.249999999999999));
#239=DIRECTION('',(0.0,0.0,-1.0));
#240=DIRECTION('',(-1.0,0.0,0.0));
#241=AXIS2_PLACEMENT_3D('',#238,#239,#240);
#242=CIRCLE('',#241,0.171875);
#243=EDGE_CURVE('',#214,#231,#242,.T.);
#244=ORIENTED_EDGE('',*,*,#243,.F.);
#245=EDGE_LOOP('',(#220,#229,#237,#244));
#246=FACE_OUTER_BOUND('',#245,.T.);
#247=ADVANCED_FACE('',(#246),#210,.F.);
#248=CARTESIAN_POINT('',(-4.440892E-016,-2.25,-8.573939E-016));
#249=DIRECTION('',(2.832749E-016,-1.836910E-016,1.0));
#250=DIRECTION('',(-1.0,0.0,0.0));
#251=AXIS2_PLACEMENT_3D('',#248,#249,#250);
#252=CYLINDRICAL_SURFACE('',#251,0.171875);
#253=ORIENTED_EDGE('',*,*,#219,.T.);
#254=CARTESIAN_POINT('',(-2.220446E-016,-2.25,0.249999999999999));
#255=DIRECTION('',(0.0,0.0,-1.0));
#256=DIRECTION('',(-1.0,0.0,0.0));
#257=AXIS2_PLACEMENT_3D('',#254,#255,#256);
#258=CIRCLE('',#257,0.171875);
#259=EDGE_CURVE('',#231,#214,#258,.T.);
#260=ORIENTED_EDGE('',*,*,#259,.F.);
#261=ORIENTED_EDGE('',*,*,#236,.F.);
#262=CARTESIAN_POINT('',(-4.440892E-016,-2.25,-8.573939E-016));
#263=DIRECTION('',(0.0,0.0,1.0));
#264=DIRECTION('',(-1.0,0.0,0.0));
#265=AXIS2_PLACEMENT_3D('',#262,#263,#264);
#266=CIRCLE('',#265,0.171875);
#267=EDGE_CURVE('',#212,#222,#266,.T.);
#268=ORIENTED_EDGE('',*,*,#267,.F.);
#269=EDGE_LOOP('',(#253,#260,#261,#268));
#270=FACE_OUTER_BOUND('',#269,.T.);
#271=ADVANCED_FACE('',(#270),#252,.F.);
#272=CARTESIAN_POINT('',(0.65625,-2.75,-6.508669E-016));
#273=DIRECTION('',(-1.0,1.076577E-016,2.832749E-016));
#274=DIRECTION('',(-4.329637E-017,-0.707106781186548,0.707106781186547));
#275=AXIS2_PLACEMENT_3D('',#272,#273,#274);
#276=CYLINDRICAL_SURFACE('',#275,0.25);
#277=CARTESIAN_POINT('',(-0.656250000000001,-2.750000000000001,0.249999999999999));
#278=VERTEX_POINT('',#277);
#279=CARTESIAN_POINT('',(-0.656250000000001,-3.0,-8.494453E-016));
#280=VERTEX_POINT('',#279);
#281=CARTESIAN_POINT('',(-0.65625,-2.75,-3.594333E-016));
#282=DIRECTION('',(1.0,-3.061516E-017,3.061516E-017));
#283=DIRECTION('',(-4.329637E-017,-0.707106781186548,0.707106781186547));
#284=AXIS2_PLACEMENT_3D('',#281,#282,#283);
#285=CIRCLE('',#284,0.25);
#286=EDGE_CURVE('',#278,#280,#285,.T.);
#287=ORIENTED_EDGE('',*,*,#286,.T.);
#288=CARTESIAN_POINT('',(0.656249999999999,-3.0,-1.140879E-015));
#289=VERTEX_POINT('',#288);
#290=CARTESIAN_POINT('',(0.656249999999999,-3.0,-1.140879E-015));
#291=DIRECTION('',(-1.0,0.0,0.0));
#292=VECTOR('',#291,1.3125);
#293=LINE('',#290,#292);
#294=EDGE_CURVE('',#289,#280,#293,.T.);
#295=ORIENTED_EDGE('',*,*,#294,.F.);
#296=CARTESIAN_POINT('',(0.656249999999999,-2.75,0.249999999999999));
#297=VERTEX_POINT('',#296);
#298=CARTESIAN_POINT('',(0.65625,-2.75,-6.508669E-016));
#299=DIRECTION('',(-1.0,3.061516E-017,-3.061516E-017));
#300=DIRECTION('',(-4.329637E-017,-0.707106781186548,0.707106781186547));
#301=AXIS2_PLACEMENT_3D('',#298,#299,#300);
#302=CIRCLE('',#301,0.25);
#303=EDGE_CURVE('',#289,#297,#302,.T.);
#304=ORIENTED_EDGE('',*,*,#303,.T.);
#305=CARTESIAN_POINT('',(0.656249999999999,-2.75,0.249999999999999));
#306=DIRECTION('',(-1.0,0.0,0.0));
#307=VECTOR('',#306,1.3125);
#308=LINE('',#305,#307);
#309=EDGE_CURVE('',#297,#278,#308,.T.);
#310=ORIENTED_EDGE('',*,*,#309,.T.);
#311=EDGE_LOOP('',(#287,#295,#304,#310));
#312=FACE_OUTER_BOUND('',#311,.T.);
#313=ADVANCED_FACE('',(#312),#276,.T.);
#314=CARTESIAN_POINT('',(-0.65625,-0.25,0.562));
#315=DIRECTION('',(0.0,-1.0,0.0));
#316=DIRECTION('',(0.0,0.0,1.0));
#317=AXIS2_PLACEMENT_3D('',#314,#315,#316);
#318=PLANE('',#317);
#319=CARTESIAN_POINT('',(-0.65625,-0.250000000000001,2.75));
#320=VERTEX_POINT('',#319);
#321=CARTESIAN_POINT('',(-0.65625,-0.25,0.562));
#322=VERTEX_POINT('',#321);
#323=CARTESIAN_POINT('',(-0.65625,-0.250000000000001,2.75));
#324=DIRECTION('',(0.0,0.0,-1.0));
#325=VECTOR('',#324,2.188);
#326=LINE('',#323,#325);
#327=EDGE_CURVE('',#320,#322,#326,.T.);
#328=ORIENTED_EDGE('',*,*,#327,.T.);
#329=CARTESIAN_POINT('',(0.65625,-0.250000000000001,0.562));
#330=VERTEX_POINT('',#329);
#331=CARTESIAN_POINT('',(-0.65625,-0.25,0.562));
#332=DIRECTION('',(1.0,0.0,0.0));
#333=VECTOR('',#332,1.3125);
#334=LINE('',#331,#333);
#335=EDGE_CURVE('',#322,#330,#334,.T.);
#336=ORIENTED_EDGE('',*,*,#335,.T.);
#337=CARTESIAN_POINT('',(0.65625,-0.250000000000002,2.750000000000002));
#338=VERTEX_POINT('',#337);
#339=CARTESIAN_POINT('',(0.65625,-0.250000000000001,0.562));
#340=DIRECTION('',(0.0,0.0,1.0));
#341=VECTOR('',#340,2.188000000000002);
#342=LINE('',#339,#341);
#343=EDGE_CURVE('',#330,#338,#342,.T.);
#344=ORIENTED_EDGE('',*,*,#343,.T.);
#345=CARTESIAN_POINT('',(-0.65625,-0.250000000000002,2.75));
#346=DIRECTION('',(1.0,0.0,0.0));
#347=VECTOR('',#346,1.3125);
#348=LINE('',#345,#347);
#349=EDGE_CURVE('',#320,#338,#348,.T.);
#350=ORIENTED_EDGE('',*,*,#349,.F.);
#351=EDGE_LOOP('',(#328,#336,#344,#350));
#352=FACE_OUTER_BOUND('',#351,.T.);
#353=CARTESIAN_POINT('',(-4.440892E-016,-0.250000000000002,2.250000000000001));
#354=DIRECTION('',(0.0,1.0,0.0));
#355=DIRECTION('',(1.0,0.0,0.0));
#356=AXIS2_PLACEMENT_3D('',#353,#354,#355);
#357=CIRCLE('',#356,0.171875);
#358=EDGE_CURVE('',#189,#172,#357,.T.);
#359=ORIENTED_EDGE('',*,*,#358,.T.);
#360=ORIENTED_EDGE('',*,*,#201,.T.);
#361=EDGE_LOOP('',(#359,#360));
#362=FACE_BOUND('',#361,.T.);
#363=CARTESIAN_POINT('',(-1.332268E-015,-0.250000000000001,0.921875));
#364=VERTEX_POINT('',#363);
#365=CARTESIAN_POINT('',(0.0,-0.250000000000001,0.750000000000001));
#366=DIRECTION('',(0.0,1.0,0.0));
#367=DIRECTION('',(-1.0,0.0,0.0));
#368=AXIS2_PLACEMENT_3D('',#365,#366,#367);
#369=CIRCLE('',#368,0.171875);
#370=EDGE_CURVE('',#364,#129,#369,.T.);
#371=ORIENTED_EDGE('',*,*,#370,.T.);
#372=ORIENTED_EDGE('',*,*,#135,.T.);
#373=CARTESIAN_POINT('',(0.0,-0.250000000000001,0.750000000000001));
#374=DIRECTION('',(0.0,1.0,0.0));
#375=DIRECTION('',(-1.0,0.0,0.0));
#376=AXIS2_PLACEMENT_3D('',#373,#374,#375);
#377=CIRCLE('',#376,0.171875);
#378=EDGE_CURVE('',#119,#364,#377,.T.);
#379=ORIENTED_EDGE('',*,*,#378,.T.);
#380=EDGE_LOOP('',(#371,#372,#379));
#381=FACE_BOUND('',#380,.T.);
#382=ADVANCED_FACE('',(#352,#362,#381),#318,.T.);
#383=CARTESIAN_POINT('',(0.65625,-8.881784E-016,1.5));
#384=DIRECTION('',(1.0,0.0,0.0));
#385=DIRECTION('',(0.0,0.0,-1.0));
#386=AXIS2_PLACEMENT_3D('',#383,#384,#385);
#387=PLANE('',#386);
#388=CARTESIAN_POINT('',(0.65625,-1.776357E-015,3.000000000000001));
#389=VERTEX_POINT('',#388);
#390=CARTESIAN_POINT('',(0.65625,-8.881784E-016,2.983724E-016));
#391=VERTEX_POINT('',#390);
#392=CARTESIAN_POINT('',(0.65625,-1.622942E-015,3.000000000000001));
#393=DIRECTION('',(0.0,0.0,-1.0));
#394=VECTOR('',#393,3.0);
#395=LINE('',#392,#394);
#396=EDGE_CURVE('',#389,#391,#395,.T.);
#397=ORIENTED_EDGE('',*,*,#396,.F.);
#398=CARTESIAN_POINT('',(0.65625,-1.776357E-015,2.750000000000001));
#399=DIRECTION('',(-1.0,9.184548E-017,-9.184548E-017));
#400=DIRECTION('',(-1.298891E-016,-0.707106781186548,0.707106781186547));
#401=AXIS2_PLACEMENT_3D('',#398,#399,#400);
#402=CIRCLE('',#401,0.25);
#403=EDGE_CURVE('',#338,#389,#402,.T.);
#404=ORIENTED_EDGE('',*,*,#403,.F.);
#405=ORIENTED_EDGE('',*,*,#343,.F.);
#406=CARTESIAN_POINT('',(0.65625,-0.562,0.25));
#407=VERTEX_POINT('',#406);
#408=CARTESIAN_POINT('',(0.65625,-0.562,0.562));
#409=DIRECTION('',(1.0,-2.028678E-016,2.028678E-016));
#410=DIRECTION('',(2.868984E-016,0.707106781186547,-0.707106781186547));
#411=AXIS2_PLACEMENT_3D('',#408,#409,#410);
#412=CIRCLE('',#411,0.312);
#413=EDGE_CURVE('',#407,#330,#412,.T.);
#414=ORIENTED_EDGE('',*,*,#413,.F.);
#415=CARTESIAN_POINT('',(0.65625,-2.75,0.249999999999999));
#416=DIRECTION('',(0.0,1.0,0.0));
#417=VECTOR('',#416,2.188);
#418=LINE('',#415,#417);
#419=EDGE_CURVE('',#297,#407,#418,.T.);
#420=ORIENTED_EDGE('',*,*,#419,.F.);
#421=ORIENTED_EDGE('',*,*,#303,.F.);
#422=CARTESIAN_POINT('',(0.65625,-8.881784E-016,-5.898060E-016));
#423=DIRECTION('',(0.0,-1.0,0.0));
#424=VECTOR('',#423,3.0);
#425=LINE('',#422,#424);
#426=EDGE_CURVE('',#391,#289,#425,.T.);
#427=ORIENTED_EDGE('',*,*,#426,.F.);
#428=EDGE_LOOP('',(#397,#404,#405,#414,#420,#421,#427));
#429=FACE_OUTER_BOUND('',#428,.T.);
#430=ADVANCED_FACE('',(#429),#387,.T.);
#431=CARTESIAN_POINT('',(-0.65625,-8.881784E-016,1.5));
#432=DIRECTION('',(0.0,1.0,0.0));
#433=DIRECTION('',(0.0,0.0,-1.0));
#434=AXIS2_PLACEMENT_3D('',#431,#432,#433);
#435=PLANE('',#434);
#436=CARTESIAN_POINT('',(-0.65625,0.0,-2.983724E-016));
#437=VERTEX_POINT('',#436);
#438=CARTESIAN_POINT('',(-0.65625,-8.881784E-016,3.0));
#439=VERTEX_POINT('',#438);
#440=CARTESIAN_POINT('',(-0.65625,0.0,-2.983724E-016));
#441=DIRECTION('',(0.0,0.0,1.0));
#442=VECTOR('',#441,3.0);
#443=LINE('',#440,#442);
#444=EDGE_CURVE('',#437,#439,#443,.T.);
#445=ORIENTED_EDGE('',*,*,#444,.T.);
#446=CARTESIAN_POINT('',(-0.65625,-8.881784E-016,3.0));
#447=DIRECTION('',(1.0,0.0,0.0));
#448=VECTOR('',#447,1.3125);
#449=LINE('',#446,#448);
#450=EDGE_CURVE('',#439,#389,#449,.T.);
#451=ORIENTED_EDGE('',*,*,#450,.T.);
#452=ORIENTED_EDGE('',*,*,#396,.T.);
#453=CARTESIAN_POINT('',(-0.65625,0.0,-2.983724E-016));
#454=DIRECTION('',(1.0,0.0,0.0));
#455=VECTOR('',#454,1.3125);
#456=LINE('',#453,#455);
#457=EDGE_CURVE('',#437,#391,#456,.T.);
#458=ORIENTED_EDGE('',*,*,#457,.F.);
#459=EDGE_LOOP('',(#445,#451,#452,#458));
#460=FACE_OUTER_BOUND('',#459,.T.);
#461=ORIENTED_EDGE('',*,*,#152,.T.);
#462=CARTESIAN_POINT('',(2.220446E-016,-8.881784E-016,0.750000000000001));
#463=DIRECTION('',(0.0,-1.0,0.0));
#464=DIRECTION('',(-1.0,0.0,0.0));
#465=AXIS2_PLACEMENT_3D('',#462,#463,#464);
#466=CIRCLE('',#465,0.171875);
#467=EDGE_CURVE('',#138,#121,#466,.T.);
#468=ORIENTED_EDGE('',*,*,#467,.T.);
#469=ORIENTED_EDGE('',*,*,#159,.T.);
#470=EDGE_LOOP('',(#461,#468,#469));
#471=FACE_BOUND('',#470,.T.);
#472=CARTESIAN_POINT('',(-4.440892E-016,-1.776357E-015,2.250000000000001));
#473=DIRECTION('',(0.0,-1.0,0.0));
#474=DIRECTION('',(1.0,0.0,0.0));
#475=AXIS2_PLACEMENT_3D('',#472,#473,#474);
#476=CIRCLE('',#475,0.171875);
#477=EDGE_CURVE('',#170,#180,#476,.T.);
#478=ORIENTED_EDGE('',*,*,#477,.T.);
#479=ORIENTED_EDGE('',*,*,#186,.T.);
#480=EDGE_LOOP('',(#478,#479));
#481=FACE_BOUND('',#480,.T.);
#482=ADVANCED_FACE('',(#460,#471,#481),#435,.T.);
#483=CARTESIAN_POINT('',(-4.440892E-016,-1.776357E-015,2.250000000000001));
#484=DIRECTION('',(-2.449213E-016,-1.0,-2.449213E-016));
#485=DIRECTION('',(1.0,0.0,0.0));
#486=AXIS2_PLACEMENT_3D('',#483,#484,#485);
#487=CYLINDRICAL_SURFACE('',#486,0.171875);
#488=ORIENTED_EDGE('',*,*,#177,.T.);
#489=ORIENTED_EDGE('',*,*,#358,.F.);
#490=ORIENTED_EDGE('',*,*,#194,.F.);
#491=ORIENTED_EDGE('',*,*,#477,.F.);
#492=EDGE_LOOP('',(#488,#489,#490,#491));
#493=FACE_OUTER_BOUND('',#492,.T.);
#494=ADVANCED_FACE('',(#493),#487,.F.);
#495=CARTESIAN_POINT('',(-0.656250000000001,-1.776357E-015,2.75));
#496=DIRECTION('',(1.0,-2.449213E-016,1.756173E-016));
#497=DIRECTION('',(-1.298891E-016,-0.707106781186548,0.707106781186547));
#498=AXIS2_PLACEMENT_3D('',#495,#496,#497);
#499=CYLINDRICAL_SURFACE('',#498,0.25);
#500=ORIENTED_EDGE('',*,*,#403,.T.);
#501=ORIENTED_EDGE('',*,*,#450,.F.);
#502=CARTESIAN_POINT('',(-0.656250000000001,-1.776357E-015,2.75));
#503=DIRECTION('',(1.0,-9.184548E-017,9.184548E-017));
#504=DIRECTION('',(-1.298891E-016,-0.707106781186548,0.707106781186547));
#505=AXIS2_PLACEMENT_3D('',#502,#503,#504);
#506=CIRCLE('',#505,0.25);
#507=EDGE_CURVE('',#439,#320,#506,.T.);
#508=ORIENTED_EDGE('',*,*,#507,.T.);
#509=ORIENTED_EDGE('',*,*,#349,.T.);
#510=EDGE_LOOP('',(#500,#501,#508,#509));
#511=FACE_OUTER_BOUND('',#510,.T.);
#512=ADVANCED_FACE('',(#511),#499,.T.);
#513=CARTESIAN_POINT('',(-0.65625,-0.575693607486308,0.575693607486307));
#514=DIRECTION('',(1.0,0.0,0.0));
#515=DIRECTION('',(0.0,0.0,-1.0));
#516=AXIS2_PLACEMENT_3D('',#513,#514,#515);
#517=PLANE('',#516);
#518=ORIENTED_EDGE('',*,*,#327,.F.);
#519=ORIENTED_EDGE('',*,*,#507,.F.);
#520=ORIENTED_EDGE('',*,*,#444,.F.);
#521=CARTESIAN_POINT('',(-0.65625,-3.0,-8.494453E-016));
#522=DIRECTION('',(0.0,1.0,0.0));
#523=VECTOR('',#522,3.0);
#524=LINE('',#521,#523);
#525=EDGE_CURVE('',#280,#437,#524,.T.);
#526=ORIENTED_EDGE('',*,*,#525,.F.);
#527=ORIENTED_EDGE('',*,*,#286,.F.);
#528=CARTESIAN_POINT('',(-0.65625,-0.562,0.25));
#529=VERTEX_POINT('',#528);
#530=CARTESIAN_POINT('',(-0.65625,-0.562,0.25));
#531=DIRECTION('',(0.0,-1.0,0.0));
#532=VECTOR('',#531,2.188000000000001);
#533=LINE('',#530,#532);
#534=EDGE_CURVE('',#529,#278,#533,.T.);
#535=ORIENTED_EDGE('',*,*,#534,.F.);
#536=CARTESIAN_POINT('',(-0.65625,-0.562,0.562));
#537=DIRECTION('',(-1.0,2.028678E-016,-2.028678E-016));
#538=DIRECTION('',(2.868984E-016,0.707106781186547,-0.707106781186547));
#539=AXIS2_PLACEMENT_3D('',#536,#537,#538);
#540=CIRCLE('',#539,0.312);
#541=EDGE_CURVE('',#322,#529,#540,.T.);
#542=ORIENTED_EDGE('',*,*,#541,.F.);
#543=EDGE_LOOP('',(#518,#519,#520,#526,#527,#535,#542));
#544=FACE_OUTER_BOUND('',#543,.T.);
#545=ADVANCED_FACE('',(#544),#517,.F.);
#546=CARTESIAN_POINT('',(0.0,-0.500000000000001,0.75));
#547=DIRECTION('',(2.449213E-016,1.0,2.449213E-016));
#548=DIRECTION('',(-1.0,0.0,0.0));
#549=AXIS2_PLACEMENT_3D('',#546,#547,#548);
#550=CYLINDRICAL_SURFACE('',#549,0.171875);
#551=ORIENTED_EDGE('',*,*,#126,.T.);
#552=ORIENTED_EDGE('',*,*,#467,.F.);
#553=ORIENTED_EDGE('',*,*,#143,.F.);
#554=ORIENTED_EDGE('',*,*,#370,.F.);
#555=ORIENTED_EDGE('',*,*,#378,.F.);
#556=EDGE_LOOP('',(#551,#552,#553,#554,#555));
#557=FACE_OUTER_BOUND('',#556,.T.);
#558=ADVANCED_FACE('',(#557),#550,.F.);
#559=CARTESIAN_POINT('',(-4.440892E-016,-0.750000000000001,-1.377682E-016));
#560=DIRECTION('',(6.123032E-017,-2.449213E-016,1.0));
#561=DIRECTION('',(0.0,1.0,0.0));
#562=AXIS2_PLACEMENT_3D('',#559,#560,#561);
#563=CYLINDRICAL_SURFACE('',#562,0.171875);
#564=ORIENTED_EDGE('',*,*,#84,.T.);
#565=CARTESIAN_POINT('',(-0.171875,-0.750000000000002,0.249999999999999));
#566=VERTEX_POINT('',#565);
#567=CARTESIAN_POINT('',(-2.220446E-016,-0.750000000000001,0.25));
#568=DIRECTION('',(0.0,0.0,-1.0));
#569=DIRECTION('',(0.0,1.0,0.0));
#570=AXIS2_PLACEMENT_3D('',#567,#568,#569);
#571=CIRCLE('',#570,0.171875);
#572=EDGE_CURVE('',#566,#79,#571,.T.);
#573=ORIENTED_EDGE('',*,*,#572,.F.);
#574=CARTESIAN_POINT('',(-2.220446E-016,-0.750000000000001,0.25));
#575=DIRECTION('',(0.0,0.0,-1.0));
#576=DIRECTION('',(0.0,1.0,0.0));
#577=AXIS2_PLACEMENT_3D('',#574,#575,#576);
#578=CIRCLE('',#577,0.171875);
#579=EDGE_CURVE('',#96,#566,#578,.T.);
#580=ORIENTED_EDGE('',*,*,#579,.F.);
#581=ORIENTED_EDGE('',*,*,#101,.F.);
#582=CARTESIAN_POINT('',(-4.440892E-016,-0.750000000000001,-5.818574E-016));
#583=DIRECTION('',(0.0,0.0,1.0));
#584=DIRECTION('',(0.0,1.0,0.0));
#585=AXIS2_PLACEMENT_3D('',#582,#583,#584);
#586=CIRCLE('',#585,0.171875);
#587=EDGE_CURVE('',#77,#87,#586,.T.);
#588=ORIENTED_EDGE('',*,*,#587,.F.);
#589=EDGE_LOOP('',(#564,#573,#580,#581,#588));
#590=FACE_OUTER_BOUND('',#589,.T.);
#591=ADVANCED_FACE('',(#590),#563,.F.);
#592=CARTESIAN_POINT('',(-0.65625,0.0,-2.983724E-016));
#593=DIRECTION('',(0.0,0.0,-1.0));
#594=DIRECTION('',(0.0,-1.0,0.0));
#595=AXIS2_PLACEMENT_3D('',#592,#593,#594);
#596=PLANE('',#595);
#597=ORIENTED_EDGE('',*,*,#426,.T.);
#598=ORIENTED_EDGE('',*,*,#294,.T.);
#599=ORIENTED_EDGE('',*,*,#525,.T.);
#600=ORIENTED_EDGE('',*,*,#457,.T.);
#601=EDGE_LOOP('',(#597,#598,#599,#600));
#602=FACE_OUTER_BOUND('',#601,.T.);
#603=ORIENTED_EDGE('',*,*,#267,.T.);
#604=ORIENTED_EDGE('',*,*,#228,.T.);
#605=EDGE_LOOP('',(#603,#604));
#606=FACE_BOUND('',#605,.T.);
#607=ORIENTED_EDGE('',*,*,#587,.T.);
#608=ORIENTED_EDGE('',*,*,#93,.T.);
#609=EDGE_LOOP('',(#607,#608));
#610=FACE_BOUND('',#609,.T.);
#611=ADVANCED_FACE('',(#602,#606,#610),#596,.T.);
#612=CARTESIAN_POINT('',(-0.65625,-1.250000000000001,0.249999999999999));
#613=DIRECTION('',(0.0,0.0,1.0));
#614=DIRECTION('',(0.0,1.0,0.0));
#615=AXIS2_PLACEMENT_3D('',#612,#613,#614);
#616=PLANE('',#615);
#617=ORIENTED_EDGE('',*,*,#419,.T.);
#618=CARTESIAN_POINT('',(-0.65625,-0.562,0.25));
#619=DIRECTION('',(1.0,0.0,0.0));
#620=VECTOR('',#619,1.3125);
#621=LINE('',#618,#620);
#622=EDGE_CURVE('',#529,#407,#621,.T.);
#623=ORIENTED_EDGE('',*,*,#622,.F.);
#624=ORIENTED_EDGE('',*,*,#534,.T.);
#625=ORIENTED_EDGE('',*,*,#309,.F.);
#626=EDGE_LOOP('',(#617,#623,#624,#625));
#627=FACE_OUTER_BOUND('',#626,.T.);
#628=ORIENTED_EDGE('',*,*,#259,.T.);
#629=ORIENTED_EDGE('',*,*,#243,.T.);
#630=EDGE_LOOP('',(#628,#629));
#631=FACE_BOUND('',#630,.T.);
#632=ORIENTED_EDGE('',*,*,#572,.T.);
#633=ORIENTED_EDGE('',*,*,#108,.T.);
#634=ORIENTED_EDGE('',*,*,#579,.T.);
#635=EDGE_LOOP('',(#632,#633,#634));
#636=FACE_BOUND('',#635,.T.);
#637=ADVANCED_FACE('',(#627,#631,#636),#616,.T.);
#638=CARTESIAN_POINT('',(-0.65625,-0.562,0.562));
#639=DIRECTION('',(1.0,-2.449213E-016,1.079465E-016));
#640=DIRECTION('',(2.495152E-016,0.707106781186547,-0.707106781186547));
#641=AXIS2_PLACEMENT_3D('',#638,#639,#640);
#642=CYLINDRICAL_SURFACE('',#641,0.312);
#643=ORIENTED_EDGE('',*,*,#413,.T.);
#644=ORIENTED_EDGE('',*,*,#335,.F.);
#645=ORIENTED_EDGE('',*,*,#541,.T.);
#646=ORIENTED_EDGE('',*,*,#622,.T.);
#647=EDGE_LOOP('',(#643,#644,#645,#646));
#648=FACE_OUTER_BOUND('',#647,.T.);
#649=ADVANCED_FACE('',(#648),#642,.F.);
#650=CLOSED_SHELL('',(#112,#163,#205,#247,#271,#313,#382,#430,#482,#494,#512,#545,#558,#591,#611,#637,#649));
#651=MANIFOLD_SOLID_BREP('55',#650);
#652=DRAUGHTING_PRE_DEFINED_COLOUR('white');
#653=SURFACE_STYLE_USAGE(.BOTH.,#654);
#654=SURFACE_SIDE_STYLE('NONE',(#655));
#655=SURFACE_STYLE_FILL_AREA(#656);
#656=FILL_AREA_STYLE('NONE',(#657));
#657=FILL_AREA_STYLE_COLOUR('NONE',#652);
#658=PRESENTATION_STYLE_ASSIGNMENT((#653));
#659=STYLED_ITEM('NONE',(#658),#651);
#660=MECHANICAL_DESIGN_GEOMETRIC_PRESENTATION_REPRESENTATION('NONE',(#659),#34);
#661=PRESENTATION_LAYER_ASSIGNMENT('15cb4804','None',(#651));
#662=ADVANCED_BREP_SHAPE_REPRESENTATION('ABSR1',(#651),#34);
#663=SHAPE_REPRESENTATION_RELATIONSHIP('SRRPL1','',#662,#68);
ENDSEC;
END-ISO-10303-21;
