ISO-10303-21;
HEADER;
/****************************************************************
 * Generated by software with PDElib inside                    *
 * PDElib Version v51a, created Fri 09/10/2010                  *
 * ITI Transcendata (http://www.transcendata.com/)              *
 ****************************************************************/
FILE_DESCRIPTION((''),'2;1');
FILE_NAME('15BP2588.stp','2015-07-20T13:19:06',(''),(''),'Mechanical Desktop 2011','Mechanical Desktop 2011',', , ');
FILE_SCHEMA(('AUTOMOTIVE_DESIGN { 1 2 10303 214 1 1 1 1 }'));
ENDSEC;
DATA;
#10=(NAMED_UNIT(*)PLANE_ANGLE_UNIT()SI_UNIT($,.RADIAN.));
#11=DIMENSIONAL_EXPONENTS(0.0,0.0,0.0,0.0,0.0,0.0,0.0);
#12=PLANE_ANGLE_MEASURE_WITH_UNIT(PLANE_ANGLE_MEASURE(0.0174532925),#10);
#16=(CONVERSION_BASED_UNIT('DEGREE',#12)NAMED_UNIT(#11)PLANE_ANGLE_UNIT());
#20=(NAMED_UNIT(*)SI_UNIT($,.STERADIAN.)SOLID_ANGLE_UNIT());
#24=(LENGTH_UNIT()NAMED_UNIT(*)SI_UNIT(.CENTI.,.METRE.));
#25=DIMENSIONAL_EXPONENTS(1.0,0.0,0.0,0.0,0.0,0.0,0.0);
#26=LENGTH_MEASURE_WITH_UNIT(LENGTH_MEASURE(2.54),#24);
#30=(CONVERSION_BASED_UNIT('INCH',#26)LENGTH_UNIT()NAMED_UNIT(#25));
#32=UNCERTAINTY_MEASURE_WITH_UNIT(LENGTH_MEASURE(0.000001),#30,'DISTANCE_ACCURACY_VALUE','');
#34=(GEOMETRIC_REPRESENTATION_CONTEXT(3)GLOBAL_UNCERTAINTY_ASSIGNED_CONTEXT((#32))GLOBAL_UNIT_ASSIGNED_CONTEXT((#16,#20,#30))REPRESENTATION_CONTEXT('','3D'));
#35=APPLICATION_CONTEXT('automotive design');
#36=APPLICATION_PROTOCOL_DEFINITION('INTERNATIONAL_STANDARD','automotive_design',1998,#35);
#37=PRODUCT_CONTEXT('3D Mechanical Parts',#35,'mechanical');
#38=PRODUCT('Product','Product','',(#37));
#39=PRODUCT_RELATED_PRODUCT_CATEGORY('part',$,(#38));
#40=PRODUCT_CATEGORY('part',$);
#41=PERSON('1','Design','Joe',$,$,$);
#42=ORGANIZATION($,'None','None');
#43=PERSON_AND_ORGANIZATION(#41,#42);
#44=PERSON_AND_ORGANIZATION_ROLE('design_owner');
#45=APPLIED_PERSON_AND_ORGANIZATION_ASSIGNMENT(#43,#44,(#38));
#46=PRODUCT_DEFINITION_FORMATION_WITH_SPECIFIED_SOURCE('None','',#38,.BOUGHT.);
#47=PERSON('2','Creator','Joe',$,$,$);
#48=ORGANIZATION($,'None','None');
#49=PERSON_AND_ORGANIZATION(#47,#48);
#50=PERSON_AND_ORGANIZATION_ROLE('creator');
#51=APPLIED_PERSON_AND_ORGANIZATION_ASSIGNMENT(#49,#50,(#46));
#52=PERSON('3','Supplier','Joe',$,$,$);
#53=ORGANIZATION($,'None','None');
#54=PERSON_AND_ORGANIZATION(#52,#53);
#55=PERSON_AND_ORGANIZATION_ROLE('design_supplier');
#56=APPLIED_PERSON_AND_ORGANIZATION_ASSIGNMENT(#54,#55,(#46));
#57=PRODUCT_DEFINITION_CONTEXT('part definition',#35,'design');
#58=PRODUCT_DEFINITION('None','',#46,#57);
#59=PERSON('4','Creator','Joe',$,$,$);
#60=ORGANIZATION($,'None','None');
#61=PERSON_AND_ORGANIZATION(#59,#60);
#62=PERSON_AND_ORGANIZATION_ROLE('creator');
#63=APPLIED_PERSON_AND_ORGANIZATION_ASSIGNMENT(#61,#62,(#58));
#64=CARTESIAN_POINT('NONE',(0.0,0.0,0.0));
#65=DIRECTION('NONE',(0.0,0.0,1.0));
#66=DIRECTION('NONE',(1.0,0.0,0.0));
#67=AXIS2_PLACEMENT_3D('NONE',#64,#65,#66);
#68=SHAPE_REPRESENTATION('SR1',(#67),#34);
#69=PRODUCT_DEFINITION_SHAPE('PDS1','Test Part',#58);
#70=SHAPE_DEFINITION_REPRESENTATION(#69,#68);
#71=CARTESIAN_POINT('',(0.75,0.75,0.75));
#72=DIRECTION('',(4.440892E-016,-1.224606E-016,-1.0));
#73=DIRECTION('',(1.0,0.0,0.0));
#74=AXIS2_PLACEMENT_3D('',#71,#72,#73);
#75=CYLINDRICAL_SURFACE('',#74,0.171);
#76=CARTESIAN_POINT('',(0.921,0.75,0.75));
#77=VERTEX_POINT('',#76);
#78=CARTESIAN_POINT('',(0.921,0.75,0.32));
#79=VERTEX_POINT('',#78);
#80=CARTESIAN_POINT('',(0.921,0.75,0.75));
#81=DIRECTION('',(0.0,0.0,-1.0));
#82=VECTOR('',#81,0.43);
#83=LINE('',#80,#82);
#84=EDGE_CURVE('',#77,#79,#83,.T.);
#85=ORIENTED_EDGE('',*,*,#84,.F.);
#86=CARTESIAN_POINT('',(0.579,0.75,0.75));
#87=VERTEX_POINT('',#86);
#88=CARTESIAN_POINT('',(0.75,0.75,0.75));
#89=DIRECTION('',(0.0,0.0,-1.0));
#90=DIRECTION('',(1.0,0.0,0.0));
#91=AXIS2_PLACEMENT_3D('',#88,#89,#90);
#92=CIRCLE('',#91,0.171);
#93=EDGE_CURVE('',#87,#77,#92,.T.);
#94=ORIENTED_EDGE('',*,*,#93,.F.);
#95=CARTESIAN_POINT('',(0.579,0.75,0.32));
#96=VERTEX_POINT('',#95);
#97=CARTESIAN_POINT('',(0.579,0.75,0.75));
#98=DIRECTION('',(0.0,0.0,-1.0));
#99=VECTOR('',#98,0.43);
#100=LINE('',#97,#99);
#101=EDGE_CURVE('',#87,#96,#100,.T.);
#102=ORIENTED_EDGE('',*,*,#101,.T.);
#103=CARTESIAN_POINT('',(0.75,0.75,0.32));
#104=DIRECTION('',(0.0,0.0,1.0));
#105=DIRECTION('',(1.0,0.0,0.0));
#106=AXIS2_PLACEMENT_3D('',#103,#104,#105);
#107=CIRCLE('',#106,0.171);
#108=EDGE_CURVE('',#79,#96,#107,.T.);
#109=ORIENTED_EDGE('',*,*,#108,.F.);
#110=EDGE_LOOP('',(#85,#94,#102,#109));
#111=FACE_OUTER_BOUND('',#110,.T.);
#112=ADVANCED_FACE('',(#111),#75,.F.);
#113=CARTESIAN_POINT('',(0.75,0.75,0.32));
#114=DIRECTION('',(4.440892E-016,-1.224606E-016,-1.0));
#115=DIRECTION('',(1.0,0.0,0.0));
#116=AXIS2_PLACEMENT_3D('',#113,#114,#115);
#117=CYLINDRICAL_SURFACE('',#116,0.265);
#118=CARTESIAN_POINT('',(1.015,0.75,0.32));
#119=VERTEX_POINT('',#118);
#120=CARTESIAN_POINT('',(1.015,0.75,2.220446E-016));
#121=VERTEX_POINT('',#120);
#122=CARTESIAN_POINT('',(1.015,0.75,0.32));
#123=DIRECTION('',(0.0,0.0,-1.0));
#124=VECTOR('',#123,0.32);
#125=LINE('',#122,#124);
#126=EDGE_CURVE('',#119,#121,#125,.T.);
#127=ORIENTED_EDGE('',*,*,#126,.F.);
#128=CARTESIAN_POINT('',(0.485,0.75,0.32));
#129=VERTEX_POINT('',#128);
#130=CARTESIAN_POINT('',(0.75,0.75,0.32));
#131=DIRECTION('',(0.0,0.0,-1.0));
#132=DIRECTION('',(1.0,0.0,0.0));
#133=AXIS2_PLACEMENT_3D('',#130,#131,#132);
#134=CIRCLE('',#133,0.265);
#135=EDGE_CURVE('',#129,#119,#134,.T.);
#136=ORIENTED_EDGE('',*,*,#135,.F.);
#137=CARTESIAN_POINT('',(0.485,0.75,1.110223E-016));
#138=VERTEX_POINT('',#137);
#139=CARTESIAN_POINT('',(0.485,0.75,0.32));
#140=DIRECTION('',(0.0,0.0,-1.0));
#141=VECTOR('',#140,0.32);
#142=LINE('',#139,#141);
#143=EDGE_CURVE('',#129,#138,#142,.T.);
#144=ORIENTED_EDGE('',*,*,#143,.T.);
#145=CARTESIAN_POINT('',(0.75,0.75,2.220446E-016));
#146=DIRECTION('',(0.0,0.0,1.0));
#147=DIRECTION('',(1.0,0.0,0.0));
#148=AXIS2_PLACEMENT_3D('',#145,#146,#147);
#149=CIRCLE('',#148,0.265);
#150=EDGE_CURVE('',#121,#138,#149,.T.);
#151=ORIENTED_EDGE('',*,*,#150,.F.);
#152=EDGE_LOOP('',(#127,#136,#144,#151));
#153=FACE_OUTER_BOUND('',#152,.T.);
#154=ADVANCED_FACE('',(#153),#117,.F.);
#155=CARTESIAN_POINT('',(0.75,2.25,0.75));
#156=DIRECTION('',(4.440892E-016,-1.224606E-016,-1.0));
#157=DIRECTION('',(1.0,0.0,0.0));
#158=AXIS2_PLACEMENT_3D('',#155,#156,#157);
#159=CYLINDRICAL_SURFACE('',#158,0.171);
#160=CARTESIAN_POINT('',(0.921,2.25,0.75));
#161=VERTEX_POINT('',#160);
#162=CARTESIAN_POINT('',(0.921,2.25,0.32));
#163=VERTEX_POINT('',#162);
#164=CARTESIAN_POINT('',(0.921,2.25,0.75));
#165=DIRECTION('',(0.0,0.0,-1.0));
#166=VECTOR('',#165,0.43);
#167=LINE('',#164,#166);
#168=EDGE_CURVE('',#161,#163,#167,.T.);
#169=ORIENTED_EDGE('',*,*,#168,.F.);
#170=CARTESIAN_POINT('',(0.579,2.25,0.75));
#171=VERTEX_POINT('',#170);
#172=CARTESIAN_POINT('',(0.75,2.25,0.75));
#173=DIRECTION('',(0.0,0.0,-1.0));
#174=DIRECTION('',(1.0,0.0,0.0));
#175=AXIS2_PLACEMENT_3D('',#172,#173,#174);
#176=CIRCLE('',#175,0.171);
#177=EDGE_CURVE('',#171,#161,#176,.T.);
#178=ORIENTED_EDGE('',*,*,#177,.F.);
#179=CARTESIAN_POINT('',(0.579,2.25,0.32));
#180=VERTEX_POINT('',#179);
#181=CARTESIAN_POINT('',(0.579,2.25,0.75));
#182=DIRECTION('',(0.0,0.0,-1.0));
#183=VECTOR('',#182,0.43);
#184=LINE('',#181,#183);
#185=EDGE_CURVE('',#171,#180,#184,.T.);
#186=ORIENTED_EDGE('',*,*,#185,.T.);
#187=CARTESIAN_POINT('',(0.75,2.25,0.32));
#188=DIRECTION('',(0.0,0.0,1.0));
#189=DIRECTION('',(1.0,0.0,0.0));
#190=AXIS2_PLACEMENT_3D('',#187,#188,#189);
#191=CIRCLE('',#190,0.171);
#192=EDGE_CURVE('',#163,#180,#191,.T.);
#193=ORIENTED_EDGE('',*,*,#192,.F.);
#194=EDGE_LOOP('',(#169,#178,#186,#193));
#195=FACE_OUTER_BOUND('',#194,.T.);
#196=ADVANCED_FACE('',(#195),#159,.F.);
#197=CARTESIAN_POINT('',(0.75,2.25,0.32));
#198=DIRECTION('',(4.440892E-016,-1.224606E-016,-1.0));
#199=DIRECTION('',(1.0,0.0,0.0));
#200=AXIS2_PLACEMENT_3D('',#197,#198,#199);
#201=CYLINDRICAL_SURFACE('',#200,0.265);
#202=CARTESIAN_POINT('',(1.015,2.25,0.32));
#203=VERTEX_POINT('',#202);
#204=CARTESIAN_POINT('',(1.015,2.25,2.220446E-016));
#205=VERTEX_POINT('',#204);
#206=CARTESIAN_POINT('',(1.015,2.25,0.32));
#207=DIRECTION('',(0.0,0.0,-1.0));
#208=VECTOR('',#207,0.32);
#209=LINE('',#206,#208);
#210=EDGE_CURVE('',#203,#205,#209,.T.);
#211=ORIENTED_EDGE('',*,*,#210,.F.);
#212=CARTESIAN_POINT('',(0.485,2.25,0.32));
#213=VERTEX_POINT('',#212);
#214=CARTESIAN_POINT('',(0.75,2.25,0.32));
#215=DIRECTION('',(0.0,0.0,-1.0));
#216=DIRECTION('',(1.0,0.0,0.0));
#217=AXIS2_PLACEMENT_3D('',#214,#215,#216);
#218=CIRCLE('',#217,0.265);
#219=EDGE_CURVE('',#213,#203,#218,.T.);
#220=ORIENTED_EDGE('',*,*,#219,.F.);
#221=CARTESIAN_POINT('',(0.485,2.25,-1.110223E-016));
#222=VERTEX_POINT('',#221);
#223=CARTESIAN_POINT('',(0.485,2.25,0.32));
#224=DIRECTION('',(0.0,0.0,-1.0));
#225=VECTOR('',#224,0.32);
#226=LINE('',#223,#225);
#227=EDGE_CURVE('',#213,#222,#226,.T.);
#228=ORIENTED_EDGE('',*,*,#227,.T.);
#229=CARTESIAN_POINT('',(0.75,2.25,0.0));
#230=DIRECTION('',(0.0,0.0,1.0));
#231=DIRECTION('',(1.0,0.0,0.0));
#232=AXIS2_PLACEMENT_3D('',#229,#230,#231);
#233=CIRCLE('',#232,0.265);
#234=EDGE_CURVE('',#205,#222,#233,.T.);
#235=ORIENTED_EDGE('',*,*,#234,.F.);
#236=EDGE_LOOP('',(#211,#220,#228,#235));
#237=FACE_OUTER_BOUND('',#236,.T.);
#238=ADVANCED_FACE('',(#237),#201,.F.);
#239=CARTESIAN_POINT('',(2.25,2.25,0.750000000000001));
#240=DIRECTION('',(4.440892E-016,-1.224606E-016,-1.0));
#241=DIRECTION('',(1.0,0.0,0.0));
#242=AXIS2_PLACEMENT_3D('',#239,#240,#241);
#243=CYLINDRICAL_SURFACE('',#242,0.171);
#244=CARTESIAN_POINT('',(2.421,2.25,0.750000000000001));
#245=VERTEX_POINT('',#244);
#246=CARTESIAN_POINT('',(2.421,2.25,0.320000000000001));
#247=VERTEX_POINT('',#246);
#248=CARTESIAN_POINT('',(2.420999999999999,2.25,0.750000000000001));
#249=DIRECTION('',(0.0,0.0,-1.0));
#250=VECTOR('',#249,0.43);
#251=LINE('',#248,#250);
#252=EDGE_CURVE('',#245,#247,#251,.T.);
#253=ORIENTED_EDGE('',*,*,#252,.F.);
#254=CARTESIAN_POINT('',(2.079,2.25,0.750000000000001));
#255=VERTEX_POINT('',#254);
#256=CARTESIAN_POINT('',(2.25,2.25,0.750000000000001));
#257=DIRECTION('',(0.0,0.0,-1.0));
#258=DIRECTION('',(1.0,0.0,0.0));
#259=AXIS2_PLACEMENT_3D('',#256,#257,#258);
#260=CIRCLE('',#259,0.171);
#261=EDGE_CURVE('',#255,#245,#260,.T.);
#262=ORIENTED_EDGE('',*,*,#261,.F.);
#263=CARTESIAN_POINT('',(2.079,2.25,0.320000000000001));
#264=VERTEX_POINT('',#263);
#265=CARTESIAN_POINT('',(2.079,2.25,0.750000000000001));
#266=DIRECTION('',(0.0,0.0,-1.0));
#267=VECTOR('',#266,0.43);
#268=LINE('',#265,#267);
#269=EDGE_CURVE('',#255,#264,#268,.T.);
#270=ORIENTED_EDGE('',*,*,#269,.T.);
#271=CARTESIAN_POINT('',(2.25,2.25,0.320000000000001));
#272=DIRECTION('',(0.0,0.0,1.0));
#273=DIRECTION('',(1.0,0.0,0.0));
#274=AXIS2_PLACEMENT_3D('',#271,#272,#273);
#275=CIRCLE('',#274,0.171);
#276=EDGE_CURVE('',#247,#264,#275,.T.);
#277=ORIENTED_EDGE('',*,*,#276,.F.);
#278=EDGE_LOOP('',(#253,#262,#270,#277));
#279=FACE_OUTER_BOUND('',#278,.T.);
#280=ADVANCED_FACE('',(#279),#243,.F.);
#281=CARTESIAN_POINT('',(2.25,2.25,0.320000000000001));
#282=DIRECTION('',(4.440892E-016,-1.224606E-016,-1.0));
#283=DIRECTION('',(1.0,0.0,0.0));
#284=AXIS2_PLACEMENT_3D('',#281,#282,#283);
#285=CYLINDRICAL_SURFACE('',#284,0.265);
#286=CARTESIAN_POINT('',(2.515,2.25,0.320000000000001));
#287=VERTEX_POINT('',#286);
#288=CARTESIAN_POINT('',(2.515,2.25,6.661338E-016));
#289=VERTEX_POINT('',#288);
#290=CARTESIAN_POINT('',(2.515,2.25,0.320000000000001));
#291=DIRECTION('',(0.0,0.0,-1.0));
#292=VECTOR('',#291,0.32);
#293=LINE('',#290,#292);
#294=EDGE_CURVE('',#287,#289,#293,.T.);
#295=ORIENTED_EDGE('',*,*,#294,.F.);
#296=CARTESIAN_POINT('',(1.984999999999999,2.25,0.320000000000001));
#297=VERTEX_POINT('',#296);
#298=CARTESIAN_POINT('',(2.25,2.25,0.320000000000001));
#299=DIRECTION('',(0.0,0.0,-1.0));
#300=DIRECTION('',(1.0,0.0,0.0));
#301=AXIS2_PLACEMENT_3D('',#298,#299,#300);
#302=CIRCLE('',#301,0.265);
#303=EDGE_CURVE('',#297,#287,#302,.T.);
#304=ORIENTED_EDGE('',*,*,#303,.F.);
#305=CARTESIAN_POINT('',(1.985,2.25,5.551115E-016));
#306=VERTEX_POINT('',#305);
#307=CARTESIAN_POINT('',(1.984999999999999,2.25,0.320000000000001));
#308=DIRECTION('',(0.0,0.0,-1.0));
#309=VECTOR('',#308,0.32);
#310=LINE('',#307,#309);
#311=EDGE_CURVE('',#297,#306,#310,.T.);
#312=ORIENTED_EDGE('',*,*,#311,.T.);
#313=CARTESIAN_POINT('',(2.25,2.25,6.661338E-016));
#314=DIRECTION('',(0.0,0.0,1.0));
#315=DIRECTION('',(1.0,0.0,0.0));
#316=AXIS2_PLACEMENT_3D('',#313,#314,#315);
#317=CIRCLE('',#316,0.265);
#318=EDGE_CURVE('',#289,#306,#317,.T.);
#319=ORIENTED_EDGE('',*,*,#318,.F.);
#320=EDGE_LOOP('',(#295,#304,#312,#319));
#321=FACE_OUTER_BOUND('',#320,.T.);
#322=ADVANCED_FACE('',(#321),#285,.F.);
#323=CARTESIAN_POINT('',(2.25,0.75,0.750000000000001));
#324=DIRECTION('',(4.440892E-016,-1.224606E-016,-1.0));
#325=DIRECTION('',(1.0,0.0,0.0));
#326=AXIS2_PLACEMENT_3D('',#323,#324,#325);
#327=CYLINDRICAL_SURFACE('',#326,0.171);
#328=CARTESIAN_POINT('',(2.420999999999999,0.75,0.750000000000001));
#329=VERTEX_POINT('',#328);
#330=CARTESIAN_POINT('',(2.421,0.75,8.881784E-016));
#331=VERTEX_POINT('',#330);
#332=CARTESIAN_POINT('',(2.420999999999999,0.75,0.750000000000001));
#333=DIRECTION('',(0.0,0.0,-1.0));
#334=VECTOR('',#333,0.75);
#335=LINE('',#332,#334);
#336=EDGE_CURVE('',#329,#331,#335,.T.);
#337=ORIENTED_EDGE('',*,*,#336,.F.);
#338=CARTESIAN_POINT('',(2.079,0.75,0.750000000000001));
#339=VERTEX_POINT('',#338);
#340=CARTESIAN_POINT('',(2.25,0.75,0.750000000000001));
#341=DIRECTION('',(0.0,0.0,-1.0));
#342=DIRECTION('',(1.0,0.0,0.0));
#343=AXIS2_PLACEMENT_3D('',#340,#341,#342);
#344=CIRCLE('',#343,0.171);
#345=EDGE_CURVE('',#339,#329,#344,.T.);
#346=ORIENTED_EDGE('',*,*,#345,.F.);
#347=CARTESIAN_POINT('',(2.079,0.75,7.771561E-016));
#348=VERTEX_POINT('',#347);
#349=CARTESIAN_POINT('',(2.079,0.75,0.750000000000001));
#350=DIRECTION('',(0.0,0.0,-1.0));
#351=VECTOR('',#350,0.75);
#352=LINE('',#349,#351);
#353=EDGE_CURVE('',#339,#348,#352,.T.);
#354=ORIENTED_EDGE('',*,*,#353,.T.);
#355=CARTESIAN_POINT('',(2.25,0.75,8.881784E-016));
#356=DIRECTION('',(0.0,0.0,1.0));
#357=DIRECTION('',(1.0,0.0,0.0));
#358=AXIS2_PLACEMENT_3D('',#355,#356,#357);
#359=CIRCLE('',#358,0.171);
#360=EDGE_CURVE('',#331,#348,#359,.T.);
#361=ORIENTED_EDGE('',*,*,#360,.F.);
#362=EDGE_LOOP('',(#337,#346,#354,#361));
#363=FACE_OUTER_BOUND('',#362,.T.);
#364=ADVANCED_FACE('',(#363),#327,.F.);
#365=CARTESIAN_POINT('',(2.25,0.75,0.750000000000001));
#366=DIRECTION('',(4.440892E-016,-1.224606E-016,-1.0));
#367=DIRECTION('',(1.0,0.0,0.0));
#368=AXIS2_PLACEMENT_3D('',#365,#366,#367);
#369=CYLINDRICAL_SURFACE('',#368,0.171);
#370=ORIENTED_EDGE('',*,*,#336,.T.);
#371=CARTESIAN_POINT('',(2.25,0.75,8.881784E-016));
#372=DIRECTION('',(0.0,0.0,1.0));
#373=DIRECTION('',(1.0,0.0,0.0));
#374=AXIS2_PLACEMENT_3D('',#371,#372,#373);
#375=CIRCLE('',#374,0.171);
#376=EDGE_CURVE('',#348,#331,#375,.T.);
#377=ORIENTED_EDGE('',*,*,#376,.F.);
#378=ORIENTED_EDGE('',*,*,#353,.F.);
#379=CARTESIAN_POINT('',(2.25,0.75,0.750000000000001));
#380=DIRECTION('',(0.0,0.0,-1.0));
#381=DIRECTION('',(1.0,0.0,0.0));
#382=AXIS2_PLACEMENT_3D('',#379,#380,#381);
#383=CIRCLE('',#382,0.171);
#384=EDGE_CURVE('',#329,#339,#383,.T.);
#385=ORIENTED_EDGE('',*,*,#384,.F.);
#386=EDGE_LOOP('',(#370,#377,#378,#385));
#387=FACE_OUTER_BOUND('',#386,.T.);
#388=ADVANCED_FACE('',(#387),#369,.F.);
#389=CARTESIAN_POINT('',(2.25,2.250000000000001,0.320000000000001));
#390=DIRECTION('',(0.0,0.0,-1.0));
#391=DIRECTION('',(1.0,0.0,0.0));
#392=AXIS2_PLACEMENT_3D('',#389,#390,#391);
#393=PLANE('',#392);
#394=CARTESIAN_POINT('',(2.25,2.25,0.320000000000001));
#395=DIRECTION('',(0.0,0.0,-1.0));
#396=DIRECTION('',(1.0,0.0,0.0));
#397=AXIS2_PLACEMENT_3D('',#394,#395,#396);
#398=CIRCLE('',#397,0.265);
#399=EDGE_CURVE('',#287,#297,#398,.T.);
#400=ORIENTED_EDGE('',*,*,#399,.T.);
#401=ORIENTED_EDGE('',*,*,#303,.T.);
#402=EDGE_LOOP('',(#400,#401));
#403=FACE_OUTER_BOUND('',#402,.T.);
#404=ORIENTED_EDGE('',*,*,#276,.T.);
#405=CARTESIAN_POINT('',(2.25,2.25,0.320000000000001));
#406=DIRECTION('',(0.0,0.0,1.0));
#407=DIRECTION('',(1.0,0.0,0.0));
#408=AXIS2_PLACEMENT_3D('',#405,#406,#407);
#409=CIRCLE('',#408,0.171);
#410=EDGE_CURVE('',#264,#247,#409,.T.);
#411=ORIENTED_EDGE('',*,*,#410,.T.);
#412=EDGE_LOOP('',(#404,#411));
#413=FACE_BOUND('',#412,.T.);
#414=ADVANCED_FACE('',(#403,#413),#393,.T.);
#415=CARTESIAN_POINT('',(2.25,2.25,0.320000000000001));
#416=DIRECTION('',(4.440892E-016,-1.224606E-016,-1.0));
#417=DIRECTION('',(1.0,0.0,0.0));
#418=AXIS2_PLACEMENT_3D('',#415,#416,#417);
#419=CYLINDRICAL_SURFACE('',#418,0.265);
#420=ORIENTED_EDGE('',*,*,#294,.T.);
#421=CARTESIAN_POINT('',(2.25,2.25,6.661338E-016));
#422=DIRECTION('',(0.0,0.0,1.0));
#423=DIRECTION('',(1.0,0.0,0.0));
#424=AXIS2_PLACEMENT_3D('',#421,#422,#423);
#425=CIRCLE('',#424,0.265);
#426=EDGE_CURVE('',#306,#289,#425,.T.);
#427=ORIENTED_EDGE('',*,*,#426,.F.);
#428=ORIENTED_EDGE('',*,*,#311,.F.);
#429=ORIENTED_EDGE('',*,*,#399,.F.);
#430=EDGE_LOOP('',(#420,#427,#428,#429));
#431=FACE_OUTER_BOUND('',#430,.T.);
#432=ADVANCED_FACE('',(#431),#419,.F.);
#433=CARTESIAN_POINT('',(2.25,2.25,0.750000000000001));
#434=DIRECTION('',(4.440892E-016,-1.224606E-016,-1.0));
#435=DIRECTION('',(1.0,0.0,0.0));
#436=AXIS2_PLACEMENT_3D('',#433,#434,#435);
#437=CYLINDRICAL_SURFACE('',#436,0.171);
#438=ORIENTED_EDGE('',*,*,#252,.T.);
#439=ORIENTED_EDGE('',*,*,#410,.F.);
#440=ORIENTED_EDGE('',*,*,#269,.F.);
#441=CARTESIAN_POINT('',(2.25,2.25,0.750000000000001));
#442=DIRECTION('',(0.0,0.0,-1.0));
#443=DIRECTION('',(1.0,0.0,0.0));
#444=AXIS2_PLACEMENT_3D('',#441,#442,#443);
#445=CIRCLE('',#444,0.171);
#446=EDGE_CURVE('',#245,#255,#445,.T.);
#447=ORIENTED_EDGE('',*,*,#446,.F.);
#448=EDGE_LOOP('',(#438,#439,#440,#447));
#449=FACE_OUTER_BOUND('',#448,.T.);
#450=ADVANCED_FACE('',(#449),#437,.F.);
#451=CARTESIAN_POINT('',(0.75,2.250000000000001,0.32));
#452=DIRECTION('',(0.0,0.0,-1.0));
#453=DIRECTION('',(1.0,0.0,0.0));
#454=AXIS2_PLACEMENT_3D('',#451,#452,#453);
#455=PLANE('',#454);
#456=CARTESIAN_POINT('',(0.75,2.25,0.32));
#457=DIRECTION('',(0.0,0.0,-1.0));
#458=DIRECTION('',(1.0,0.0,0.0));
#459=AXIS2_PLACEMENT_3D('',#456,#457,#458);
#460=CIRCLE('',#459,0.265);
#461=EDGE_CURVE('',#203,#213,#460,.T.);
#462=ORIENTED_EDGE('',*,*,#461,.T.);
#463=ORIENTED_EDGE('',*,*,#219,.T.);
#464=EDGE_LOOP('',(#462,#463));
#465=FACE_OUTER_BOUND('',#464,.T.);
#466=ORIENTED_EDGE('',*,*,#192,.T.);
#467=CARTESIAN_POINT('',(0.75,2.25,0.32));
#468=DIRECTION('',(0.0,0.0,1.0));
#469=DIRECTION('',(1.0,0.0,0.0));
#470=AXIS2_PLACEMENT_3D('',#467,#468,#469);
#471=CIRCLE('',#470,0.171);
#472=EDGE_CURVE('',#180,#163,#471,.T.);
#473=ORIENTED_EDGE('',*,*,#472,.T.);
#474=EDGE_LOOP('',(#466,#473));
#475=FACE_BOUND('',#474,.T.);
#476=ADVANCED_FACE('',(#465,#475),#455,.T.);
#477=CARTESIAN_POINT('',(0.75,2.25,0.32));
#478=DIRECTION('',(4.440892E-016,-1.224606E-016,-1.0));
#479=DIRECTION('',(1.0,0.0,0.0));
#480=AXIS2_PLACEMENT_3D('',#477,#478,#479);
#481=CYLINDRICAL_SURFACE('',#480,0.265);
#482=ORIENTED_EDGE('',*,*,#210,.T.);
#483=CARTESIAN_POINT('',(0.75,2.25,0.0));
#484=DIRECTION('',(0.0,0.0,1.0));
#485=DIRECTION('',(1.0,0.0,0.0));
#486=AXIS2_PLACEMENT_3D('',#483,#484,#485);
#487=CIRCLE('',#486,0.265);
#488=EDGE_CURVE('',#222,#205,#487,.T.);
#489=ORIENTED_EDGE('',*,*,#488,.F.);
#490=ORIENTED_EDGE('',*,*,#227,.F.);
#491=ORIENTED_EDGE('',*,*,#461,.F.);
#492=EDGE_LOOP('',(#482,#489,#490,#491));
#493=FACE_OUTER_BOUND('',#492,.T.);
#494=ADVANCED_FACE('',(#493),#481,.F.);
#495=CARTESIAN_POINT('',(0.75,2.25,0.75));
#496=DIRECTION('',(4.440892E-016,-1.224606E-016,-1.0));
#497=DIRECTION('',(1.0,0.0,0.0));
#498=AXIS2_PLACEMENT_3D('',#495,#496,#497);
#499=CYLINDRICAL_SURFACE('',#498,0.171);
#500=ORIENTED_EDGE('',*,*,#168,.T.);
#501=ORIENTED_EDGE('',*,*,#472,.F.);
#502=ORIENTED_EDGE('',*,*,#185,.F.);
#503=CARTESIAN_POINT('',(0.75,2.25,0.75));
#504=DIRECTION('',(0.0,0.0,-1.0));
#505=DIRECTION('',(1.0,0.0,0.0));
#506=AXIS2_PLACEMENT_3D('',#503,#504,#505);
#507=CIRCLE('',#506,0.171);
#508=EDGE_CURVE('',#161,#171,#507,.T.);
#509=ORIENTED_EDGE('',*,*,#508,.F.);
#510=EDGE_LOOP('',(#500,#501,#502,#509));
#511=FACE_OUTER_BOUND('',#510,.T.);
#512=ADVANCED_FACE('',(#511),#499,.F.);
#513=CARTESIAN_POINT('',(0.75,0.750000000000001,0.32));
#514=DIRECTION('',(0.0,0.0,-1.0));
#515=DIRECTION('',(1.0,0.0,0.0));
#516=AXIS2_PLACEMENT_3D('',#513,#514,#515);
#517=PLANE('',#516);
#518=CARTESIAN_POINT('',(0.75,0.75,0.32));
#519=DIRECTION('',(0.0,0.0,-1.0));
#520=DIRECTION('',(1.0,0.0,0.0));
#521=AXIS2_PLACEMENT_3D('',#518,#519,#520);
#522=CIRCLE('',#521,0.265);
#523=EDGE_CURVE('',#119,#129,#522,.T.);
#524=ORIENTED_EDGE('',*,*,#523,.T.);
#525=ORIENTED_EDGE('',*,*,#135,.T.);
#526=EDGE_LOOP('',(#524,#525));
#527=FACE_OUTER_BOUND('',#526,.T.);
#528=ORIENTED_EDGE('',*,*,#108,.T.);
#529=CARTESIAN_POINT('',(0.75,0.75,0.32));
#530=DIRECTION('',(0.0,0.0,1.0));
#531=DIRECTION('',(1.0,0.0,0.0));
#532=AXIS2_PLACEMENT_3D('',#529,#530,#531);
#533=CIRCLE('',#532,0.171);
#534=EDGE_CURVE('',#96,#79,#533,.T.);
#535=ORIENTED_EDGE('',*,*,#534,.T.);
#536=EDGE_LOOP('',(#528,#535));
#537=FACE_BOUND('',#536,.T.);
#538=ADVANCED_FACE('',(#527,#537),#517,.T.);
#539=CARTESIAN_POINT('',(0.75,0.75,0.32));
#540=DIRECTION('',(4.440892E-016,-1.224606E-016,-1.0));
#541=DIRECTION('',(1.0,0.0,0.0));
#542=AXIS2_PLACEMENT_3D('',#539,#540,#541);
#543=CYLINDRICAL_SURFACE('',#542,0.265);
#544=ORIENTED_EDGE('',*,*,#126,.T.);
#545=CARTESIAN_POINT('',(0.75,0.75,2.220446E-016));
#546=DIRECTION('',(0.0,0.0,1.0));
#547=DIRECTION('',(1.0,0.0,0.0));
#548=AXIS2_PLACEMENT_3D('',#545,#546,#547);
#549=CIRCLE('',#548,0.265);
#550=EDGE_CURVE('',#138,#121,#549,.T.);
#551=ORIENTED_EDGE('',*,*,#550,.F.);
#552=ORIENTED_EDGE('',*,*,#143,.F.);
#553=ORIENTED_EDGE('',*,*,#523,.F.);
#554=EDGE_LOOP('',(#544,#551,#552,#553));
#555=FACE_OUTER_BOUND('',#554,.T.);
#556=ADVANCED_FACE('',(#555),#543,.F.);
#557=CARTESIAN_POINT('',(0.75,0.75,0.75));
#558=DIRECTION('',(4.440892E-016,-1.224606E-016,-1.0));
#559=DIRECTION('',(1.0,0.0,0.0));
#560=AXIS2_PLACEMENT_3D('',#557,#558,#559);
#561=CYLINDRICAL_SURFACE('',#560,0.171);
#562=ORIENTED_EDGE('',*,*,#84,.T.);
#563=ORIENTED_EDGE('',*,*,#534,.F.);
#564=ORIENTED_EDGE('',*,*,#101,.F.);
#565=CARTESIAN_POINT('',(0.75,0.75,0.75));
#566=DIRECTION('',(0.0,0.0,-1.0));
#567=DIRECTION('',(1.0,0.0,0.0));
#568=AXIS2_PLACEMENT_3D('',#565,#566,#567);
#569=CIRCLE('',#568,0.171);
#570=EDGE_CURVE('',#77,#87,#569,.T.);
#571=ORIENTED_EDGE('',*,*,#570,.F.);
#572=EDGE_LOOP('',(#562,#563,#564,#571));
#573=FACE_OUTER_BOUND('',#572,.T.);
#574=ADVANCED_FACE('',(#573),#561,.F.);
#575=CARTESIAN_POINT('',(3.0,0.0,0.750000000000001));
#576=DIRECTION('',(1.0,0.0,0.0));
#577=DIRECTION('',(0.0,0.0,1.0));
#578=AXIS2_PLACEMENT_3D('',#575,#576,#577);
#579=PLANE('',#578);
#580=CARTESIAN_POINT('',(3.0,0.0,1.332268E-015));
#581=VERTEX_POINT('',#580);
#582=CARTESIAN_POINT('',(3.0,3.0,8.881784E-016));
#583=VERTEX_POINT('',#582);
#584=CARTESIAN_POINT('',(3.0,0.0,1.332268E-015));
#585=DIRECTION('',(0.0,1.0,0.0));
#586=VECTOR('',#585,3.0);
#587=LINE('',#584,#586);
#588=EDGE_CURVE('',#581,#583,#587,.T.);
#589=ORIENTED_EDGE('',*,*,#588,.T.);
#590=CARTESIAN_POINT('',(3.0,3.0,0.750000000000001));
#591=VERTEX_POINT('',#590);
#592=CARTESIAN_POINT('',(3.0,3.0,0.750000000000001));
#593=DIRECTION('',(0.0,0.0,-1.0));
#594=VECTOR('',#593,0.75);
#595=LINE('',#592,#594);
#596=EDGE_CURVE('',#591,#583,#595,.T.);
#597=ORIENTED_EDGE('',*,*,#596,.F.);
#598=CARTESIAN_POINT('',(3.0,0.0,0.750000000000001));
#599=VERTEX_POINT('',#598);
#600=CARTESIAN_POINT('',(3.0,0.0,0.750000000000001));
#601=DIRECTION('',(0.0,1.0,0.0));
#602=VECTOR('',#601,3.0);
#603=LINE('',#600,#602);
#604=EDGE_CURVE('',#599,#591,#603,.T.);
#605=ORIENTED_EDGE('',*,*,#604,.F.);
#606=CARTESIAN_POINT('',(3.0,0.0,0.750000000000001));
#607=DIRECTION('',(0.0,0.0,-1.0));
#608=VECTOR('',#607,0.75);
#609=LINE('',#606,#608);
#610=EDGE_CURVE('',#599,#581,#609,.T.);
#611=ORIENTED_EDGE('',*,*,#610,.T.);
#612=EDGE_LOOP('',(#589,#597,#605,#611));
#613=FACE_OUTER_BOUND('',#612,.T.);
#614=ADVANCED_FACE('',(#613),#579,.T.);
#615=CARTESIAN_POINT('',(3.0,3.0,0.750000000000001));
#616=DIRECTION('',(0.0,1.0,0.0));
#617=DIRECTION('',(0.0,0.0,1.0));
#618=AXIS2_PLACEMENT_3D('',#615,#616,#617);
#619=PLANE('',#618);
#620=CARTESIAN_POINT('',(0.0,3.0,-4.440892E-016));
#621=VERTEX_POINT('',#620);
#622=CARTESIAN_POINT('',(3.0,3.0,8.881784E-016));
#623=DIRECTION('',(-1.0,0.0,0.0));
#624=VECTOR('',#623,3.0);
#625=LINE('',#622,#624);
#626=EDGE_CURVE('',#583,#621,#625,.T.);
#627=ORIENTED_EDGE('',*,*,#626,.T.);
#628=CARTESIAN_POINT('',(-3.330669E-016,3.0,0.75));
#629=VERTEX_POINT('',#628);
#630=CARTESIAN_POINT('',(-3.330669E-016,3.0,0.75));
#631=DIRECTION('',(0.0,0.0,-1.0));
#632=VECTOR('',#631,0.75);
#633=LINE('',#630,#632);
#634=EDGE_CURVE('',#629,#621,#633,.T.);
#635=ORIENTED_EDGE('',*,*,#634,.F.);
#636=CARTESIAN_POINT('',(3.0,3.0,0.750000000000001));
#637=DIRECTION('',(-1.0,0.0,0.0));
#638=VECTOR('',#637,3.0);
#639=LINE('',#636,#638);
#640=EDGE_CURVE('',#591,#629,#639,.T.);
#641=ORIENTED_EDGE('',*,*,#640,.F.);
#642=ORIENTED_EDGE('',*,*,#596,.T.);
#643=EDGE_LOOP('',(#627,#635,#641,#642));
#644=FACE_OUTER_BOUND('',#643,.T.);
#645=ADVANCED_FACE('',(#644),#619,.T.);
#646=CARTESIAN_POINT('',(-3.330669E-016,3.0,0.75));
#647=DIRECTION('',(-1.0,0.0,0.0));
#648=DIRECTION('',(0.0,0.0,-1.0));
#649=AXIS2_PLACEMENT_3D('',#646,#647,#648);
#650=PLANE('',#649);
#651=CARTESIAN_POINT('',(0.0,0.0,0.0));
#652=VERTEX_POINT('',#651);
#653=CARTESIAN_POINT('',(0.0,3.0,-4.440892E-016));
#654=DIRECTION('',(0.0,-1.0,0.0));
#655=VECTOR('',#654,3.0);
#656=LINE('',#653,#655);
#657=EDGE_CURVE('',#621,#652,#656,.T.);
#658=ORIENTED_EDGE('',*,*,#657,.T.);
#659=CARTESIAN_POINT('',(-3.330669E-016,0.0,0.75));
#660=VERTEX_POINT('',#659);
#661=CARTESIAN_POINT('',(-3.330669E-016,0.0,0.75));
#662=DIRECTION('',(0.0,0.0,-1.0));
#663=VECTOR('',#662,0.75);
#664=LINE('',#661,#663);
#665=EDGE_CURVE('',#660,#652,#664,.T.);
#666=ORIENTED_EDGE('',*,*,#665,.F.);
#667=CARTESIAN_POINT('',(-3.330669E-016,3.0,0.75));
#668=DIRECTION('',(0.0,-1.0,0.0));
#669=VECTOR('',#668,3.0);
#670=LINE('',#667,#669);
#671=EDGE_CURVE('',#629,#660,#670,.T.);
#672=ORIENTED_EDGE('',*,*,#671,.F.);
#673=ORIENTED_EDGE('',*,*,#634,.T.);
#674=EDGE_LOOP('',(#658,#666,#672,#673));
#675=FACE_OUTER_BOUND('',#674,.T.);
#676=ADVANCED_FACE('',(#675),#650,.T.);
#677=CARTESIAN_POINT('',(-3.330669E-016,0.0,0.75));
#678=DIRECTION('',(0.0,-1.0,0.0));
#679=DIRECTION('',(0.0,0.0,-1.0));
#680=AXIS2_PLACEMENT_3D('',#677,#678,#679);
#681=PLANE('',#680);
#682=CARTESIAN_POINT('',(0.0,0.0,0.0));
#683=DIRECTION('',(1.0,0.0,0.0));
#684=VECTOR('',#683,3.0);
#685=LINE('',#682,#684);
#686=EDGE_CURVE('',#652,#581,#685,.T.);
#687=ORIENTED_EDGE('',*,*,#686,.T.);
#688=ORIENTED_EDGE('',*,*,#610,.F.);
#689=CARTESIAN_POINT('',(-3.330669E-016,0.0,0.75));
#690=DIRECTION('',(1.0,0.0,0.0));
#691=VECTOR('',#690,3.0);
#692=LINE('',#689,#691);
#693=EDGE_CURVE('',#660,#599,#692,.T.);
#694=ORIENTED_EDGE('',*,*,#693,.F.);
#695=ORIENTED_EDGE('',*,*,#665,.T.);
#696=EDGE_LOOP('',(#687,#688,#694,#695));
#697=FACE_OUTER_BOUND('',#696,.T.);
#698=ADVANCED_FACE('',(#697),#681,.T.);
#699=CARTESIAN_POINT('',(1.5,1.5,0.75));
#700=DIRECTION('',(0.0,0.0,-1.0));
#701=DIRECTION('',(1.0,0.0,0.0));
#702=AXIS2_PLACEMENT_3D('',#699,#700,#701);
#703=PLANE('',#702);
#704=ORIENTED_EDGE('',*,*,#693,.T.);
#705=ORIENTED_EDGE('',*,*,#604,.T.);
#706=ORIENTED_EDGE('',*,*,#640,.T.);
#707=ORIENTED_EDGE('',*,*,#671,.T.);
#708=EDGE_LOOP('',(#704,#705,#706,#707));
#709=FACE_OUTER_BOUND('',#708,.T.);
#710=ORIENTED_EDGE('',*,*,#384,.T.);
#711=ORIENTED_EDGE('',*,*,#345,.T.);
#712=EDGE_LOOP('',(#710,#711));
#713=FACE_BOUND('',#712,.T.);
#714=ORIENTED_EDGE('',*,*,#446,.T.);
#715=ORIENTED_EDGE('',*,*,#261,.T.);
#716=EDGE_LOOP('',(#714,#715));
#717=FACE_BOUND('',#716,.T.);
#718=ORIENTED_EDGE('',*,*,#508,.T.);
#719=ORIENTED_EDGE('',*,*,#177,.T.);
#720=EDGE_LOOP('',(#718,#719));
#721=FACE_BOUND('',#720,.T.);
#722=ORIENTED_EDGE('',*,*,#570,.T.);
#723=ORIENTED_EDGE('',*,*,#93,.T.);
#724=EDGE_LOOP('',(#722,#723));
#725=FACE_BOUND('',#724,.T.);
#726=ADVANCED_FACE('',(#709,#713,#717,#721,#725),#703,.F.);
#727=CARTESIAN_POINT('',(3.0,0.0,1.332268E-015));
#728=DIRECTION('',(0.0,0.0,-1.0));
#729=DIRECTION('',(1.0,0.0,0.0));
#730=AXIS2_PLACEMENT_3D('',#727,#728,#729);
#731=PLANE('',#730);
#732=ORIENTED_EDGE('',*,*,#588,.F.);
#733=ORIENTED_EDGE('',*,*,#686,.F.);
#734=ORIENTED_EDGE('',*,*,#657,.F.);
#735=ORIENTED_EDGE('',*,*,#626,.F.);
#736=EDGE_LOOP('',(#732,#733,#734,#735));
#737=FACE_OUTER_BOUND('',#736,.T.);
#738=ORIENTED_EDGE('',*,*,#360,.T.);
#739=ORIENTED_EDGE('',*,*,#376,.T.);
#740=EDGE_LOOP('',(#738,#739));
#741=FACE_BOUND('',#740,.T.);
#742=ORIENTED_EDGE('',*,*,#318,.T.);
#743=ORIENTED_EDGE('',*,*,#426,.T.);
#744=EDGE_LOOP('',(#742,#743));
#745=FACE_BOUND('',#744,.T.);
#746=ORIENTED_EDGE('',*,*,#234,.T.);
#747=ORIENTED_EDGE('',*,*,#488,.T.);
#748=EDGE_LOOP('',(#746,#747));
#749=FACE_BOUND('',#748,.T.);
#750=ORIENTED_EDGE('',*,*,#150,.T.);
#751=ORIENTED_EDGE('',*,*,#550,.T.);
#752=EDGE_LOOP('',(#750,#751));
#753=FACE_BOUND('',#752,.T.);
#754=ADVANCED_FACE('',(#737,#741,#745,#749,#753),#731,.T.);
#755=CLOSED_SHELL('',(#112,#154,#196,#238,#280,#322,#364,#388,#414,#432,#450,#476,#494,#512,#538,#556,#574,#614,#645,#676,#698,#726,#754));
#756=MANIFOLD_SOLID_BREP('2B',#755);
#757=DRAUGHTING_PRE_DEFINED_COLOUR('white');
#758=SURFACE_STYLE_USAGE(.BOTH.,#759);
#759=SURFACE_SIDE_STYLE('NONE',(#760));
#760=SURFACE_STYLE_FILL_AREA(#761);
#761=FILL_AREA_STYLE('NONE',(#762));
#762=FILL_AREA_STYLE_COLOUR('NONE',#757);
#763=PRESENTATION_STYLE_ASSIGNMENT((#758));
#764=STYLED_ITEM('NONE',(#763),#756);
#765=MECHANICAL_DESIGN_GEOMETRIC_PRESENTATION_REPRESENTATION('NONE',(#764),#34);
#766=PRESENTATION_LAYER_ASSIGNMENT('0','None',(#756));
#767=ADVANCED_BREP_SHAPE_REPRESENTATION('ABSR1',(#756),#34);
#768=SHAPE_REPRESENTATION_RELATIONSHIP('SRRPL1','',#767,#68);
ENDSEC;
END-ISO-10303-21;
