ISO-10303-21;
HEADER;
/****************************************************************
 * Generated by software with PDElib inside                    *
 * PDElib Version v51a, created Fri 09/10/2010                  *
 * ITI Transcendata (http://www.transcendata.com/)              *
 ****************************************************************/
FILE_DESCRIPTION((''),'2;1');
FILE_NAME('10JP4207.stp','2015-07-14T08:31:59',(''),(''),'Mechanical Desktop 2011','Mechanical Desktop 2011',', , ');
FILE_SCHEMA(('AUTOMOTIVE_DESIGN { 1 2 10303 214 1 1 1 1 }'));
ENDSEC;
DATA;
#10=(NAMED_UNIT(*)PLANE_ANGLE_UNIT()SI_UNIT($,.RADIAN.));
#11=DIMENSIONAL_EXPONENTS(0.0,0.0,0.0,0.0,0.0,0.0,0.0);
#12=PLANE_ANGLE_MEASURE_WITH_UNIT(PLANE_ANGLE_MEASURE(0.0174532925),#10);
#16=(CONVERSION_BASED_UNIT('DEGREE',#12)NAMED_UNIT(#11)PLANE_ANGLE_UNIT());
#20=(NAMED_UNIT(*)SI_UNIT($,.STERADIAN.)SOLID_ANGLE_UNIT());
#24=(LENGTH_UNIT()NAMED_UNIT(*)SI_UNIT(.CENTI.,.METRE.));
#25=DIMENSIONAL_EXPONENTS(1.0,0.0,0.0,0.0,0.0,0.0,0.0);
#26=LENGTH_MEASURE_WITH_UNIT(LENGTH_MEASURE(2.54),#24);
#30=(CONVERSION_BASED_UNIT('INCH',#26)LENGTH_UNIT()NAMED_UNIT(#25));
#32=UNCERTAINTY_MEASURE_WITH_UNIT(LENGTH_MEASURE(0.000001),#30,'DISTANCE_ACCURACY_VALUE','');
#34=(GEOMETRIC_REPRESENTATION_CONTEXT(3)GLOBAL_UNCERTAINTY_ASSIGNED_CONTEXT((#32))GLOBAL_UNIT_ASSIGNED_CONTEXT((#16,#20,#30))REPRESENTATION_CONTEXT('','3D'));
#35=APPLICATION_CONTEXT('automotive design');
#36=APPLICATION_PROTOCOL_DEFINITION('INTERNATIONAL_STANDARD','automotive_design',1998,#35);
#37=PRODUCT_CONTEXT('3D Mechanical Parts',#35,'mechanical');
#38=PRODUCT('Product','Product','',(#37));
#39=PRODUCT_RELATED_PRODUCT_CATEGORY('part',$,(#38));
#40=PRODUCT_CATEGORY('part',$);
#41=PERSON('1','Design','Joe',$,$,$);
#42=ORGANIZATION($,'None','None');
#43=PERSON_AND_ORGANIZATION(#41,#42);
#44=PERSON_AND_ORGANIZATION_ROLE('design_owner');
#45=APPLIED_PERSON_AND_ORGANIZATION_ASSIGNMENT(#43,#44,(#38));
#46=PRODUCT_DEFINITION_FORMATION_WITH_SPECIFIED_SOURCE('None','',#38,.BOUGHT.);
#47=PERSON('2','Creator','Joe',$,$,$);
#48=ORGANIZATION($,'None','None');
#49=PERSON_AND_ORGANIZATION(#47,#48);
#50=PERSON_AND_ORGANIZATION_ROLE('creator');
#51=APPLIED_PERSON_AND_ORGANIZATION_ASSIGNMENT(#49,#50,(#46));
#52=PERSON('3','Supplier','Joe',$,$,$);
#53=ORGANIZATION($,'None','None');
#54=PERSON_AND_ORGANIZATION(#52,#53);
#55=PERSON_AND_ORGANIZATION_ROLE('design_supplier');
#56=APPLIED_PERSON_AND_ORGANIZATION_ASSIGNMENT(#54,#55,(#46));
#57=PRODUCT_DEFINITION_CONTEXT('part definition',#35,'design');
#58=PRODUCT_DEFINITION('None','',#46,#57);
#59=PERSON('4','Creator','Joe',$,$,$);
#60=ORGANIZATION($,'None','None');
#61=PERSON_AND_ORGANIZATION(#59,#60);
#62=PERSON_AND_ORGANIZATION_ROLE('creator');
#63=APPLIED_PERSON_AND_ORGANIZATION_ASSIGNMENT(#61,#62,(#58));
#64=CARTESIAN_POINT('NONE',(0.0,0.0,0.0));
#65=DIRECTION('NONE',(0.0,0.0,1.0));
#66=DIRECTION('NONE',(1.0,0.0,0.0));
#67=AXIS2_PLACEMENT_3D('NONE',#64,#65,#66);
#68=SHAPE_REPRESENTATION('SR1',(#67),#34);
#69=PRODUCT_DEFINITION_SHAPE('PDS1','Test Part',#58);
#70=SHAPE_DEFINITION_REPRESENTATION(#69,#68);
#71=CARTESIAN_POINT('',(0.5,2.0,0.063000000000001));
#72=DIRECTION('',(1.037283E-015,-1.836910E-016,-1.0));
#73=DIRECTION('',(0.0,1.0,0.0));
#74=AXIS2_PLACEMENT_3D('',#71,#72,#73);
#75=CYLINDRICAL_SURFACE('',#74,0.140625);
#76=CARTESIAN_POINT('',(0.5,2.140625,0.188000000000001));
#77=VERTEX_POINT('',#76);
#78=CARTESIAN_POINT('',(0.5,2.140625,9.714451E-017));
#79=VERTEX_POINT('',#78);
#80=CARTESIAN_POINT('',(0.5,2.140625,0.188));
#81=DIRECTION('',(0.0,0.0,-1.0));
#82=VECTOR('',#81,0.188);
#83=LINE('',#80,#82);
#84=EDGE_CURVE('',#77,#79,#83,.T.);
#85=ORIENTED_EDGE('',*,*,#84,.F.);
#86=CARTESIAN_POINT('',(0.5,1.859375,0.188));
#87=VERTEX_POINT('',#86);
#88=CARTESIAN_POINT('',(0.5,2.0,0.188));
#89=DIRECTION('',(0.0,0.0,-1.0));
#90=DIRECTION('',(0.0,1.0,0.0));
#91=AXIS2_PLACEMENT_3D('',#88,#89,#90);
#92=CIRCLE('',#91,0.140625);
#93=EDGE_CURVE('',#87,#77,#92,.T.);
#94=ORIENTED_EDGE('',*,*,#93,.F.);
#95=CARTESIAN_POINT('',(0.499999999999999,1.859375,1.580500E-016));
#96=VERTEX_POINT('',#95);
#97=CARTESIAN_POINT('',(0.5,1.859375,0.188));
#98=DIRECTION('',(0.0,0.0,-1.0));
#99=VECTOR('',#98,0.188);
#100=LINE('',#97,#99);
#101=EDGE_CURVE('',#87,#96,#100,.T.);
#102=ORIENTED_EDGE('',*,*,#101,.T.);
#103=CARTESIAN_POINT('',(0.5,2.0,1.322185E-016));
#104=DIRECTION('',(0.0,0.0,1.0));
#105=DIRECTION('',(0.0,1.0,0.0));
#106=AXIS2_PLACEMENT_3D('',#103,#104,#105);
#107=CIRCLE('',#106,0.140625);
#108=EDGE_CURVE('',#79,#96,#107,.T.);
#109=ORIENTED_EDGE('',*,*,#108,.F.);
#110=EDGE_LOOP('',(#85,#94,#102,#109));
#111=FACE_OUTER_BOUND('',#110,.T.);
#112=ADVANCED_FACE('',(#111),#75,.F.);
#113=CARTESIAN_POINT('',(0.5,1.0,0.063000000000001));
#114=DIRECTION('',(1.037283E-015,-1.836910E-016,-1.0));
#115=DIRECTION('',(0.0,1.0,0.0));
#116=AXIS2_PLACEMENT_3D('',#113,#114,#115);
#117=CYLINDRICAL_SURFACE('',#116,0.140625);
#118=CARTESIAN_POINT('',(0.5,1.140625,0.188000000000001));
#119=VERTEX_POINT('',#118);
#120=CARTESIAN_POINT('',(0.5,1.140625,2.914335E-016));
#121=VERTEX_POINT('',#120);
#122=CARTESIAN_POINT('',(0.5,1.140625,0.188));
#123=DIRECTION('',(0.0,0.0,-1.0));
#124=VECTOR('',#123,0.188);
#125=LINE('',#122,#124);
#126=EDGE_CURVE('',#119,#121,#125,.T.);
#127=ORIENTED_EDGE('',*,*,#126,.F.);
#128=CARTESIAN_POINT('',(0.5,0.859375,0.188));
#129=VERTEX_POINT('',#128);
#130=CARTESIAN_POINT('',(0.5,1.0,0.188));
#131=DIRECTION('',(0.0,0.0,-1.0));
#132=DIRECTION('',(0.0,1.0,0.0));
#133=AXIS2_PLACEMENT_3D('',#130,#131,#132);
#134=CIRCLE('',#133,0.140625);
#135=EDGE_CURVE('',#129,#119,#134,.T.);
#136=ORIENTED_EDGE('',*,*,#135,.F.);
#137=CARTESIAN_POINT('',(0.499999999999999,0.859375,3.417409E-016));
#138=VERTEX_POINT('',#137);
#139=CARTESIAN_POINT('',(0.5,0.859375,0.188));
#140=DIRECTION('',(0.0,0.0,-1.0));
#141=VECTOR('',#140,0.188);
#142=LINE('',#139,#141);
#143=EDGE_CURVE('',#129,#138,#142,.T.);
#144=ORIENTED_EDGE('',*,*,#143,.T.);
#145=CARTESIAN_POINT('',(0.5,1.0,3.159094E-016));
#146=DIRECTION('',(0.0,0.0,1.0));
#147=DIRECTION('',(0.0,1.0,0.0));
#148=AXIS2_PLACEMENT_3D('',#145,#146,#147);
#149=CIRCLE('',#148,0.140625);
#150=EDGE_CURVE('',#121,#138,#149,.T.);
#151=ORIENTED_EDGE('',*,*,#150,.F.);
#152=EDGE_LOOP('',(#127,#136,#144,#151));
#153=FACE_OUTER_BOUND('',#152,.T.);
#154=ADVANCED_FACE('',(#153),#117,.F.);
#155=CARTESIAN_POINT('',(0.0,0.0,0.063000000000001));
#156=DIRECTION('',(1.037283E-015,-1.836910E-016,-1.0));
#157=DIRECTION('',(0.0,1.0,0.0));
#158=AXIS2_PLACEMENT_3D('',#155,#156,#157);
#159=CYLINDRICAL_SURFACE('',#158,0.140625);
#160=CARTESIAN_POINT('',(2.220446E-016,0.140625,0.188000000000001));
#161=VERTEX_POINT('',#160);
#162=CARTESIAN_POINT('',(6.534885E-017,0.140625,-2.775558E-017));
#163=VERTEX_POINT('',#162);
#164=CARTESIAN_POINT('',(-1.296604E-016,0.140625,0.188));
#165=DIRECTION('',(0.0,0.0,-1.0));
#166=VECTOR('',#165,0.188);
#167=LINE('',#164,#166);
#168=EDGE_CURVE('',#161,#163,#167,.T.);
#169=ORIENTED_EDGE('',*,*,#168,.F.);
#170=CARTESIAN_POINT('',(-1.468820E-016,-0.140625,0.188));
#171=VERTEX_POINT('',#170);
#172=CARTESIAN_POINT('',(0.0,1.110223E-016,0.188));
#173=DIRECTION('',(0.0,0.0,-1.0));
#174=DIRECTION('',(0.0,1.0,0.0));
#175=AXIS2_PLACEMENT_3D('',#172,#173,#174);
#176=CIRCLE('',#175,0.140625);
#177=EDGE_CURVE('',#171,#161,#176,.T.);
#178=ORIENTED_EDGE('',*,*,#177,.F.);
#179=CARTESIAN_POINT('',(-8.881784E-016,-0.140625,2.583154E-017));
#180=VERTEX_POINT('',#179);
#181=CARTESIAN_POINT('',(-1.468820E-016,-0.140625,0.188));
#182=DIRECTION('',(0.0,0.0,-1.0));
#183=VECTOR('',#182,0.188);
#184=LINE('',#181,#183);
#185=EDGE_CURVE('',#171,#180,#184,.T.);
#186=ORIENTED_EDGE('',*,*,#185,.T.);
#187=CARTESIAN_POINT('',(0.0,0.0,0.0));
#188=DIRECTION('',(0.0,0.0,1.0));
#189=DIRECTION('',(0.0,1.0,0.0));
#190=AXIS2_PLACEMENT_3D('',#187,#188,#189);
#191=CIRCLE('',#190,0.140625);
#192=EDGE_CURVE('',#163,#180,#191,.T.);
#193=ORIENTED_EDGE('',*,*,#192,.F.);
#194=EDGE_LOOP('',(#169,#178,#186,#193));
#195=FACE_OUTER_BOUND('',#194,.T.);
#196=ADVANCED_FACE('',(#195),#159,.F.);
#197=CARTESIAN_POINT('',(1.0,2.775558E-016,0.063000000000001));
#198=DIRECTION('',(1.037283E-015,-1.836910E-016,-1.0));
#199=DIRECTION('',(0.0,1.0,0.0));
#200=AXIS2_PLACEMENT_3D('',#197,#198,#199);
#201=CYLINDRICAL_SURFACE('',#200,0.140625);
#202=CARTESIAN_POINT('',(1.0,0.140625,0.188000000000001));
#203=VERTEX_POINT('',#202);
#204=CARTESIAN_POINT('',(1.0,0.140625,9.714451E-016));
#205=VERTEX_POINT('',#204);
#206=CARTESIAN_POINT('',(1.0,0.140625,0.188000000000001));
#207=DIRECTION('',(0.0,0.0,-1.0));
#208=VECTOR('',#207,0.188);
#209=LINE('',#206,#208);
#210=EDGE_CURVE('',#203,#205,#209,.T.);
#211=ORIENTED_EDGE('',*,*,#210,.F.);
#212=CARTESIAN_POINT('',(1.0,-0.140625,0.188000000000001));
#213=VERTEX_POINT('',#212);
#214=CARTESIAN_POINT('',(1.0,2.775558E-016,0.188000000000001));
#215=DIRECTION('',(0.0,0.0,-1.0));
#216=DIRECTION('',(0.0,1.0,0.0));
#217=AXIS2_PLACEMENT_3D('',#214,#215,#216);
#218=CIRCLE('',#217,0.140625);
#219=EDGE_CURVE('',#213,#203,#218,.T.);
#220=ORIENTED_EDGE('',*,*,#219,.F.);
#221=CARTESIAN_POINT('',(0.999999999999999,-0.140625,1.025032E-015));
#222=VERTEX_POINT('',#221);
#223=CARTESIAN_POINT('',(1.0,-0.140625,0.188000000000001));
#224=DIRECTION('',(0.0,0.0,-1.0));
#225=VECTOR('',#224,0.188);
#226=LINE('',#223,#225);
#227=EDGE_CURVE('',#213,#222,#226,.T.);
#228=ORIENTED_EDGE('',*,*,#227,.T.);
#229=CARTESIAN_POINT('',(1.0,2.775558E-016,9.992007E-016));
#230=DIRECTION('',(0.0,0.0,1.0));
#231=DIRECTION('',(0.0,1.0,0.0));
#232=AXIS2_PLACEMENT_3D('',#229,#230,#231);
#233=CIRCLE('',#232,0.140625);
#234=EDGE_CURVE('',#205,#222,#233,.T.);
#235=ORIENTED_EDGE('',*,*,#234,.F.);
#236=EDGE_LOOP('',(#211,#220,#228,#235));
#237=FACE_OUTER_BOUND('',#236,.T.);
#238=ADVANCED_FACE('',(#237),#201,.F.);
#239=CARTESIAN_POINT('',(1.0,2.775558E-016,0.063000000000001));
#240=DIRECTION('',(1.037283E-015,-1.836910E-016,-1.0));
#241=DIRECTION('',(0.0,1.0,0.0));
#242=AXIS2_PLACEMENT_3D('',#239,#240,#241);
#243=CYLINDRICAL_SURFACE('',#242,0.140625);
#244=ORIENTED_EDGE('',*,*,#210,.T.);
#245=CARTESIAN_POINT('',(1.0,2.775558E-016,9.992007E-016));
#246=DIRECTION('',(0.0,0.0,1.0));
#247=DIRECTION('',(0.0,1.0,0.0));
#248=AXIS2_PLACEMENT_3D('',#245,#246,#247);
#249=CIRCLE('',#248,0.140625);
#250=EDGE_CURVE('',#222,#205,#249,.T.);
#251=ORIENTED_EDGE('',*,*,#250,.F.);
#252=ORIENTED_EDGE('',*,*,#227,.F.);
#253=CARTESIAN_POINT('',(1.0,2.775558E-016,0.188000000000001));
#254=DIRECTION('',(0.0,0.0,-1.0));
#255=DIRECTION('',(0.0,1.0,0.0));
#256=AXIS2_PLACEMENT_3D('',#253,#254,#255);
#257=CIRCLE('',#256,0.140625);
#258=EDGE_CURVE('',#203,#213,#257,.T.);
#259=ORIENTED_EDGE('',*,*,#258,.F.);
#260=EDGE_LOOP('',(#244,#251,#252,#259));
#261=FACE_OUTER_BOUND('',#260,.T.);
#262=ADVANCED_FACE('',(#261),#243,.F.);
#263=CARTESIAN_POINT('',(0.0,0.0,0.063000000000001));
#264=DIRECTION('',(1.037283E-015,-1.836910E-016,-1.0));
#265=DIRECTION('',(0.0,1.0,0.0));
#266=AXIS2_PLACEMENT_3D('',#263,#264,#265);
#267=CYLINDRICAL_SURFACE('',#266,0.140625);
#268=ORIENTED_EDGE('',*,*,#168,.T.);
#269=CARTESIAN_POINT('',(0.0,0.0,0.0));
#270=DIRECTION('',(0.0,0.0,1.0));
#271=DIRECTION('',(0.0,1.0,0.0));
#272=AXIS2_PLACEMENT_3D('',#269,#270,#271);
#273=CIRCLE('',#272,0.140625);
#274=EDGE_CURVE('',#180,#163,#273,.T.);
#275=ORIENTED_EDGE('',*,*,#274,.F.);
#276=ORIENTED_EDGE('',*,*,#185,.F.);
#277=CARTESIAN_POINT('',(0.0,1.110223E-016,0.188));
#278=DIRECTION('',(0.0,0.0,-1.0));
#279=DIRECTION('',(0.0,1.0,0.0));
#280=AXIS2_PLACEMENT_3D('',#277,#278,#279);
#281=CIRCLE('',#280,0.140625);
#282=EDGE_CURVE('',#161,#171,#281,.T.);
#283=ORIENTED_EDGE('',*,*,#282,.F.);
#284=EDGE_LOOP('',(#268,#275,#276,#283));
#285=FACE_OUTER_BOUND('',#284,.T.);
#286=ADVANCED_FACE('',(#285),#267,.F.);
#287=CARTESIAN_POINT('',(0.5,1.0,0.063000000000001));
#288=DIRECTION('',(1.037283E-015,-1.836910E-016,-1.0));
#289=DIRECTION('',(0.0,1.0,0.0));
#290=AXIS2_PLACEMENT_3D('',#287,#288,#289);
#291=CYLINDRICAL_SURFACE('',#290,0.140625);
#292=ORIENTED_EDGE('',*,*,#126,.T.);
#293=CARTESIAN_POINT('',(0.5,1.0,3.159094E-016));
#294=DIRECTION('',(0.0,0.0,1.0));
#295=DIRECTION('',(0.0,1.0,0.0));
#296=AXIS2_PLACEMENT_3D('',#293,#294,#295);
#297=CIRCLE('',#296,0.140625);
#298=EDGE_CURVE('',#138,#121,#297,.T.);
#299=ORIENTED_EDGE('',*,*,#298,.F.);
#300=ORIENTED_EDGE('',*,*,#143,.F.);
#301=CARTESIAN_POINT('',(0.5,1.0,0.188));
#302=DIRECTION('',(0.0,0.0,-1.0));
#303=DIRECTION('',(0.0,1.0,0.0));
#304=AXIS2_PLACEMENT_3D('',#301,#302,#303);
#305=CIRCLE('',#304,0.140625);
#306=EDGE_CURVE('',#119,#129,#305,.T.);
#307=ORIENTED_EDGE('',*,*,#306,.F.);
#308=EDGE_LOOP('',(#292,#299,#300,#307));
#309=FACE_OUTER_BOUND('',#308,.T.);
#310=ADVANCED_FACE('',(#309),#291,.F.);
#311=CARTESIAN_POINT('',(0.5,2.0,0.063000000000001));
#312=DIRECTION('',(1.037283E-015,-1.836910E-016,-1.0));
#313=DIRECTION('',(0.0,1.0,0.0));
#314=AXIS2_PLACEMENT_3D('',#311,#312,#313);
#315=CYLINDRICAL_SURFACE('',#314,0.140625);
#316=ORIENTED_EDGE('',*,*,#84,.T.);
#317=CARTESIAN_POINT('',(0.5,2.0,1.322185E-016));
#318=DIRECTION('',(0.0,0.0,1.0));
#319=DIRECTION('',(0.0,1.0,0.0));
#320=AXIS2_PLACEMENT_3D('',#317,#318,#319);
#321=CIRCLE('',#320,0.140625);
#322=EDGE_CURVE('',#96,#79,#321,.T.);
#323=ORIENTED_EDGE('',*,*,#322,.F.);
#324=ORIENTED_EDGE('',*,*,#101,.F.);
#325=CARTESIAN_POINT('',(0.5,2.0,0.188));
#326=DIRECTION('',(0.0,0.0,-1.0));
#327=DIRECTION('',(0.0,1.0,0.0));
#328=AXIS2_PLACEMENT_3D('',#325,#326,#327);
#329=CIRCLE('',#328,0.140625);
#330=EDGE_CURVE('',#77,#87,#329,.T.);
#331=ORIENTED_EDGE('',*,*,#330,.F.);
#332=EDGE_LOOP('',(#316,#323,#324,#331));
#333=FACE_OUTER_BOUND('',#332,.T.);
#334=ADVANCED_FACE('',(#333),#315,.F.);
#335=CARTESIAN_POINT('',(1.5,-0.5,1.396358E-015));
#336=DIRECTION('',(0.0,-1.0,0.0));
#337=DIRECTION('',(0.0,0.0,1.0));
#338=AXIS2_PLACEMENT_3D('',#335,#336,#337);
#339=PLANE('',#338);
#340=CARTESIAN_POINT('',(1.5,-0.5,0.188000000000001));
#341=VERTEX_POINT('',#340);
#342=CARTESIAN_POINT('',(-0.5,-0.5,0.188000000000001));
#343=VERTEX_POINT('',#342);
#344=CARTESIAN_POINT('',(1.5,-0.5,0.188000000000001));
#345=DIRECTION('',(-1.0,0.0,0.0));
#346=VECTOR('',#345,2.0);
#347=LINE('',#344,#346);
#348=EDGE_CURVE('',#341,#343,#347,.T.);
#349=ORIENTED_EDGE('',*,*,#348,.T.);
#350=CARTESIAN_POINT('',(-0.5,-0.5,-2.412214E-016));
#351=VERTEX_POINT('',#350);
#352=CARTESIAN_POINT('',(-0.5,-0.5,-2.412214E-016));
#353=DIRECTION('',(0.0,0.0,1.0));
#354=VECTOR('',#353,0.188000000000001);
#355=LINE('',#352,#354);
#356=EDGE_CURVE('',#351,#343,#355,.T.);
#357=ORIENTED_EDGE('',*,*,#356,.F.);
#358=CARTESIAN_POINT('',(1.5,-0.5,1.396358E-015));
#359=VERTEX_POINT('',#358);
#360=CARTESIAN_POINT('',(1.5,-0.5,1.396358E-015));
#361=DIRECTION('',(-1.0,0.0,0.0));
#362=VECTOR('',#361,2.0);
#363=LINE('',#360,#362);
#364=EDGE_CURVE('',#359,#351,#363,.T.);
#365=ORIENTED_EDGE('',*,*,#364,.F.);
#366=CARTESIAN_POINT('',(1.5,-0.5,1.396358E-015));
#367=DIRECTION('',(0.0,0.0,1.0));
#368=VECTOR('',#367,0.188);
#369=LINE('',#366,#368);
#370=EDGE_CURVE('',#359,#341,#369,.T.);
#371=ORIENTED_EDGE('',*,*,#370,.T.);
#372=EDGE_LOOP('',(#349,#357,#365,#371));
#373=FACE_OUTER_BOUND('',#372,.T.);
#374=ADVANCED_FACE('',(#373),#339,.T.);
#375=CARTESIAN_POINT('',(-0.5,-0.5,-2.412214E-016));
#376=DIRECTION('',(-1.0,0.0,0.0));
#377=DIRECTION('',(0.0,1.0,0.0));
#378=AXIS2_PLACEMENT_3D('',#375,#376,#377);
#379=PLANE('',#378);
#380=CARTESIAN_POINT('',(-0.5,0.5,0.188000000000001));
#381=VERTEX_POINT('',#380);
#382=CARTESIAN_POINT('',(-0.5,-0.5,0.188));
#383=DIRECTION('',(0.0,1.0,0.0));
#384=VECTOR('',#383,1.0);
#385=LINE('',#382,#384);
#386=EDGE_CURVE('',#343,#381,#385,.T.);
#387=ORIENTED_EDGE('',*,*,#386,.T.);
#388=CARTESIAN_POINT('',(-0.5,0.5,-4.249124E-016));
#389=VERTEX_POINT('',#388);
#390=CARTESIAN_POINT('',(-0.5,0.5,-4.249124E-016));
#391=DIRECTION('',(0.0,0.0,1.0));
#392=VECTOR('',#391,0.188000000000001);
#393=LINE('',#390,#392);
#394=EDGE_CURVE('',#389,#381,#393,.T.);
#395=ORIENTED_EDGE('',*,*,#394,.F.);
#396=CARTESIAN_POINT('',(-0.5,-0.5,-2.412214E-016));
#397=DIRECTION('',(0.0,1.0,0.0));
#398=VECTOR('',#397,1.0);
#399=LINE('',#396,#398);
#400=EDGE_CURVE('',#351,#389,#399,.T.);
#401=ORIENTED_EDGE('',*,*,#400,.F.);
#402=ORIENTED_EDGE('',*,*,#356,.T.);
#403=EDGE_LOOP('',(#387,#395,#401,#402));
#404=FACE_OUTER_BOUND('',#403,.T.);
#405=ADVANCED_FACE('',(#404),#379,.T.);
#406=CARTESIAN_POINT('',(-0.5,0.5,-4.249124E-016));
#407=DIRECTION('',(-0.970142500145332,0.242535625036333,-3.193686E-016));
#408=DIRECTION('',(0.242535625036333,0.970142500145332,-1.095021E-016));
#409=AXIS2_PLACEMENT_3D('',#406,#407,#408);
#410=PLANE('',#409);
#411=CARTESIAN_POINT('',(-2.220446E-016,2.5,0.188));
#412=VERTEX_POINT('',#411);
#413=CARTESIAN_POINT('',(-0.5,0.5,0.188));
#414=DIRECTION('',(0.242535625036333,0.970142500145332,1.346343E-017));
#415=VECTOR('',#414,2.06155281280883);
#416=LINE('',#413,#415);
#417=EDGE_CURVE('',#381,#412,#416,.T.);
#418=ORIENTED_EDGE('',*,*,#417,.T.);
#419=CARTESIAN_POINT('',(-2.220446E-016,2.5,-3.759607E-016));
#420=VERTEX_POINT('',#419);
#421=CARTESIAN_POINT('',(-2.220446E-016,2.5,-3.759607E-016));
#422=DIRECTION('',(0.0,0.0,1.0));
#423=VECTOR('',#422,0.188000000000001);
#424=LINE('',#421,#423);
#425=EDGE_CURVE('',#420,#412,#424,.T.);
#426=ORIENTED_EDGE('',*,*,#425,.F.);
#427=CARTESIAN_POINT('',(-0.5,0.5,-4.249124E-016));
#428=DIRECTION('',(0.242535625036333,0.970142500145332,1.951803E-017));
#429=VECTOR('',#428,2.06155281280883);
#430=LINE('',#427,#429);
#431=EDGE_CURVE('',#389,#420,#430,.T.);
#432=ORIENTED_EDGE('',*,*,#431,.F.);
#433=ORIENTED_EDGE('',*,*,#394,.T.);
#434=EDGE_LOOP('',(#418,#426,#432,#433));
#435=FACE_OUTER_BOUND('',#434,.T.);
#436=ADVANCED_FACE('',(#435),#410,.T.);
#437=CARTESIAN_POINT('',(-2.220446E-016,2.5,-3.759607E-016));
#438=DIRECTION('',(0.0,1.0,0.0));
#439=DIRECTION('',(0.0,0.0,-1.0));
#440=AXIS2_PLACEMENT_3D('',#437,#438,#439);
#441=PLANE('',#440);
#442=CARTESIAN_POINT('',(1.0,2.5,0.188000000000001));
#443=VERTEX_POINT('',#442);
#444=CARTESIAN_POINT('',(-2.220446E-016,2.5,0.188));
#445=DIRECTION('',(1.0,0.0,0.0));
#446=VECTOR('',#445,1.0);
#447=LINE('',#444,#446);
#448=EDGE_CURVE('',#412,#443,#447,.T.);
#449=ORIENTED_EDGE('',*,*,#448,.T.);
#450=CARTESIAN_POINT('',(1.0,2.5,4.289510E-016));
#451=VERTEX_POINT('',#450);
#452=CARTESIAN_POINT('',(1.0,2.5,4.289510E-016));
#453=DIRECTION('',(0.0,0.0,1.0));
#454=VECTOR('',#453,0.188);
#455=LINE('',#452,#454);
#456=EDGE_CURVE('',#451,#443,#455,.T.);
#457=ORIENTED_EDGE('',*,*,#456,.F.);
#458=CARTESIAN_POINT('',(-2.220446E-016,2.5,-3.759607E-016));
#459=DIRECTION('',(1.0,0.0,0.0));
#460=VECTOR('',#459,1.0);
#461=LINE('',#458,#460);
#462=EDGE_CURVE('',#420,#451,#461,.T.);
#463=ORIENTED_EDGE('',*,*,#462,.F.);
#464=ORIENTED_EDGE('',*,*,#425,.T.);
#465=EDGE_LOOP('',(#449,#457,#463,#464));
#466=FACE_OUTER_BOUND('',#465,.T.);
#467=ADVANCED_FACE('',(#466),#441,.T.);
#468=CARTESIAN_POINT('',(1.0,2.5,4.289510E-016));
#469=DIRECTION('',(0.970142500145332,0.242535625036333,2.302654E-016));
#470=DIRECTION('',(0.242535625036333,-0.970142500145332,2.469107E-016));
#471=AXIS2_PLACEMENT_3D('',#468,#469,#470);
#472=PLANE('',#471);
#473=CARTESIAN_POINT('',(1.5,0.5,0.188000000000001));
#474=VERTEX_POINT('',#473);
#475=CARTESIAN_POINT('',(1.0,2.5,0.188));
#476=DIRECTION('',(0.242535625036333,-0.970142500145332,3.769761E-016));
#477=VECTOR('',#476,2.06155281280883);
#478=LINE('',#475,#477);
#479=EDGE_CURVE('',#443,#474,#478,.T.);
#480=ORIENTED_EDGE('',*,*,#479,.T.);
#481=CARTESIAN_POINT('',(1.5,0.5,1.212667E-015));
#482=VERTEX_POINT('',#481);
#483=CARTESIAN_POINT('',(1.5,0.5,1.212667E-015));
#484=DIRECTION('',(0.0,0.0,1.0));
#485=VECTOR('',#484,0.188);
#486=LINE('',#483,#485);
#487=EDGE_CURVE('',#482,#474,#486,.T.);
#488=ORIENTED_EDGE('',*,*,#487,.F.);
#489=CARTESIAN_POINT('',(1.0,2.5,4.289510E-016));
#490=DIRECTION('',(0.242535625036333,-0.970142500145332,3.759308E-016));
#491=VECTOR('',#490,2.06155281280883);
#492=LINE('',#489,#491);
#493=EDGE_CURVE('',#451,#482,#492,.T.);
#494=ORIENTED_EDGE('',*,*,#493,.F.);
#495=ORIENTED_EDGE('',*,*,#456,.T.);
#496=EDGE_LOOP('',(#480,#488,#494,#495));
#497=FACE_OUTER_BOUND('',#496,.T.);
#498=ADVANCED_FACE('',(#497),#472,.T.);
#499=CARTESIAN_POINT('',(1.5,0.5,1.212667E-015));
#500=DIRECTION('',(1.0,0.0,0.0));
#501=DIRECTION('',(0.0,-1.0,0.0));
#502=AXIS2_PLACEMENT_3D('',#499,#500,#501);
#503=PLANE('',#502);
#504=CARTESIAN_POINT('',(1.5,0.5,0.188000000000001));
#505=DIRECTION('',(0.0,-1.0,0.0));
#506=VECTOR('',#505,1.0);
#507=LINE('',#504,#506);
#508=EDGE_CURVE('',#474,#341,#507,.T.);
#509=ORIENTED_EDGE('',*,*,#508,.T.);
#510=ORIENTED_EDGE('',*,*,#370,.F.);
#511=CARTESIAN_POINT('',(1.5,0.5,1.212667E-015));
#512=DIRECTION('',(0.0,-1.0,0.0));
#513=VECTOR('',#512,1.0);
#514=LINE('',#511,#513);
#515=EDGE_CURVE('',#482,#359,#514,.T.);
#516=ORIENTED_EDGE('',*,*,#515,.F.);
#517=ORIENTED_EDGE('',*,*,#487,.T.);
#518=EDGE_LOOP('',(#509,#510,#516,#517));
#519=FACE_OUTER_BOUND('',#518,.T.);
#520=ADVANCED_FACE('',(#519),#503,.T.);
#521=CARTESIAN_POINT('',(0.5,0.833333333333333,3.465246E-016));
#522=DIRECTION('',(0.0,0.0,1.0));
#523=DIRECTION('',(0.0,1.0,0.0));
#524=AXIS2_PLACEMENT_3D('',#521,#522,#523);
#525=PLANE('',#524);
#526=ORIENTED_EDGE('',*,*,#515,.T.);
#527=ORIENTED_EDGE('',*,*,#364,.T.);
#528=ORIENTED_EDGE('',*,*,#400,.T.);
#529=ORIENTED_EDGE('',*,*,#431,.T.);
#530=ORIENTED_EDGE('',*,*,#462,.T.);
#531=ORIENTED_EDGE('',*,*,#493,.T.);
#532=EDGE_LOOP('',(#526,#527,#528,#529,#530,#531));
#533=FACE_OUTER_BOUND('',#532,.T.);
#534=ORIENTED_EDGE('',*,*,#250,.T.);
#535=ORIENTED_EDGE('',*,*,#234,.T.);
#536=EDGE_LOOP('',(#534,#535));
#537=FACE_BOUND('',#536,.T.);
#538=ORIENTED_EDGE('',*,*,#274,.T.);
#539=ORIENTED_EDGE('',*,*,#192,.T.);
#540=EDGE_LOOP('',(#538,#539));
#541=FACE_BOUND('',#540,.T.);
#542=ORIENTED_EDGE('',*,*,#298,.T.);
#543=ORIENTED_EDGE('',*,*,#150,.T.);
#544=EDGE_LOOP('',(#542,#543));
#545=FACE_BOUND('',#544,.T.);
#546=ORIENTED_EDGE('',*,*,#322,.T.);
#547=ORIENTED_EDGE('',*,*,#108,.T.);
#548=EDGE_LOOP('',(#546,#547));
#549=FACE_BOUND('',#548,.T.);
#550=ADVANCED_FACE('',(#533,#537,#541,#545,#549),#525,.F.);
#551=CARTESIAN_POINT('',(1.5,-0.5,0.188000000000001));
#552=DIRECTION('',(0.0,0.0,1.0));
#553=DIRECTION('',(0.0,1.0,0.0));
#554=AXIS2_PLACEMENT_3D('',#551,#552,#553);
#555=PLANE('',#554);
#556=ORIENTED_EDGE('',*,*,#348,.F.);
#557=ORIENTED_EDGE('',*,*,#508,.F.);
#558=ORIENTED_EDGE('',*,*,#479,.F.);
#559=ORIENTED_EDGE('',*,*,#448,.F.);
#560=ORIENTED_EDGE('',*,*,#417,.F.);
#561=ORIENTED_EDGE('',*,*,#386,.F.);
#562=EDGE_LOOP('',(#556,#557,#558,#559,#560,#561));
#563=FACE_OUTER_BOUND('',#562,.T.);
#564=ORIENTED_EDGE('',*,*,#258,.T.);
#565=ORIENTED_EDGE('',*,*,#219,.T.);
#566=EDGE_LOOP('',(#564,#565));
#567=FACE_BOUND('',#566,.T.);
#568=ORIENTED_EDGE('',*,*,#282,.T.);
#569=ORIENTED_EDGE('',*,*,#177,.T.);
#570=EDGE_LOOP('',(#568,#569));
#571=FACE_BOUND('',#570,.T.);
#572=ORIENTED_EDGE('',*,*,#306,.T.);
#573=ORIENTED_EDGE('',*,*,#135,.T.);
#574=EDGE_LOOP('',(#572,#573));
#575=FACE_BOUND('',#574,.T.);
#576=ORIENTED_EDGE('',*,*,#330,.T.);
#577=ORIENTED_EDGE('',*,*,#93,.T.);
#578=EDGE_LOOP('',(#576,#577));
#579=FACE_BOUND('',#578,.T.);
#580=ADVANCED_FACE('',(#563,#567,#571,#575,#579),#555,.T.);
#581=CLOSED_SHELL('',(#112,#154,#196,#238,#262,#286,#310,#334,#374,#405,#436,#467,#498,#520,#550,#580));
#582=MANIFOLD_SOLID_BREP('33',#581);
#583=DRAUGHTING_PRE_DEFINED_COLOUR('white');
#584=SURFACE_STYLE_USAGE(.BOTH.,#585);
#585=SURFACE_SIDE_STYLE('NONE',(#586));
#586=SURFACE_STYLE_FILL_AREA(#587);
#587=FILL_AREA_STYLE('NONE',(#588));
#588=FILL_AREA_STYLE_COLOUR('NONE',#583);
#589=PRESENTATION_STYLE_ASSIGNMENT((#584));
#590=STYLED_ITEM('NONE',(#589),#582);
#591=MECHANICAL_DESIGN_GEOMETRIC_PRESENTATION_REPRESENTATION('NONE',(#590),#34);
#592=PRESENTATION_LAYER_ASSIGNMENT('10jp4207','None',(#582));
#593=ADVANCED_BREP_SHAPE_REPRESENTATION('ABSR1',(#582),#34);
#594=SHAPE_REPRESENTATION_RELATIONSHIP('SRRPL1','',#593,#68);
ENDSEC;
END-ISO-10303-21;
