ISO-10303-21;
HEADER;
/****************************************************************
 * Generated by software with PDElib inside                    *
 * PDElib Version v51a, created Fri 09/10/2010                  *
 * ITI Transcendata (http://www.transcendata.com/)              *
 ****************************************************************/
FILE_DESCRIPTION((''),'2;1');
FILE_NAME('10AC7807.stp','2015-07-02T14:59:22',(''),(''),'Mechanical Desktop 2011','Mechanical Desktop 2011',', , ');
FILE_SCHEMA(('CONFIG_CONTROL_DESIGN'));
ENDSEC;
DATA;
#10=(NAMED_UNIT(*)PLANE_ANGLE_UNIT()SI_UNIT($,.RADIAN.));
#11=DIMENSIONAL_EXPONENTS(0.0,0.0,0.0,0.0,0.0,0.0,0.0);
#12=PLANE_ANGLE_MEASURE_WITH_UNIT(PLANE_ANGLE_MEASURE(0.0174532925),#10);
#16=(CONVERSION_BASED_UNIT('DEGREE',#12)NAMED_UNIT(#11)PLANE_ANGLE_UNIT());
#20=(NAMED_UNIT(*)SI_UNIT($,.STERADIAN.)SOLID_ANGLE_UNIT());
#24=(LENGTH_UNIT()NAMED_UNIT(*)SI_UNIT(.MILLI.,.METRE.));
#26=UNCERTAINTY_MEASURE_WITH_UNIT(LENGTH_MEASURE(0.000001),#24,'DISTANCE_ACCURACY_VALUE','');
#28=(GEOMETRIC_REPRESENTATION_CONTEXT(3)GLOBAL_UNCERTAINTY_ASSIGNED_CONTEXT((#26))GLOBAL_UNIT_ASSIGNED_CONTEXT((#16,#20,#24))REPRESENTATION_CONTEXT('','3D'));
#29=APPLICATION_CONTEXT('CONFIGURATION CONTROLLED 3D DESIGNS OF MECHANICAL PARTS AND ASSEMBLIES');
#30=APPLICATION_PROTOCOL_DEFINITION('INTERNATIONAL STANDARD','config_control_design',1995,#29);
#31=MECHANICAL_CONTEXT('3D Mechanical Parts',#29,'mechanical');
#32=PRODUCT('Product','Product',' ',(#31));
#33=PRODUCT_RELATED_PRODUCT_CATEGORY('detail',$,(#32));
#34=PRODUCT_CATEGORY('part',$);
#35=PRODUCT_CATEGORY_RELATIONSHIP('None','None',#34,#33);
#36=PERSON('1','Design','Joe',$,$,$);
#37=ORGANIZATION($,'None','None');
#38=PERSON_AND_ORGANIZATION(#36,#37);
#39=PERSON_AND_ORGANIZATION_ROLE('design_owner');
#40=CC_DESIGN_PERSON_AND_ORGANIZATION_ASSIGNMENT(#38,#39,(#32));
#41=PRODUCT_DEFINITION_FORMATION_WITH_SPECIFIED_SOURCE('None','None',#32,.BOUGHT.);
#42=PERSON('2','Creator','Joe',$,$,$);
#43=ORGANIZATION($,'None','None');
#44=PERSON_AND_ORGANIZATION(#42,#43);
#45=PERSON_AND_ORGANIZATION_ROLE('creator');
#46=CC_DESIGN_PERSON_AND_ORGANIZATION_ASSIGNMENT(#44,#45,(#41));
#47=PERSON('3','Supplier','Joe',$,$,$);
#48=ORGANIZATION($,'None','None');
#49=PERSON_AND_ORGANIZATION(#47,#48);
#50=PERSON_AND_ORGANIZATION_ROLE('design_supplier');
#51=CC_DESIGN_PERSON_AND_ORGANIZATION_ASSIGNMENT(#49,#50,(#41));
#52=APPROVAL_STATUS('approved');
#53=APPROVAL(#52,'None');
#54=PERSON('4','Approver','Joe',$,$,$);
#55=ORGANIZATION($,'None','None');
#56=PERSON_AND_ORGANIZATION(#54,#55);
#57=APPROVAL_ROLE('approver');
#58=APPROVAL_PERSON_ORGANIZATION(#56,#53,#57);
#59=COORDINATED_UNIVERSAL_TIME_OFFSET(8,$,.EXACT.);
#60=CALENDAR_DATE(1996,29,5);
#61=LOCAL_TIME(12,0,0.0,#59);
#62=DATE_AND_TIME(#60,#61);
#63=APPROVAL_DATE_TIME(#62,#53);
#64=CC_DESIGN_APPROVAL(#53,(#41));
#65=SECURITY_CLASSIFICATION_LEVEL('unclassified');
#66=SECURITY_CLASSIFICATION('security','None',#65);
#67=CC_DESIGN_SECURITY_CLASSIFICATION(#66,(#41));
#68=APPROVAL_STATUS('approved');
#69=APPROVAL(#68,'None');
#70=PERSON('5','Approver','Joe',$,$,$);
#71=ORGANIZATION($,'None','None');
#72=PERSON_AND_ORGANIZATION(#70,#71);
#73=APPROVAL_ROLE('approver');
#74=APPROVAL_PERSON_ORGANIZATION(#72,#69,#73);
#75=COORDINATED_UNIVERSAL_TIME_OFFSET(8,$,.EXACT.);
#76=CALENDAR_DATE(1996,29,5);
#77=LOCAL_TIME(12,0,0.0,#75);
#78=DATE_AND_TIME(#76,#77);
#79=APPROVAL_DATE_TIME(#78,#69);
#80=CC_DESIGN_APPROVAL(#69,(#66));
#81=PERSON('6','Classifier','Joe',$,$,$);
#82=ORGANIZATION($,'None','None');
#83=PERSON_AND_ORGANIZATION(#81,#82);
#84=PERSON_AND_ORGANIZATION_ROLE('classification_officer');
#85=CC_DESIGN_PERSON_AND_ORGANIZATION_ASSIGNMENT(#83,#84,(#66));
#86=COORDINATED_UNIVERSAL_TIME_OFFSET(8,$,.EXACT.);
#87=CALENDAR_DATE(1996,29,5);
#88=LOCAL_TIME(12,0,0.0,#86);
#89=DATE_AND_TIME(#87,#88);
#90=DATE_TIME_ROLE('classification_date');
#91=CC_DESIGN_DATE_AND_TIME_ASSIGNMENT(#89,#90,(#66));
#92=DESIGN_CONTEXT('Design Context',#29,'design');
#93=PRODUCT_DEFINITION('None','None',#41,#92);
#94=PERSON('7','Creator','Joe',$,$,$);
#95=ORGANIZATION($,'None','None');
#96=PERSON_AND_ORGANIZATION(#94,#95);
#97=PERSON_AND_ORGANIZATION_ROLE('creator');
#98=CC_DESIGN_PERSON_AND_ORGANIZATION_ASSIGNMENT(#96,#97,(#93));
#99=COORDINATED_UNIVERSAL_TIME_OFFSET(8,$,.EXACT.);
#100=CALENDAR_DATE(1996,29,5);
#101=LOCAL_TIME(12,0,0.0,#99);
#102=DATE_AND_TIME(#100,#101);
#103=DATE_TIME_ROLE('creation_date');
#104=CC_DESIGN_DATE_AND_TIME_ASSIGNMENT(#102,#103,(#93));
#105=APPROVAL_STATUS('approved');
#106=APPROVAL(#105,'None');
#107=PERSON('8','Approver','Joe',$,$,$);
#108=ORGANIZATION($,'None','None');
#109=PERSON_AND_ORGANIZATION(#107,#108);
#110=APPROVAL_ROLE('approver');
#111=APPROVAL_PERSON_ORGANIZATION(#109,#106,#110);
#112=COORDINATED_UNIVERSAL_TIME_OFFSET(8,$,.EXACT.);
#113=CALENDAR_DATE(1996,29,5);
#114=LOCAL_TIME(12,0,0.0,#112);
#115=DATE_AND_TIME(#113,#114);
#116=APPROVAL_DATE_TIME(#115,#106);
#117=CC_DESIGN_APPROVAL(#106,(#93));
#118=CARTESIAN_POINT('NONE',(0.0,0.0,0.0));
#119=DIRECTION('NONE',(0.0,0.0,1.0));
#120=DIRECTION('NONE',(1.0,0.0,0.0));
#121=AXIS2_PLACEMENT_3D('NONE',#118,#119,#120);
#122=SHAPE_REPRESENTATION('SR1',(#121),#28);
#123=PRODUCT_DEFINITION_SHAPE('PDS1','Test Part',#93);
#124=SHAPE_DEFINITION_REPRESENTATION(#123,#122);
#125=CARTESIAN_POINT('',(-0.499110000000002,-0.000795000000001,0.106110000000001));
#126=DIRECTION('',(-4.078759E-032,-2.220446E-016,-1.0));
#127=DIRECTION('',(1.0,0.0,0.0));
#128=AXIS2_PLACEMENT_3D('',#125,#126,#127);
#129=CYLINDRICAL_SURFACE('',#128,0.11004);
#130=CARTESIAN_POINT('',(-0.38907,-0.000795000000001,0.526620000000001));
#131=VERTEX_POINT('',#130);
#132=CARTESIAN_POINT('',(-0.389070000000002,-0.000795000000001,-0.051090000000002));
#133=VERTEX_POINT('',#132);
#134=CARTESIAN_POINT('',(-0.389070000000002,-0.000795000000001,0.526620000000001));
#135=DIRECTION('',(0.0,0.0,-1.0));
#136=VECTOR('',#135,0.577710000000003);
#137=LINE('',#134,#136);
#138=EDGE_CURVE('',#131,#133,#137,.T.);
#139=ORIENTED_EDGE('',*,*,#138,.F.);
#140=CARTESIAN_POINT('',(-0.609150000000002,-0.000795000000001,0.526620000000001));
#141=VERTEX_POINT('',#140);
#142=CARTESIAN_POINT('',(-0.499110000000002,-0.000795000000001,0.526620000000001));
#143=DIRECTION('',(0.0,0.0,-1.0));
#144=DIRECTION('',(1.0,0.0,0.0));
#145=AXIS2_PLACEMENT_3D('',#142,#143,#144);
#146=CIRCLE('',#145,0.11004);
#147=EDGE_CURVE('',#141,#131,#146,.T.);
#148=ORIENTED_EDGE('',*,*,#147,.F.);
#149=CARTESIAN_POINT('',(-0.60915,-0.000795000000001,-0.051090000000002));
#150=VERTEX_POINT('',#149);
#151=CARTESIAN_POINT('',(-0.609150000000002,-0.000795000000001,0.526620000000001));
#152=DIRECTION('',(0.0,0.0,-1.0));
#153=VECTOR('',#152,0.577710000000003);
#154=LINE('',#151,#153);
#155=EDGE_CURVE('',#141,#150,#154,.T.);
#156=ORIENTED_EDGE('',*,*,#155,.T.);
#157=CARTESIAN_POINT('',(-0.499110000000002,-0.000795000000001,-0.051090000000002));
#158=DIRECTION('',(0.0,0.0,1.0));
#159=DIRECTION('',(1.0,0.0,0.0));
#160=AXIS2_PLACEMENT_3D('',#157,#158,#159);
#161=CIRCLE('',#160,0.11004);
#162=EDGE_CURVE('',#133,#150,#161,.T.);
#163=ORIENTED_EDGE('',*,*,#162,.F.);
#164=EDGE_LOOP('',(#139,#148,#156,#163));
#165=FACE_OUTER_BOUND('',#164,.T.);
#166=ADVANCED_FACE('',(#165),#129,.F.);
#167=CARTESIAN_POINT('',(-0.499110000000002,-0.000795000000001,0.636659999999999));
#168=DIRECTION('',(-4.078759E-032,-2.220446E-016,-1.0));
#169=DIRECTION('',(1.0,0.0,0.0));
#170=AXIS2_PLACEMENT_3D('',#167,#168,#169);
#171=CYLINDRICAL_SURFACE('',#170,0.1915875);
#172=CARTESIAN_POINT('',(-0.307522500000001,-0.000795000000001,0.746700000000001));
#173=VERTEX_POINT('',#172);
#174=CARTESIAN_POINT('',(-0.307522500000001,-0.000795000000001,0.526620000000001));
#175=VERTEX_POINT('',#174);
#176=CARTESIAN_POINT('',(-0.307522500000002,-0.000795000000001,0.746700000000001));
#177=DIRECTION('',(0.0,0.0,-1.0));
#178=VECTOR('',#177,0.220079999999999);
#179=LINE('',#176,#178);
#180=EDGE_CURVE('',#173,#175,#179,.T.);
#181=ORIENTED_EDGE('',*,*,#180,.F.);
#182=CARTESIAN_POINT('',(-0.690697500000002,-0.000795000000001,0.746700000000001));
#183=VERTEX_POINT('',#182);
#184=CARTESIAN_POINT('',(-0.499110000000002,-0.000795000000001,0.746700000000001));
#185=DIRECTION('',(0.0,0.0,-1.0));
#186=DIRECTION('',(1.0,0.0,0.0));
#187=AXIS2_PLACEMENT_3D('',#184,#185,#186);
#188=CIRCLE('',#187,0.1915875);
#189=EDGE_CURVE('',#183,#173,#188,.T.);
#190=ORIENTED_EDGE('',*,*,#189,.F.);
#191=CARTESIAN_POINT('',(-0.690697500000002,-0.000795000000001,0.526620000000001));
#192=VERTEX_POINT('',#191);
#193=CARTESIAN_POINT('',(-0.690697500000002,-0.000795000000001,0.746700000000001));
#194=DIRECTION('',(0.0,0.0,-1.0));
#195=VECTOR('',#194,0.220079999999999);
#196=LINE('',#193,#195);
#197=EDGE_CURVE('',#183,#192,#196,.T.);
#198=ORIENTED_EDGE('',*,*,#197,.T.);
#199=CARTESIAN_POINT('',(-0.499110000000002,-0.000795000000001,0.526620000000001));
#200=DIRECTION('',(0.0,0.0,-1.0));
#201=DIRECTION('',(1.0,0.0,0.0));
#202=AXIS2_PLACEMENT_3D('',#199,#200,#201);
#203=CIRCLE('',#202,0.1915875);
#204=EDGE_CURVE('',#192,#175,#203,.T.);
#205=ORIENTED_EDGE('',*,*,#204,.T.);
#206=EDGE_LOOP('',(#181,#190,#198,#205));
#207=FACE_OUTER_BOUND('',#206,.T.);
#208=ADVANCED_FACE('',(#207),#171,.F.);
#209=CARTESIAN_POINT('',(-0.25545,-0.380040000000002,0.393000000000001));
#210=DIRECTION('',(-5.424535E-016,-1.0,7.966128E-032));
#211=DIRECTION('',(0.0,0.0,1.0));
#212=AXIS2_PLACEMENT_3D('',#209,#210,#211);
#213=CYLINDRICAL_SURFACE('',#212,0.1179);
#214=CARTESIAN_POINT('',(-0.25545,0.307709999999999,0.510899999999999));
#215=VERTEX_POINT('',#214);
#216=CARTESIAN_POINT('',(-0.25545,-0.49008,0.510900000000001));
#217=VERTEX_POINT('',#216);
#218=CARTESIAN_POINT('',(-0.255449999999999,0.307709999999999,0.510900000000001));
#219=DIRECTION('',(0.0,-1.0,0.0));
#220=VECTOR('',#219,0.797789999999999);
#221=LINE('',#218,#220);
#222=EDGE_CURVE('',#215,#217,#221,.T.);
#223=ORIENTED_EDGE('',*,*,#222,.F.);
#224=CARTESIAN_POINT('',(-0.255449999999999,0.307709999999999,0.275100000000001));
#225=VERTEX_POINT('',#224);
#226=CARTESIAN_POINT('',(-0.25545,0.307709999999999,0.393000000000001));
#227=DIRECTION('',(0.0,-1.0,0.0));
#228=DIRECTION('',(0.0,0.0,1.0));
#229=AXIS2_PLACEMENT_3D('',#226,#227,#228);
#230=CIRCLE('',#229,0.1179);
#231=EDGE_CURVE('',#225,#215,#230,.T.);
#232=ORIENTED_EDGE('',*,*,#231,.F.);
#233=CARTESIAN_POINT('',(-0.25545,-0.49008,0.275100000000002));
#234=VERTEX_POINT('',#233);
#235=CARTESIAN_POINT('',(-0.255449999999999,0.307709999999999,0.275100000000001));
#236=DIRECTION('',(0.0,-1.0,0.0));
#237=VECTOR('',#236,0.797789999999999);
#238=LINE('',#235,#237);
#239=EDGE_CURVE('',#225,#234,#238,.T.);
#240=ORIENTED_EDGE('',*,*,#239,.T.);
#241=CARTESIAN_POINT('',(-0.25545,-0.49008,0.393000000000001));
#242=DIRECTION('',(0.0,1.0,0.0));
#243=DIRECTION('',(0.0,0.0,1.0));
#244=AXIS2_PLACEMENT_3D('',#241,#242,#243);
#245=CIRCLE('',#244,0.1179);
#246=EDGE_CURVE('',#217,#234,#245,.T.);
#247=ORIENTED_EDGE('',*,*,#246,.F.);
#248=EDGE_LOOP('',(#223,#232,#240,#247));
#249=FACE_OUTER_BOUND('',#248,.T.);
#250=ADVANCED_FACE('',(#249),#213,.F.);
#251=CARTESIAN_POINT('',(-0.25545,-0.380040000000002,0.393000000000001));
#252=DIRECTION('',(-5.424535E-016,-1.0,7.966128E-032));
#253=DIRECTION('',(0.0,0.0,1.0));
#254=AXIS2_PLACEMENT_3D('',#251,#252,#253);
#255=CYLINDRICAL_SURFACE('',#254,0.1179);
#256=ORIENTED_EDGE('',*,*,#222,.T.);
#257=CARTESIAN_POINT('',(-0.25545,-0.49008,0.393000000000001));
#258=DIRECTION('',(0.0,1.0,0.0));
#259=DIRECTION('',(0.0,0.0,1.0));
#260=AXIS2_PLACEMENT_3D('',#257,#258,#259);
#261=CIRCLE('',#260,0.1179);
#262=EDGE_CURVE('',#234,#217,#261,.T.);
#263=ORIENTED_EDGE('',*,*,#262,.F.);
#264=ORIENTED_EDGE('',*,*,#239,.F.);
#265=CARTESIAN_POINT('',(-0.25545,0.307709999999999,0.393000000000001));
#266=DIRECTION('',(0.0,-1.0,0.0));
#267=DIRECTION('',(0.0,0.0,1.0));
#268=AXIS2_PLACEMENT_3D('',#265,#266,#267);
#269=CIRCLE('',#268,0.1179);
#270=EDGE_CURVE('',#215,#225,#269,.T.);
#271=ORIENTED_EDGE('',*,*,#270,.F.);
#272=EDGE_LOOP('',(#256,#263,#264,#271));
#273=FACE_OUTER_BOUND('',#272,.T.);
#274=ADVANCED_FACE('',(#273),#255,.F.);
#275=CARTESIAN_POINT('',(-0.499110000000002,-0.000795000000001,0.636659999999999));
#276=DIRECTION('',(-4.078759E-032,-2.220446E-016,-1.0));
#277=DIRECTION('',(1.0,0.0,0.0));
#278=AXIS2_PLACEMENT_3D('',#275,#276,#277);
#279=CYLINDRICAL_SURFACE('',#278,0.1915875);
#280=ORIENTED_EDGE('',*,*,#180,.T.);
#281=CARTESIAN_POINT('',(-0.499110000000002,-0.000795000000001,0.526620000000001));
#282=DIRECTION('',(0.0,0.0,-1.0));
#283=DIRECTION('',(1.0,0.0,0.0));
#284=AXIS2_PLACEMENT_3D('',#281,#282,#283);
#285=CIRCLE('',#284,0.1915875);
#286=EDGE_CURVE('',#175,#192,#285,.T.);
#287=ORIENTED_EDGE('',*,*,#286,.T.);
#288=ORIENTED_EDGE('',*,*,#197,.F.);
#289=CARTESIAN_POINT('',(-0.499110000000002,-0.000795000000001,0.746700000000001));
#290=DIRECTION('',(0.0,0.0,-1.0));
#291=DIRECTION('',(1.0,0.0,0.0));
#292=AXIS2_PLACEMENT_3D('',#289,#290,#291);
#293=CIRCLE('',#292,0.1915875);
#294=EDGE_CURVE('',#173,#183,#293,.T.);
#295=ORIENTED_EDGE('',*,*,#294,.F.);
#296=EDGE_LOOP('',(#280,#287,#288,#295));
#297=FACE_OUTER_BOUND('',#296,.T.);
#298=ADVANCED_FACE('',(#297),#279,.F.);
#299=CARTESIAN_POINT('',(-0.348296250000001,-0.000795000000001,0.526620000000001));
#300=DIRECTION('',(0.0,0.0,-1.0));
#301=DIRECTION('',(0.0,1.0,0.0));
#302=AXIS2_PLACEMENT_3D('',#299,#300,#301);
#303=PLANE('',#302);
#304=ORIENTED_EDGE('',*,*,#286,.F.);
#305=ORIENTED_EDGE('',*,*,#204,.F.);
#306=EDGE_LOOP('',(#304,#305));
#307=FACE_OUTER_BOUND('',#306,.T.);
#308=CARTESIAN_POINT('',(-0.499110000000002,-0.000795000000001,0.526620000000001));
#309=DIRECTION('',(0.0,0.0,-1.0));
#310=DIRECTION('',(1.0,0.0,0.0));
#311=AXIS2_PLACEMENT_3D('',#308,#309,#310);
#312=CIRCLE('',#311,0.11004);
#313=EDGE_CURVE('',#131,#141,#312,.T.);
#314=ORIENTED_EDGE('',*,*,#313,.T.);
#315=ORIENTED_EDGE('',*,*,#147,.T.);
#316=EDGE_LOOP('',(#314,#315));
#317=FACE_BOUND('',#316,.T.);
#318=ADVANCED_FACE('',(#307,#317),#303,.F.);
#319=CARTESIAN_POINT('',(-0.499110000000002,-0.000795000000001,0.106110000000001));
#320=DIRECTION('',(-4.078759E-032,-2.220446E-016,-1.0));
#321=DIRECTION('',(1.0,0.0,0.0));
#322=AXIS2_PLACEMENT_3D('',#319,#320,#321);
#323=CYLINDRICAL_SURFACE('',#322,0.11004);
#324=ORIENTED_EDGE('',*,*,#138,.T.);
#325=CARTESIAN_POINT('',(-0.499110000000002,-0.000795000000001,-0.051090000000002));
#326=DIRECTION('',(0.0,0.0,1.0));
#327=DIRECTION('',(1.0,0.0,0.0));
#328=AXIS2_PLACEMENT_3D('',#325,#326,#327);
#329=CIRCLE('',#328,0.11004);
#330=EDGE_CURVE('',#150,#133,#329,.T.);
#331=ORIENTED_EDGE('',*,*,#330,.F.);
#332=ORIENTED_EDGE('',*,*,#155,.F.);
#333=ORIENTED_EDGE('',*,*,#313,.F.);
#334=EDGE_LOOP('',(#324,#331,#332,#333));
#335=FACE_OUTER_BOUND('',#334,.T.);
#336=ADVANCED_FACE('',(#335),#323,.F.);
#337=CARTESIAN_POINT('',(-1.110223E-016,-0.49008,0.746700000000001));
#338=DIRECTION('',(0.0,-1.0,0.0));
#339=DIRECTION('',(0.0,0.0,-1.0));
#340=AXIS2_PLACEMENT_3D('',#337,#338,#339);
#341=PLANE('',#340);
#342=CARTESIAN_POINT('',(-0.746700000000001,-0.49008,0.746700000000001));
#343=VERTEX_POINT('',#342);
#344=CARTESIAN_POINT('',(-0.746700000000001,-0.49008,0.0));
#345=VERTEX_POINT('',#344);
#346=CARTESIAN_POINT('',(-0.746700000000001,-0.49008,0.746700000000001));
#347=DIRECTION('',(0.0,0.0,-1.0));
#348=VECTOR('',#347,0.746700000000001);
#349=LINE('',#346,#348);
#350=EDGE_CURVE('',#343,#345,#349,.T.);
#351=ORIENTED_EDGE('',*,*,#350,.T.);
#352=CARTESIAN_POINT('',(-1.110223E-016,-0.49008,0.0));
#353=VERTEX_POINT('',#352);
#354=CARTESIAN_POINT('',(-1.110223E-016,-0.49008,0.0));
#355=DIRECTION('',(-1.0,0.0,0.0));
#356=VECTOR('',#355,0.746700000000001);
#357=LINE('',#354,#356);
#358=EDGE_CURVE('',#353,#345,#357,.T.);
#359=ORIENTED_EDGE('',*,*,#358,.F.);
#360=CARTESIAN_POINT('',(-1.110223E-016,-0.49008,0.746700000000001));
#361=VERTEX_POINT('',#360);
#362=CARTESIAN_POINT('',(-1.110223E-016,-0.49008,0.0));
#363=DIRECTION('',(0.0,0.0,1.0));
#364=VECTOR('',#363,0.746700000000001);
#365=LINE('',#362,#364);
#366=EDGE_CURVE('',#353,#361,#365,.T.);
#367=ORIENTED_EDGE('',*,*,#366,.T.);
#368=CARTESIAN_POINT('',(-1.110223E-016,-0.49008,0.746700000000001));
#369=DIRECTION('',(-1.0,0.0,0.0));
#370=VECTOR('',#369,0.746700000000001);
#371=LINE('',#368,#370);
#372=EDGE_CURVE('',#361,#343,#371,.T.);
#373=ORIENTED_EDGE('',*,*,#372,.T.);
#374=EDGE_LOOP('',(#351,#359,#367,#373));
#375=FACE_OUTER_BOUND('',#374,.T.);
#376=ORIENTED_EDGE('',*,*,#262,.T.);
#377=ORIENTED_EDGE('',*,*,#246,.T.);
#378=EDGE_LOOP('',(#376,#377));
#379=FACE_BOUND('',#378,.T.);
#380=ADVANCED_FACE('',(#375,#379),#341,.T.);
#381=CARTESIAN_POINT('',(-1.110223E-016,-0.49008,0.0));
#382=DIRECTION('',(0.0,0.0,-1.0));
#383=DIRECTION('',(0.0,1.0,0.0));
#384=AXIS2_PLACEMENT_3D('',#381,#382,#383);
#385=PLANE('',#384);
#386=CARTESIAN_POINT('',(-0.746700000000001,-0.124590000000002,0.0));
#387=VERTEX_POINT('',#386);
#388=CARTESIAN_POINT('',(-0.746700000000001,-0.49008,0.0));
#389=DIRECTION('',(0.0,1.0,0.0));
#390=VECTOR('',#389,0.365489999999998);
#391=LINE('',#388,#390);
#392=EDGE_CURVE('',#345,#387,#391,.T.);
#393=ORIENTED_EDGE('',*,*,#392,.T.);
#394=CARTESIAN_POINT('',(0.0,-0.124590000000002,0.0));
#395=VERTEX_POINT('',#394);
#396=CARTESIAN_POINT('',(0.0,-0.124590000000002,0.0));
#397=DIRECTION('',(-1.0,0.0,0.0));
#398=VECTOR('',#397,0.746700000000001);
#399=LINE('',#396,#398);
#400=EDGE_CURVE('',#395,#387,#399,.T.);
#401=ORIENTED_EDGE('',*,*,#400,.F.);
#402=CARTESIAN_POINT('',(0.0,-0.124590000000002,0.0));
#403=DIRECTION('',(0.0,-1.0,0.0));
#404=VECTOR('',#403,0.365489999999998);
#405=LINE('',#402,#404);
#406=EDGE_CURVE('',#395,#353,#405,.T.);
#407=ORIENTED_EDGE('',*,*,#406,.T.);
#408=ORIENTED_EDGE('',*,*,#358,.T.);
#409=EDGE_LOOP('',(#393,#401,#407,#408));
#410=FACE_OUTER_BOUND('',#409,.T.);
#411=ADVANCED_FACE('',(#410),#385,.T.);
#412=CARTESIAN_POINT('',(0.0,-0.124590000000002,0.0));
#413=DIRECTION('',(0.0,-1.0,0.0));
#414=DIRECTION('',(0.0,0.0,-1.0));
#415=AXIS2_PLACEMENT_3D('',#412,#413,#414);
#416=PLANE('',#415);
#417=CARTESIAN_POINT('',(-0.746700000000001,-0.124590000000002,-0.051090000000002));
#418=VERTEX_POINT('',#417);
#419=CARTESIAN_POINT('',(-0.746700000000001,-0.124590000000002,0.0));
#420=DIRECTION('',(0.0,0.0,-1.0));
#421=VECTOR('',#420,0.051090000000002);
#422=LINE('',#419,#421);
#423=EDGE_CURVE('',#387,#418,#422,.T.);
#424=ORIENTED_EDGE('',*,*,#423,.T.);
#425=CARTESIAN_POINT('',(0.0,-0.124590000000002,-0.051090000000002));
#426=VERTEX_POINT('',#425);
#427=CARTESIAN_POINT('',(0.0,-0.124590000000002,-0.051090000000002));
#428=DIRECTION('',(-1.0,0.0,0.0));
#429=VECTOR('',#428,0.746700000000001);
#430=LINE('',#427,#429);
#431=EDGE_CURVE('',#426,#418,#430,.T.);
#432=ORIENTED_EDGE('',*,*,#431,.F.);
#433=CARTESIAN_POINT('',(0.0,-0.124590000000002,-0.051090000000002));
#434=DIRECTION('',(0.0,0.0,1.0));
#435=VECTOR('',#434,0.051090000000002);
#436=LINE('',#433,#435);
#437=EDGE_CURVE('',#426,#395,#436,.T.);
#438=ORIENTED_EDGE('',*,*,#437,.T.);
#439=ORIENTED_EDGE('',*,*,#400,.T.);
#440=EDGE_LOOP('',(#424,#432,#438,#439));
#441=FACE_OUTER_BOUND('',#440,.T.);
#442=ADVANCED_FACE('',(#441),#416,.T.);
#443=CARTESIAN_POINT('',(0.0,-0.124590000000002,-0.051090000000002));
#444=DIRECTION('',(0.0,0.0,-1.0));
#445=DIRECTION('',(0.0,1.0,0.0));
#446=AXIS2_PLACEMENT_3D('',#443,#444,#445);
#447=PLANE('',#446);
#448=CARTESIAN_POINT('',(-0.746700000000001,0.123,-0.051090000000002));
#449=VERTEX_POINT('',#448);
#450=CARTESIAN_POINT('',(-0.746700000000001,-0.124590000000002,-0.051090000000002));
#451=DIRECTION('',(0.0,1.0,0.0));
#452=VECTOR('',#451,0.247590000000002);
#453=LINE('',#450,#452);
#454=EDGE_CURVE('',#418,#449,#453,.T.);
#455=ORIENTED_EDGE('',*,*,#454,.T.);
#456=CARTESIAN_POINT('',(0.0,0.123,-0.051090000000002));
#457=VERTEX_POINT('',#456);
#458=CARTESIAN_POINT('',(0.0,0.123,-0.051090000000002));
#459=DIRECTION('',(-1.0,0.0,0.0));
#460=VECTOR('',#459,0.746700000000001);
#461=LINE('',#458,#460);
#462=EDGE_CURVE('',#457,#449,#461,.T.);
#463=ORIENTED_EDGE('',*,*,#462,.F.);
#464=CARTESIAN_POINT('',(0.0,0.123,-0.051090000000002));
#465=DIRECTION('',(0.0,-1.0,0.0));
#466=VECTOR('',#465,0.247590000000002);
#467=LINE('',#464,#466);
#468=EDGE_CURVE('',#457,#426,#467,.T.);
#469=ORIENTED_EDGE('',*,*,#468,.T.);
#470=ORIENTED_EDGE('',*,*,#431,.T.);
#471=EDGE_LOOP('',(#455,#463,#469,#470));
#472=FACE_OUTER_BOUND('',#471,.T.);
#473=ORIENTED_EDGE('',*,*,#330,.T.);
#474=ORIENTED_EDGE('',*,*,#162,.T.);
#475=EDGE_LOOP('',(#473,#474));
#476=FACE_BOUND('',#475,.T.);
#477=ADVANCED_FACE('',(#472,#476),#447,.T.);
#478=CARTESIAN_POINT('',(0.0,0.123,-0.051090000000002));
#479=DIRECTION('',(0.0,1.0,0.0));
#480=DIRECTION('',(0.0,0.0,1.0));
#481=AXIS2_PLACEMENT_3D('',#478,#479,#480);
#482=PLANE('',#481);
#483=CARTESIAN_POINT('',(-0.746700000000001,0.123,0.0));
#484=VERTEX_POINT('',#483);
#485=CARTESIAN_POINT('',(-0.746700000000001,0.123,-0.051090000000002));
#486=DIRECTION('',(0.0,0.0,1.0));
#487=VECTOR('',#486,0.051090000000002);
#488=LINE('',#485,#487);
#489=EDGE_CURVE('',#449,#484,#488,.T.);
#490=ORIENTED_EDGE('',*,*,#489,.T.);
#491=CARTESIAN_POINT('',(0.0,0.123,0.0));
#492=VERTEX_POINT('',#491);
#493=CARTESIAN_POINT('',(0.0,0.123,0.0));
#494=DIRECTION('',(-1.0,0.0,0.0));
#495=VECTOR('',#494,0.746700000000001);
#496=LINE('',#493,#495);
#497=EDGE_CURVE('',#492,#484,#496,.T.);
#498=ORIENTED_EDGE('',*,*,#497,.F.);
#499=CARTESIAN_POINT('',(0.0,0.123,0.0));
#500=DIRECTION('',(0.0,0.0,-1.0));
#501=VECTOR('',#500,0.051090000000002);
#502=LINE('',#499,#501);
#503=EDGE_CURVE('',#492,#457,#502,.T.);
#504=ORIENTED_EDGE('',*,*,#503,.T.);
#505=ORIENTED_EDGE('',*,*,#462,.T.);
#506=EDGE_LOOP('',(#490,#498,#504,#505));
#507=FACE_OUTER_BOUND('',#506,.T.);
#508=ADVANCED_FACE('',(#507),#482,.T.);
#509=CARTESIAN_POINT('',(0.0,0.123,0.0));
#510=DIRECTION('',(0.0,0.0,-1.0));
#511=DIRECTION('',(0.0,1.0,0.0));
#512=AXIS2_PLACEMENT_3D('',#509,#510,#511);
#513=PLANE('',#512);
#514=CARTESIAN_POINT('',(-0.746700000000001,0.307709999999999,0.0));
#515=VERTEX_POINT('',#514);
#516=CARTESIAN_POINT('',(-0.746700000000001,0.123,0.0));
#517=DIRECTION('',(0.0,1.0,0.0));
#518=VECTOR('',#517,0.184709999999999);
#519=LINE('',#516,#518);
#520=EDGE_CURVE('',#484,#515,#519,.T.);
#521=ORIENTED_EDGE('',*,*,#520,.T.);
#522=CARTESIAN_POINT('',(0.0,0.307709999999999,0.0));
#523=VERTEX_POINT('',#522);
#524=CARTESIAN_POINT('',(0.0,0.307709999999999,0.0));
#525=DIRECTION('',(-1.0,0.0,0.0));
#526=VECTOR('',#525,0.746700000000001);
#527=LINE('',#524,#526);
#528=EDGE_CURVE('',#523,#515,#527,.T.);
#529=ORIENTED_EDGE('',*,*,#528,.F.);
#530=CARTESIAN_POINT('',(0.0,0.307709999999999,0.0));
#531=DIRECTION('',(0.0,-1.0,0.0));
#532=VECTOR('',#531,0.184709999999999);
#533=LINE('',#530,#532);
#534=EDGE_CURVE('',#523,#492,#533,.T.);
#535=ORIENTED_EDGE('',*,*,#534,.T.);
#536=ORIENTED_EDGE('',*,*,#497,.T.);
#537=EDGE_LOOP('',(#521,#529,#535,#536));
#538=FACE_OUTER_BOUND('',#537,.T.);
#539=ADVANCED_FACE('',(#538),#513,.T.);
#540=CARTESIAN_POINT('',(0.0,0.307709999999999,0.0));
#541=DIRECTION('',(0.0,1.0,0.0));
#542=DIRECTION('',(0.0,0.0,1.0));
#543=AXIS2_PLACEMENT_3D('',#540,#541,#542);
#544=PLANE('',#543);
#545=CARTESIAN_POINT('',(-0.746700000000001,0.307709999999999,0.746700000000001));
#546=VERTEX_POINT('',#545);
#547=CARTESIAN_POINT('',(-0.746700000000001,0.30771,0.0));
#548=DIRECTION('',(0.0,0.0,1.0));
#549=VECTOR('',#548,0.746700000000001);
#550=LINE('',#547,#549);
#551=EDGE_CURVE('',#515,#546,#550,.T.);
#552=ORIENTED_EDGE('',*,*,#551,.T.);
#553=CARTESIAN_POINT('',(0.0,0.307709999999999,0.746700000000001));
#554=VERTEX_POINT('',#553);
#555=CARTESIAN_POINT('',(0.0,0.307709999999999,0.746700000000001));
#556=DIRECTION('',(-1.0,0.0,0.0));
#557=VECTOR('',#556,0.746700000000001);
#558=LINE('',#555,#557);
#559=EDGE_CURVE('',#554,#546,#558,.T.);
#560=ORIENTED_EDGE('',*,*,#559,.F.);
#561=CARTESIAN_POINT('',(0.0,0.307709999999999,0.746700000000001));
#562=DIRECTION('',(0.0,0.0,-1.0));
#563=VECTOR('',#562,0.746700000000001);
#564=LINE('',#561,#563);
#565=EDGE_CURVE('',#554,#523,#564,.T.);
#566=ORIENTED_EDGE('',*,*,#565,.T.);
#567=ORIENTED_EDGE('',*,*,#528,.T.);
#568=EDGE_LOOP('',(#552,#560,#566,#567));
#569=FACE_OUTER_BOUND('',#568,.T.);
#570=ORIENTED_EDGE('',*,*,#270,.T.);
#571=ORIENTED_EDGE('',*,*,#231,.T.);
#572=EDGE_LOOP('',(#570,#571));
#573=FACE_BOUND('',#572,.T.);
#574=ADVANCED_FACE('',(#569,#573),#544,.T.);
#575=CARTESIAN_POINT('',(0.0,0.307709999999999,0.746700000000001));
#576=DIRECTION('',(0.0,0.0,1.0));
#577=DIRECTION('',(0.0,-1.0,0.0));
#578=AXIS2_PLACEMENT_3D('',#575,#576,#577);
#579=PLANE('',#578);
#580=CARTESIAN_POINT('',(-0.746700000000001,0.307709999999999,0.746700000000001));
#581=DIRECTION('',(0.0,-1.0,0.0));
#582=VECTOR('',#581,0.797789999999999);
#583=LINE('',#580,#582);
#584=EDGE_CURVE('',#546,#343,#583,.T.);
#585=ORIENTED_EDGE('',*,*,#584,.T.);
#586=ORIENTED_EDGE('',*,*,#372,.F.);
#587=CARTESIAN_POINT('',(-1.110223E-016,-0.49008,0.746700000000001));
#588=DIRECTION('',(0.0,1.0,0.0));
#589=VECTOR('',#588,0.797789999999999);
#590=LINE('',#587,#589);
#591=EDGE_CURVE('',#361,#554,#590,.T.);
#592=ORIENTED_EDGE('',*,*,#591,.T.);
#593=ORIENTED_EDGE('',*,*,#559,.T.);
#594=EDGE_LOOP('',(#585,#586,#592,#593));
#595=FACE_OUTER_BOUND('',#594,.T.);
#596=ORIENTED_EDGE('',*,*,#294,.T.);
#597=ORIENTED_EDGE('',*,*,#189,.T.);
#598=EDGE_LOOP('',(#596,#597));
#599=FACE_BOUND('',#598,.T.);
#600=ADVANCED_FACE('',(#595,#599),#579,.T.);
#601=CARTESIAN_POINT('',(0.0,-0.045990000000001,0.173902500000001));
#602=DIRECTION('',(1.0,0.0,0.0));
#603=DIRECTION('',(0.0,0.0,1.0));
#604=AXIS2_PLACEMENT_3D('',#601,#602,#603);
#605=PLANE('',#604);
#606=ORIENTED_EDGE('',*,*,#591,.F.);
#607=ORIENTED_EDGE('',*,*,#366,.F.);
#608=ORIENTED_EDGE('',*,*,#406,.F.);
#609=ORIENTED_EDGE('',*,*,#437,.F.);
#610=ORIENTED_EDGE('',*,*,#468,.F.);
#611=ORIENTED_EDGE('',*,*,#503,.F.);
#612=ORIENTED_EDGE('',*,*,#534,.F.);
#613=ORIENTED_EDGE('',*,*,#565,.F.);
#614=EDGE_LOOP('',(#606,#607,#608,#609,#610,#611,#612,#613));
#615=FACE_OUTER_BOUND('',#614,.T.);
#616=ADVANCED_FACE('',(#615),#605,.T.);
#617=CARTESIAN_POINT('',(-0.746700000000001,-0.49008,0.746700000000001));
#618=DIRECTION('',(1.0,0.0,0.0));
#619=DIRECTION('',(0.0,0.0,1.0));
#620=AXIS2_PLACEMENT_3D('',#617,#618,#619);
#621=PLANE('',#620);
#622=ORIENTED_EDGE('',*,*,#350,.F.);
#623=ORIENTED_EDGE('',*,*,#584,.F.);
#624=ORIENTED_EDGE('',*,*,#551,.F.);
#625=ORIENTED_EDGE('',*,*,#520,.F.);
#626=ORIENTED_EDGE('',*,*,#489,.F.);
#627=ORIENTED_EDGE('',*,*,#454,.F.);
#628=ORIENTED_EDGE('',*,*,#423,.F.);
#629=ORIENTED_EDGE('',*,*,#392,.F.);
#630=EDGE_LOOP('',(#622,#623,#624,#625,#626,#627,#628,#629));
#631=FACE_OUTER_BOUND('',#630,.T.);
#632=ADVANCED_FACE('',(#631),#621,.F.);
#633=CLOSED_SHELL('',(#166,#208,#250,#274,#298,#318,#336,#380,#411,#442,#477,#508,#539,#574,#600,#616,#632));
#634=MANIFOLD_SOLID_BREP('2F',#633);
#635=ADVANCED_BREP_SHAPE_REPRESENTATION('ABSR1',(#634),#28);
#636=SHAPE_REPRESENTATION_RELATIONSHIP('SRRPL1','',#635,#122);
ENDSEC;
END-ISO-10303-21;
